Oops, an error
Loading. Please wait.

System Of A Down Tab

ver3
ver3

Album

More versions @911Tabs.com
10,273 views 19 this week
1 commentread comment
1 2 3 4 5
worth learning
x 7
Autoscroll
+/-
esc
set tempo
stop
Contributor
Difficulty
Tuning
intermediate
C G C F A D
Hey! There's an official Ultimate Guitar app which is ideal
for learning songs when you're away from computer. Get the app
WARNING: You are trying to view
                                    content from Ultimate-Guitar.com
                                    in an unauthorized application,
                                    which is prohibited.

                                    Please use an official Ultimate
                                    Guitar Tabs application for iPhone,
                                    iPad or Android to access legitimate
                                    chords, guitar, bass, and drum tabs
                                    from Ultimate-Guitar.com database.

                                    Type "ultimate guitar tabs" in Apple
                                    App Store's or Android Market's
                                    search to find the application.
SYSTEM OF A DOWN 
WHOLE ALBUM

Ive looked at some other peoples TABs to help with some parts, im not like a pro or anything.
These are the peoples whos TABs ive had a peak at.
Thanks to them a lot.

SoadFreak II
MetalFreak794
kidinchains
McCguitar
InertZero0
tza
rmwaters3000
deftones17

So here it is in it's entierity.

lightly put ur finger on the string and do the slids.
D|-------------------------------------------------------------------------|
A|-------------------------------------------------------------------------|
F|-5/and thats slid down the neck to about two/2\5:that means slid back to 5
c|-------------------------------------------------------------------------|
G|-------------------------------------------------------------------------|
C|-------------------------------------------------------------------------|
pick these riffs a lot and really fast.dont just hit the note and slide to the
next.slide while your still picking it.the numbers are just there so u know what
numbers to stop at.start at five then pick it a bunch of times till u get to two
and then go to five again but dont stop hitting the notes.


D|---------------------------------------------------------------------------|
A|---------------------------------------------------------------------------|
F|---------------------------------------------------------------------------|
c|--5/2\5--------------------------------------------------------------------|
G|---------------------------------------------------------------------------|
C|---------------------------------------------------------------------------|

D|-------------------------------------------------------------------------|
A|-------------------------------------------------------------------------|
F|-------------------------------------------------------------------------|
c|-------------------------------------------------------------------------|
G|--5/2\5------------------------------------------------------------------|
C|-------------------------------------------------------------------------|

D|--------------------------------------------------------------------------|
A|--------------------------------------------------------------------------|
F|--------------------------------------------------------------------------|
c|--5/2\5-------------------------------------------------------------------|
G|--------------------------------------------------------------------------|
C|--------------------------------------------------------------------------|

D|--------------------------------------------------------------------------|
A|--------------------------------------------------------------------------|
F|--5/2\5-------------------------------------------------------------------|
c|--------------------------------------------------------------------------|
g|--------------------------------------------------------------------------|
c|--------------------------------------------------------------------------|

D|--------------------------------------------------------------------------|
A|--------------------------------------------------------------------------|
F|--------------------------------------------------------------------------|
c|--5/2\5-------------------------------------------------------------------|
G|--------------------------------------------------------------------------|
C|--------------------------------------------------------------------------|

D|--------------------------------------------------------------------------|
A|--------------------------------------------------------------------------|
F|--------------------------------------------------------------------------|
c|--------------------------------------------------------------------------|
G|--5/2\5-------------------------------------------------------------------|
C|--------------------------------------------------------------------------|


D|--------------------------------------------------------------------------|
A|--------------------------------------------------------------------------|
F|--------------------------------------------------------------------------|
c|--5/2\5-------------------------------------------------------------------|
G|--------------------------------------------------------------------------|
C|--------------------------------------------------------------------------|

D|--------------------------------------------------------------------------|
A|--------------------------------------------------------------------------|
F|----------------------------------------------------------7---------------|
c|-0-0-0-0-1-0-1---0-0-0-0-1-0-1---0-0-0-0-1-0-1--0-0-1-0-1-5---------------|
g|-0-0-0-0-1-0-1---0-0-0-0-1-0-1---0-0-0-0-1-0-1--0-0-1-0-1-5---------------|
c|-0-0-0-0-1-0-1---0-0-0-0-1-0-1---0-0-0-0-1-0-1--0-0-1-0-1-----------------|

do that 2x then

D|--------------------------------------------------------------------------|
A|--------------------------------------------------------------------------|
F|------------------------------------------19(sometimes he bends this note)|
c|--------------------------------------------------------------------------|
G|-17-17-17-17-18-17-18----17-17-17-17-18-17--------------------------------|
C|--------------------------------------------------------------------------|
about 4x

D|--------------------------------------------------------------------------|
A|--------------------------------------------------------------------------|
F|----------------------------------------------------------7---------------|
c|-0-0-0-0-1-0-1---0-0-0-0-1-0-1---0-0-0-0-1-0-1--0-0-1-0-1-5---------------|
g|-0-0-0-0-1-0-1---0-0-0-0-1-0-1---0-0-0-0-1-0-1--0-0-1-0-1-5---------------|
c|-0-0-0-0-1-0-1---0-0-0-0-1-0-1---0-0-0-0-1-0-1--0-0-1-0-1-----------------|
2 times

D|--------------------------------------------------------------------------|
A|--------------------------------------------------------------------------|
F|------------------------------------------19(sometimes he bends this note)|
c|--------------------------------------------------------------------------|
G|-17-17-17-17-18-17-18----17-17-17-17-18-17--------------------------------|
C|---------------------\----------------------------------------------------|
about 4x

D|--------------------------------------------------------------------------|
A|--------------------------------------------------------------------------|
F|----------------------------------------------------------7---------------|
c|-0-0-0-0-1-0-1---0-0-0-0-1-0-1---0-0-0-0-1-0-1--0-0-1-0-1-5---------------|
g|-0-0-0-0-1-0-1---0-0-0-0-1-0-1---0-0-0-0-1-0-1--0-0-1-0-1-5---------------|
c|-0-0-0-0-1-0-1---0-0-0-0-1-0-1---0-0-0-0-1-0-1--0-0-1-0-1-----------------|
2 times

then the bass riff goes like this:

F|--------------------------------------------------------------------------|
C|--------------------------------------------------------------------------|
G|--------------------------------------------------------------------------|
C|--0-1-0-0---5-4-----------------------------------------------------------|

D|--------------------------------------------------------------------------|
A|--------------------------------------------------------------------------|
F|--------------------------------------------------------------------------|
c|-0-1-0--0---5-4-----------------------------------------------------------|
G|-0-1-0--0---5-4-----------------------------------------------------------|
C|-0-1-0--0---5-4-----------------------------------------------------------|
about 4 x,but the last time u do it the 5s and 4s have to be palm muted


D|--------------------------------------------------------------------------|
A|--------------------------------------------------------------------------|
F|--------------------------------------------------------------------------|
c|-0-1-0--0---5-4-----------------------------------------------------------|
G|-0-1-0--0---5-4-----------------------------------------------------------|
C|-0-1-0--0---5-4-----------------------------------------------------------|
four time palm muted then:

D|--------------------------------------------------------------------------|
A|--------------------------------------------------------------------------|
F|--------------------------------------------------------------------------|
G|--------------------------------------------------------------------------|
c|---5-4^-------------------------------------------------------------------|
G|--------------------------------------------------------------------------|
C|--------------------------------------------------------------------------|
With some harmonics

D|--------------------------------------------------------------------------|
A|--------------------------------------------------------------------------|
F|--------------------------------------------------------------------------|
c|-0-1-0--0---5-4-----------------------------------------------------------|
G|-0-1-0--0---5-4-----------------------------------------------------------|
C|-0-1-0--0---5-4-----------------------------------------------------------|
three times palm muted then:

*means palm mute,u will find out why im doing it now


D|--------------------------------------------------------------------------|
A|--------------------------------------------------------------------------|
F|--------------------------------------------------------------------------|
c|-0-1-0--0---5-4-4-4-4-4-4-------------------------------------------------|
G|-0-1-0--0---5-4-4-4-4-4-4-------------------------------------------------|
C|-0-1-0--0---5-4-4-4-4-4-4-------------------------------------------------|
   * * *  *   *

D|--------------------------------------------------------------------------|
A|--------------------------------------------------------------------------|
F|--------------------------------------------------------------------------|
c|-0-1-0--0---5-4-----------------------------------------------------------|
G|-0-1-0--0---5-4-----------------------------------------------------------|
C|-0-1-0--0---5-4-----------------------------------------------------------|
8 times then

D|--------------------------------------------------------------------------|
A|--------------------------------------------------------------------------|
F|----------------------------------------------------------7---------------|
c|-0-0-0-0-1-0-1---0-0-0-0-1-0-1---0-0-0-0-1-0-1--0-0-1-0-1-5---------------|
g|-0-0-0-0-1-0-1---0-0-0-0-1-0-1---0-0-0-0-1-0-1--0-0-1-0-1-5---------------|
c|-0-0-0-0-1-0-1---0-0-0-0-1-0-1---0-0-0-0-1-0-1--0-0-1-0-1-----------------|
2 times

D|--------------------------------------------------------------------------|
A|--------------------------------------------------------------------------|
F|----------------------19--------------------------------------------------|
C|--------------------------------------------------------------------------|
G|--17-17-17-17-18-17-------------------------------------------------------|
C|--------------------------------------------------------------------------|
8 times then songs over

KNOW
DROP C

Intro
By:MetalFreak794
|-----|---------------------------------|
|-----|---------------------------------|
|-----|---------------------------------|
|-----|---------------------------------|
|-10\-|---0-8-8-0-0-8-8--x4-------------|
|-10\-|---0-8-8-0-0-8-8-----------------|


|---------------------------------------|
|---------------------------------------|
|---------------------------------------|
|---------------------------------------|
|--0-8-8-8-0-0-4----x8------------------|
|--0-8-8-8-0-0-4------------------------|


|-10-10--10--10-10-10-------x4----------|
|---------------------------------------|
|---------------------------------------|
|---------------------------------------|
|---------------------------------------|
|---------------------------------------|


|---------------------------------------|
|---------------------------------------|
|---------------------------------------|
|---------------------------------------|
|-0-0-3-0-0-3---x2----------------------|
|-0-0-3-0-0-3---------------------------|


Verse

|-----------------|---------------------|
|-----------------|---------------------|
|--------------x4-|---------------------|
|-0-0-3-0-0-3-----|-3-0000-3-0000--x4---|  PM
|-----------------|---------------------|


Chorus

|---------------------------------------|
|---------------------------------------|
|---------------------------------------|
|---------------------------------------|
|-0-2-3-33-3--0-2-3-x-x-x-x-x-----------|
|-0-2-3-33-3--0-2-3-x-x-x-x-x-----------|


Bridge (sounds good if you play the mutes on the 1st fret)

|---------------------------------------------------|
|---------------------------------------------------|
|---------------------------------------------------|
|---------------------------------------------------|
|-xxxxx-xxxxx-xxxxx-xxxxx---00000-00000-00000-00000-|
|-xxxxx-xxxxx-xxxxx-xxxxx---00000-00000-00000-00000-|


|-----------------------------------------|
|---------------10------------------------|
|----------10---10------------------------|
|----------10---10---x4-------------------|
|-----------8---------------10\-----------|
|-0---------------------------------------|


|-----------------------------------------|
|-----------------------------------------|
|-----------------------------------------|
|-000000000000000000003333333333333333333-| PM
|-----------------------------------------|
|-----------------------------------------|


|-----------------------------------------|
|-----------------------------------------|
|-----------------------------------------|
|-----------------------------------------|
|-000000000000000000003333333333333333333-|
|-000000000000000000003333333333333333333-|

SUGAR
Drop C

Bass and drums intro intro
)---------------|
)---------------|
)---------------|
)-6-5-4-3-2-1-0-|

chorus(reapet several times)
    the kombucha mushroom people  siting  around  allday
)----------------------------------------------------------|
)----------------------------------------------------------|
)----------------------------------------------------------|
)-0----7----6----5----0----7----6----5----0----7----6----5-|
)-0----7----6----5----0----7----6----5----0----7----6----5-|
)-0----7----6----5----0----7----6----5----0----7----6----5-|

)----------------------------------------------------------|
)----------------------------------------------------------|
)----------------------------------------------------------|
)-0----7----6----5----0----7----6----5----0----7----6----5-|

  WHO    can  belive  you WHO    can  belive  you
)----------------------------------------------------------|
)----------------------------------------------------------|
)----------------------------------------------------------|
)-0----7----6----5----0----7----6----5----0----7----6----5-|
)-0----7----6----5----0----7----6----5----0----7----6----5-|
)-0----7----6----5----0----7----6----5----0----7----6----5-|

)----------------------------------------------------------|
)----------------------------------------------------------|
)----------------------------------------------------------|
)-0----7----6----5----0----7----6----5----0----7----6----5-|

  Let your mother prraayy
)------------------|
)------------------|
)------------------|
)-0----7----6----5-|
)-0----7----6----5-|
)-0----7----6----5-|

)------------------|
)------------------|
)------------------|
)-0----7----6----5-|

Bass guitar on its own CArry on same rythum
                                      SSSUUUGGGAAARRR
)----------------------------------------------------------|
)----------------------------------------------------------|
)----------------------------------------------------------|
)-0----7----6----5----0----7----6----5----0----7----6----5-|

Verse

)----13-13-12-------10--10--|
)-10----------13-10---------|
)---------------------------|
)---------------------------|
)---------------------------|
)---------------------------|
End the verse here (MY BRAINS!!!)
)-10---10---10---10---|
)---10---10---10---10-|
)---------------------|
)---------------------|
)---------------------|
)---------------------|

chorus(reapet several times)
    the kombucha mushroom people  siting  around  allday
)----------------------------------------------------------|
)----------------------------------------------------------|
)----------------------------------------------------------|
)-0----7----6----5----0----7----6----5----0----7----6----5-|
)-0----7----6----5----0----7----6----5----0----7----6----5-|
)-0----7----6----5----0----7----6----5----0----7----6----5-|

)----------------------------------------------------------|
)----------------------------------------------------------|
)----------------------------------------------------------|
)-0----7----6----5----0----7----6----5----0----7----6----5-|

  WHO    can  belive  you WHO    can  belive  you
)----------------------------------------------------------|
)----------------------------------------------------------|
)----------------------------------------------------------|
)-0----7----6----5----0----7----6----5----0----7----6----5-|
)-0----7----6----5----0----7----6----5----0----7----6----5-|
)-0----7----6----5----0----7----6----5----0----7----6----5-|

)----------------------------------------------------------|
)----------------------------------------------------------|
)----------------------------------------------------------|
)-0----7----6----5----0----7----6----5----0----7----6----5-|

  Let your mother prraayy
)------------------|
)------------------|
)------------------|
)-0----7----6----5-|
)-0----7----6----5-|
)-0----7----6----5-|

)------------------|
)------------------|
)------------------|
)-0----7----6----5-|

Bass guitar on its own carry on same rythum
                                      SSSUUUGGGAAARRR
)----------------------------------------------------------|
)----------------------------------------------------------|
)----------------------------------------------------------|
)-0----7----6----5----0----7----6----5----0----7----6----5-|

verse

)----13-13-12-------10--10--|
)-10----------13-10---------|
)---------------------------|
)---------------------------|
)---------------------------|
)---------------------------|
End the verse here (SUGAR!!!)
)-10---10---10---10---|
)---10---10---10---10-|
)---------------------|
)---------------------|
)---------------------|
)---------------------|

chorus(reapet several times)
    the kombucha mushroom people  siting  around  allday
)----------------------------------------------------------|
)----------------------------------------------------------|
)----------------------------------------------------------|
)-0----7----6----5----0----7----6----5----0----7----6----5-|
)-0----7----6----5----0----7----6----5----0----7----6----5-|
)-0----7----6----5----0----7----6----5----0----7----6----5-|

)----------------------------------------------------------|
)----------------------------------------------------------|
)----------------------------------------------------------|
)-0----7----6----5----0----7----6----5----0----7----6----5-|

  WHO    can  belive  you WHO    can  belive  you
)----------------------------------------------------------|
)----------------------------------------------------------|
)----------------------------------------------------------|
)-0----7----6----5----0----7----6----5----0----7----6----5-|
)-0----7----6----5----0----7----6----5----0----7----6----5-|
)-0----7----6----5----0----7----6----5----0----7----6----5-|

)----------------------------------------------------------|
)----------------------------------------------------------|
)----------------------------------------------------------|
)-0----7----6----5----0----7----6----5----0----7----6----5-|

  Let your mother prraayy
)------------------|
)------------------|
)------------------|
)-0----7----6----5-|
)-0----7----6----5-|
)-0----7----6----5-|

)------------------|
)------------------|
)------------------|
)-0----7----6----5-|


Interlude
   i sit    my dyslight room  no lights    no music   JUST ANGER
)--------------------------------------------------------------------|
)--------------------------------------------------------------------|
)--------------------------------------------------------------------|
)-1------1-0-----------------1----------1-0---------1------------1-0-|
)-1------1-0-----------------1----------1-0---------1------------1-0-|
)-1------1-0-----------------1----------1-0---------1------------1-0-|

 im away forever   but im feeling better
)------------------------------------------|
)------------------------------------------|
)------------------------------------------|
)----------------1-------------------------|
)----------------1-------------------------|
)----------------1-------------------------|

what do i feel? what do i say? *** you and all gos away
PM
----------------------------------------------------------|
)---------------------------------------------------------|
)---------------------------------------------------------|
)---------------------------------------------------------|
)-1-0-0-0-1-0-1-0-0-0-1-0-1-0-0-0-1-0-1-0-0-0-1-0-1-0-0-0-|
)-1-0-0-0-1-0-1-0-0-0-1-0-1-0-0-0-1-0-1-0-0-0-1-0-1-0-0-0-|
)-1-0-0-0-1-0-1-0-0-0-1-0-1-0-0-0-1-0-1-0-0-0-1-0-1-0-0-0-|

how do i feel? what do i say? in the end it all go's away
PM
----------------------------------------------------------|
)---------------------------------------------------------|
)---------------------------------------------------------|
)---------------------------------------------------------|
)-1-0-0-0-1-0-1-0-0-0-1-0-1-0-0-0-1-0-1-0-0-0-1-0-1-0-0-0-|
)-1-0-0-0-1-0-1-0-0-0-1-0-1-0-0-0-1-0-1-0-0-0-1-0-1-0-0-0-|
)-1-0-0-0-1-0-1-0-0-0-1-0-1-0-0-0-1-0-1-0-0-0-1-0-1-0-0-0-|

near end of song
pm
----------|
)---------|
)---------|
)---------|   gradully realease the palm mute :D
)-0-7-6-5-|
)-0-7-6-5-|
)-0-7-6-5-|

Suggestion

tune down to:CGCFAD

intro
-|---7---7--|
-|-----0----|
-|-9--------| repeat 4x
-|----------|
-|----------|
-|----------|

                                     repeat all as needed
-|---7---7--|
-|-----0----|
-|-10-------|  repeat 4x
-|----------|
-|----------|
-|----------|

verse
-|------------------------|                       )
-|------------------------|                       )
-|------------------------|                       )
-|----9----9----9----9----|  repeat as needed     )
-|-7----0----7----0----7--|                       )>
-|------------------------|                       )>>
                                                  )>>> repeat all as needed
                                                  )>>
-|------------------------|                       )>
-|------------------------|                       )
-|------------------------|                       )
-|----9----9----9----9----|  repeat as needed     )
-|-8----0----8----0----8--|                       )
-|------------------------|                       )

 Chorus
|----------------------------------------------|
|----------------------------------------------|
|----------------------------------------------|
|-22---------------------33--------------------|
|-22--repeat as needed---33---repeat as needed-|
|-22---------------------33--------------------|

verse

Chorus


-|---------------------------------------------|
-|---------------------------------------------|
-|-8---------------------11--------------------|
-|-x- repeat as needed --x-  repeat as needed--| repeat 2x
-|-6---------------------9---------------------|
-|---------------------------------------------|

intro riff again

|----------------------------------------------|
|----------------------------------------------|
|----------------------------------------------|
|-22---------------------33--------------------|
|-22--repeat as needed---33---repeat as needed-|
|-22---------------------33--------------------|

|----------------------------------------------|
|----------------------------------------------|
|---------------4--------------------5---------|  repeat as needed
|-22222222222222-------33333333333333----------|
|----------------------------------------------|
|----------------------------------------------|

verse

chorus

-|---------------------------------------------|
-|---------------------------------------------|
-|-8---------------------11--------------------|
-|-x- repeat as needed --x-  repeat as needed--| repeat 2x
-|-6---------------------9---------------------|
-|---------------------------------------------|

that is it, try it before u insult, sounds perfect.

SPIDERS
DROP C

h - Hammer-On
(#) - Tremolo Pick
/ - Slide

Amount of distortion used written near tab line, applies to all in tab
under same name.

Intro/Verse A Part 1 (2x)
|-------------------------|
|-------------------------|
|-------------------------|
|-------------------------| Light Distortion
|---7---7---5---5---5-----|
|-0---0---0---0---0---0-0-|

Intro/Verse A Part 2 (1x)
|----------------------|
|----------------------|
|----------------------|
|----------------------| Light Distortion
|-8---7---10---7---7h8-|
|---0---0----0---0-----|

Intro/Verse A Part 1 (2x)

Part 2 (1x)

Part 1 (2x)

Part 2 (1x)

Part 1 (1x)

Chorus Part A
|-------------------------------|
|-------------------------------|
|-------------------------------|Heavy Distortion
|-10-10-10-10-10-10-10-10-10-10-|Keep Going Until You Feel Done
|-10-10-10-10-10-10-10-10-10-10-|
|-10-10-10-10-10-10-10-10-10-10-|

Chorus Part B
|----------------------------------|
|----------------------------------|
|-14-12-15-14-12/14--12-12/14-(10)-|Light Distortion
|--x--x--x--x--x/-x---x--x/-x--(x)-|
|-12-10-13-12-10/12--10-10/12--(8)-|
|----------------------------------|

Chorus Part C
|------------------------------------------|
|------------------------------------------|
|------------------------------------------|Heavy Distortion
|-10-10-10-10-10-10-10-8-8-8-8-8-7-7-7-7-7-|
|-10-10-10-10-10-10-10-8-8-8-8-8-7-7-7-7-7-|
|-10-10-10-10-10-10-10-8-8-8-8-8-7-7-7-7-7-|

Verse 2 Part A (4x)
|---------------|
|---------------|
|-9-9-7-7-7-777-|Light Distortion
|-x-x-x-x-x-xxx-|
|-7-7-5-5-5-555-|
|---------------|

Chorus Part B (1x)

Verse 2 Part A (2x)

Chorus Part B (1x)

Chorus Part A

Chorus Part B

Chorus Part C

Solo Part A (2x)
|------------------------|
|------------------------|
|-(14)-----(15)-----(18)-|Heavy
|-(-x)-----(-x)-----(-x)-|
|-(12)-----(13)-----(16)-|
|------------------------|

Solo Part B (2x)
|----------------------------------------------------|
|----------------------------------------------------|
|----19----19----19----19----19----19----19----19-19-|Heavy
|----------------------------------------------------|
|-17----17----17----17----17----17----17----17-------|
|----------------------------------------------------|

|-----------------------------------------------------------|
|-----------------------------------------------------------|
|----20-----20----20----20----18----18----18----18----18-18-|Heavy
|-----------------------------------------------------------|
|-18-----18----18----18----16----16----16----16----16-------|
|-----------------------------------------------------------|

Chorus Part A

Chorus Part B (Heavy)

Chorus Part C

Verse Part A (4x)

Interlude Part A (1x)
|--------------------------------------|
|--------------------------------------|
|-14-12-15-14-12/14--12-12/14-10-10-10-|
|--x--x--x--x--x/-x---x--x/-x--x--x--x-|Light
|-12-10-13-12-10/12--10-10/12--8--8--8-|
|--------------------------------------|

Interlude Part B (1x)
|--------------------------------|
|--------------------------------|
|-14-12-15-14-12/14--12-12/14-10-|Light
|--x--x--x--x--x/-x---x--x/-x--x-|
|-12-10-13-12-10/12--10-10/12--8-|
|--------------------------------|

I know it can get confusing with me telling you to play this that and the
other thing, but read through carefully and look back through the tab and
you will get it.

Ddevil-System Of A Down
System Of A Down

Drop C:
C G C F A D

( ) = harmonics

Intro: 8 bars of Bass and Drums, then

d-----------------------------------------------------------------|
a-----------------------------------------------------------------|
f-----------------------------------------------------------------|
c---(5)-----------------------------------------------------------|
g---------------------------------------------------------------5-|
c---------------------------------------------------------------5-|

Fig. 1

x3
d-------------------------------------------|
a-------------------------------------------|
f-------------------------------------------|
c-------------------------------------------|
g-6-4-5-5--6-6-4--5-5--6-4-5-5--6-6-4--5-5--|
c-6-4-5-5--6-6-4--5-5--6-4-5-5--6-6-4--5-5--|

then,

d-------------------------------------------|
a-------------------------------------------|
f-------------------------------------------|
c-------------------------------------------|
g-6-4-5-5--6-6-4--5-5--6-4-5-5--6-6-4--5----|
c-6-4-5-5--6-6-4--5-5--6-4-5-5--6-6-4--5----|

Verses: Riff A

d-----------------------------------------------------------------|
a-----------------------------------------------------------------|
f-----------------------------------------------------------------|
c-------------------------------------------------------8-7-------|
g---------------------------------------------------8-7-----8-7---|
c-7-8-7-8-7-8-7-8-7-8-7-8-7-8-7-8-7-8-7-8-7-8-7-8-7-------------8-|
pm

Chorus:

d-----------------------------------------------------------------|
a-----------------------------------------------------------------|
f-----------------------------------------------------------------|
c-----------------------------------------------------------------|
g-5------4------6------5------6-4-5-5--6-6-4--5-5--6------5-------|
c-5------4------6------5------6-4-5-5--6-6-4--5-5--6------5-------|

x2                                        2nd time:
d------------------------------------     ---|
a------------------------------------     ---|
f------------------------------------     ---|
c------------------------------------     -5-|
g-6-4-5-5--6-6-4--5-5--6------5------     ---|
c-6-4-5-5--6-6-4--5-5--6------5------     ---|

Bridge:

gtr. 3

d-----------------------------------------------------------------|
a-----------------------------------------------------------------|
f-----------------------------------------------------------------|
c-6-4-5-5--6-6-4--5------------------------5-6-4-5-5--6-6-4--5----|
g-----------------------------------------------------------------|
c-----------------------------------------------------------------|

gtr. 1&2

d-----------------------------------------------------------------|
a-----------------------------------------------------------------|
f-----------------------------------------------------------------|
c-----------------------------------------------------------------|
g--------------------5-6-4-5-5--6-6-4--5--------------------------|
c--------------------5-6-4-5-5--6-6-4--5--------------------------|

gtr. 3

d-----------------------------------------------------------------|
a-----------------------------------------------------------------|
f-----------------------------------------------------------------|
c----------------------5-6-4-5--------------5-6-4-5---------------|
g-----------------------------------------------------------------|
c-----------------------------------------------------------------|

gtr. 1&2

d-----------------------------------------------------------------|
a-----------------------------------------------------------------|
f-----------------------------------------------------------------|
c-----------------------------------------------------------------|
g-5-6-4-5-5--6-6-4-5--------------5-6-4-5-------------5-6-4-5-----|
c-5-6-4-5-5--6-6-4-5--------------5-6-4-5-------------5-6-4-5-----|


gtr. 3

d--------------------------------------|
a--------------------------------------|
f--------------------------------------|
c-5-6-4-5-5-6-4-5-6-6-4-5-5-6-6-4-5----|
g--------------------------------------|
c--------------------------------------|

End with Chorus


that’s all

Soil
System of a Down
rmwaters3000@hotmail.com
Tuning- c g c f a d

This tab is out of the book and is 100% correct. This song has multiple guitars
playing so I hope you can figure this out. Have fun (that's what the guitar's
for anyhow!)

INTRO
Gtrs.1 (slight dist.)& 2 (dist.)
---------------------------------------|
-10--10--10--10-10-10--10-10-10--10-10-|
-10--10--10--10-10-10--10-10-10--10-10-|
-10--10--10--10-10-10--10-10-10--10-10-|
--8---8---8---8--8--8---8--8--8---8--8-|
---------------------------------------|

----------------------------------------------|
10--10-10-10-10-10-10-10-10-10-10-10-10-10-10-|
10--10-10-10-10-10-10-10-10-10-10-10-10-10-10-|
10--10-10-10-10-10-10-10-10-10-10-10-10-10-10-|
-8---8--8--8--8--8--8--8--8--8--8--8--8--8--8-|
----------------------------------------------|

---------------------------------------------|
-10-10-10-10-10--10-10-10--10-10-10-10-10-10-|
-10-10-10-10-10--10-10-10--10-10-10-10-10-10-|
-10-10-10-10-10--10-10-10--10-10-10-10-10-10-|
--8--8--8--8--8---8--8--8---8--8--8--8--8--8-|
---------------------------------------------|

-----------------------------------------|
10--10-10-10--10-10-10--10-10-10---------|
10--10-10-10--10-10-10--10-10-10---------|
10--10-10-10--10-10-10--10-10-10---0--0--|
-8---8--8--8---8--8--8---8--8--8---0--0--|
-----------------------------------------|

|---------------------------------------|-------------------------------------|
|---------------------------------------|-------------------------------------|
|---------------------------------------|-------------------------------------|
|---------------------------------------|-------------------------------------|
|-3---1---0---3--3-----1--1---0---0--0--|-3---1---0---3--3-----1--0--0--4---0-|
|-3---1---0---3--3-----1--1---0---0--0--|-3---1---0---3--3-----1--0--0--4---0-|

----------------------------|----------------------------|
----------------------------|----------------------------|(It's printed closer
----------------------------|----------------------------|together in the book)
----------------------------|----------------------------|
-3--1--0--3-3---1-1--0--0-0-|-3--1--0--3-3---1--0-0-4--0-|
-3--1--0--3-3---1-1--0--0-0-|-3--1--0--3-3---1--0-0-4--0-|

VERSE
Riff A (Gtr. 2)
-----------------------|----------------------------|-------------------------|
-----------------------|----------------------------|-------------------------|
-----------------------|----------------------------|-------------------------|
-----------------------|----------------------------|-------------------------|
-----------------------|----------------------------|-------------------------|
3--1--0--3-3---1-1-1-0-|-3--1--0--3-3---1-0-0-4-4-0-|-3--1--0--3-3---1-1-1-0--|
    The   phoe-nix  he           helped        cre      -   ate,
Making a decision of death-while every1 around you pled.Now you fly in peace I

----------------------------|
----------------------------|
----------------------------|
----------------------------|
----------------------------|
-3--1--0--3-3---1-0-0-4-4-0-|
                            End Riff A
hope,           my friend

Gtr. 2 w/Riff A, 2 times
  out          of          control            boy       without     a
A man can't avoid doin' what he's meant to do when he's meant to do it,

 dad                                        shot the gun that
 even if he doesn't really want to.     My memories are of fun

 started my             life
    and friendship  of  weakness within the strength of youth.       For

(Gtr. 2)
----------------------------------|----------------------------------------|
----------------------------------|----------------------------------------|
----------------------------------|----------------------------------------|
----------------------------------|----------------------------------------|
----------------------------------|----------------------------------------|
--3---1---0---3--3----1--1--1--0--|--3---1---0---3--3----1--0--0--4--4--0--|
     while    I      drove   him       with     a         for   -    ty
 reasons undefined,                 reasons undefined,

--------------------------|---------------------------------------------------|
--------------------------|---------------------------------------------------|
--------------------------|---------------------------------------------------|
--------------------------|---------------------------------------------------|
--------------------------|----------------------------------------3h5-5-5-5--|
--3--1--0--3-3---1-1-1-0--|--3--1--0--3-3---1-0-0-4-4-4-0-|-0---0-------------|
    five
 reasons undefined,          resons undefined.

CHORUS
RhyFig1 (Gtrs. 1 & 2)
--------------------------------------|----------------------------------|
--------------------------------------|----------------------------------|
--------------------------------------|----------------------------------|
--------------------------------------|----------------------------------|
--3---1---0---3--3----1--1---0---0--0-|-3---1---0---3--3----1--1--1--0---|
--3---1---0---3--3----1--1---0---0--0-|-3---1---0---3--3----1--1--1--0---|End
                                      Friends for years, images in red,  RhyFig1

Gtrs. 1 & 2 w/RhyFig1, 2 times
blew off his own moth-er-fuck-in' head. Con-fidence, death, in-se-cur-ity.

Gtrs. 1 & 2
--------------------------------------|
--------------------------------------|
--------------------------------------|
--------------------------------------|
--3---1---0---3--3----1--1---0---0--0-|
--3---1---0---3--3----1--1---0---0--0-|

1st Chorus ending                            Gtr. 2
------------------------------------------|---------|
------------------------------------------|---------|
------------------------------------------|---------|
------------------------------------------|---------|
-3---1---0---3--3----1--0--0--------------|---------|
-3---1---0---3--3----1--0--0--1--4--4--4--|----0----|
Men fall un-real-ized,        un-real     -    ized,

Gtr.1
-----------------------------|-|------------------------------------------|-|
9--9-9-9--9-9-9--9-9-9-9-9-9-|-|12--12-12-12--12-12-12--12-12-12-12-12-12-|-|
x--x-x-x--x-x-x--x-x-x-x-x-x-|-|-x---x--x--x---x--x--x---x--x--x--x--x--x-|-|
6--6-6-6--6-6-6--6-6-6-6-6-6-|-|-9---9--9--9---9--9--9---9--9--9--9--9--9-|-|
-----------------------------|-|------------------------------------------|-|
-----------------------------|-|------------------------------------------|-|
Gtr.2                                                           un-real-ized.
-----------------------------|-|------------------------------------------|-|
9--9-9-9--9-9-9--9-9-9-9-9-9-|-|12--12-12-12--12-12-12--12-12-12-12-12-12-|-|
x--x-x-x--x-x-x--x-x-x-x-x-x-|-|-x---x--x--x---x--x--x---x--x--x--x--x--x-|-|
6--6-6-6--6-6-6--6-6-6-6-6-6-|-|-9---9--9--9---9--9--9---9--9--9--9--9--9-|-|
-----------------------------|-|------------------------------------------|-|
-----------------------------|0|------------------------------------------|-|
__________________
Gtr.1
---------------------------|-|13--13-13-13-13-13-13-13-13-13-13-13-|
11-------------------------|-|13--13-13-13-13-13-13-13-13-13-13-13-|
-x-(x15)-------------------|-|13--13-13-13-13-13-13-13-13-13-13-13-|
-8-------------------------|-|-------------------------------------|
---------------------------|-|-------------------------------------|
---------------------------|-|-------------------------------------|
Gtr.2
---------------------------|-|13--13-13-13-13-13-13-13-13-13-13-13-|
11-------------------------|-|13--13-13-13-13-13-13-13-13-13-13-13-|
-x-(x15)-------------------|-|13--13-13-13-13-13-13-13-13-13-13-13-|
-8-------------------------|-|-------------------------------------|
---------------------------|-|-------------------------------------|
---------------------------|0|-------------------------------------|

2nd Chorus ending
--------------------------------------|
--------------------------------------|
--------------------------------------|
--------------------------------------|
--3---2---0---3--3----1--0--0--4---4--|
--3---2---0---3--3----1--0--0--4---4--|
  Men fall unrealized.

BRIDGE
RhyFig2
pm...             .....              .....            ........................
-----------------|------------------|----------------|-------------------------|
-----------------|------------------|----------------|-------------------------|
-----------------|------------------|----------------|-------------------------|
-----------------|------------------|----------------|-------------------------|
-0--0------------|-0--0-------------|-0--0-----------|-0-------0------0------0-|
-0--0------------|-0--0-------------|-0--0-----------|-0-------0------0------0-|
DontYou          realize              evil           livesinthemotherfuckingskin
                                                                     End RhyFig2
Gtrs.1 & 2 w/RhyFig2, 2 times.

Gtr.3
                               ph        ph  pm... ph pm....             ph
---------------------------------------|---------------------------------------|
---------------------------------------|---------------------------------------|
--7---7---7---7--7--7--7--7--7--7---7--|--7---7--7--7---7--7--7--7--7--7--7---7|
---------------------------------------|---------------------------------------|
---------------------------------------|---------------------------------------|
---------------------------------------|---------------------------------------|
 Don't You                               realize                            that

     pm...     pm............... ph  pm  ph  pm....     pm...
----------------------------------------|-----------------------------------12-|
----------------------------------------|--------------------------------------|
--7---7--7--7---7--7--7--7--7--7--7---7-|-7---7--7--7----7--7--7--7--7---------|
----------------------------------------|--------------------------------0-----|
----------------------------------------|--------------------------------0-----|
----------------------------------------|--------------------------------------|
  e-vil                                  lives in the motherfucking skin?

-10--10-10-10--10-10-10-10-10-10-10--10-10-|
-------------------------------------------|
-------------------------------------------|
-------------------------------------------|
-------------------------------------------|
-------------------------------------------|
Don't you

-10--10-10-10--10-10---10-10-10-10---10-10-|
-------------------------------------------|
-------------------------------------------|
-------------------------------------------|
-------------------------------------------|
-------------------------------------------|
 real - ive                          that

-10--10-10-10--10-10-10-10-10-10-10--10-10-|
-------------------------------------------|
-------------------------------------------|
-------------------------------------------|
-------------------------------------------|
-------------------------------------------|
 e    -   vil

-10--10-10-10--10-10-10-10-10-10-10-10-10-10-|
---------------------------------------------|
---------------------------------------------|
---------------------------------------------|
---------------------------------------------|
---------------------------------------------|
lives      in       the

GUITAR SOLO(Gtr.2)
--(10)------------|--------10-12--|-13----------12--13--|-15-----------------|
------------------|--------10-----|---------------------|-----------10^(10)--|
------------------|--------10-----|---------------------|--------------------|
------------------|---------------|---------------------|--------------------|
----0-------------|---------------|---------------------|--------------------|
----0-------------|---------------|---------------------|--------------------|

-----------10-12--|-13-----------------|---------------------|
-----------10-----|-----------------10^|(10)--------x---x--x-|
-----------10-----|--------------------|------------x---x--x-|
------------------|--------------------|------------x---x--x-|
------------------|--------------------|---------------------|
------------------|--------------------|---------------------|

------------------------------|----------------------------|-----------------|
------------------------------|----------------------------|-----------------|
------------------------------|----------------------------|-----------------|
-----3h-----3h-----3h-----3h--|---3h-----3h-----3h-----3h--|-----------------|
--3h5--5-3h5--5-3h5--5-3h5--5-|3h5--5-3h5--5-3h5--5-3h5--5-|3h5--------------|
------------------------------|----------------------------|-----------------|

-------------|----------------------------|----------------------------|
------x--x-x-|----------------------------|----------------------------|
------x--x-x-|----------------------------|----------------------------|
------x--x-x-|---3h-----3h-----3h-----3h--|---3h-----3h-----3h-----3h--|
-(5)---------|3h5--5-3h5--5-3h5--5-3h5--5-|3h5--5-3h5--5-3h5--5-3h5--5-|
-------------|----------------------------|----------------------------|

-----|---------------|--------------------------------------------|
-----|---------------|--------------------------------------------|
-----|----------(11)-|-----10h--------10h--------10h--------10h---|
-----|---------------|10h12---12-10h12---12-10h12---12-10h12---12-|
-3h5-|-------/5\-----|--------------------------------------------|
-----|---------------|--------------------------------------------|

--------------------------------------------|--------------|-------------|
--------------------------------------------|-11---11^(11)-|10-----------|
-------10h--------10h--------10-12^---12h10-|--------------|---10--10-10-|
--10h12---12-10h12---12-10h12---------------|--------------|-------------|
--------------------------------------------|--------------|-------------|
--------------------------------------------|--------------|-------------|

------------10------------10-|------------10---------------------|
------10-10-10------10-10-10-|------10-10-10---------------------|
-10h--10-10----10h--10-10----|-10h--10-10----------10-12^--12p10-|
-10-12---------10-12---------|-10-12---------10h12---------------|
-----------------------------|-----------------------------------|
-----------------------------|-----------------------------------|
                                  ph
-----------------13-15-|15--15-15-15-15^--15^--15^--15^--15^--15^-|
-13^(13)-13\8/15-------|------------------------------------------|
-----------------------|------------------------------------------|
-----------------------|------------------------------------------|
-----------------------|------------------------------------------|
-----------------------|------------------------------------------|

(Gtr.1 w/ RhyFig1)
---------------------------------------|-------------------------------------|
---------------------------------------|-------------------------------------|
---------------------------------------|-------------------------------------|
--10--11-11-10--10-10-10\7-7-7-7\6-6-6-|-7--7-7-10--10-10-10\11-11-11-10--10-|
---9--10-10--9---9--9--9\6-6-6-6\5-5-5-|-6--6-6--9---9--9--9\10-10-10--9---9-|
---------------------------------------|-------------------------------------|
 Don't you                               realize

-------------------------------------------|--------------------------------|
-------------------------------------------|--------------------------------|
-------------------------------------------|--------------------------------|
-11--11-11-11/14-14-14-14\13-13-13-13\11-11|10--10-10-10\7-7---7\6-5--6/----|
-10--10-10-10/13-13-13-13\12-12-12-12\10-10|-9---9--9--9\6-6---6\5-4--5/----|
-------------------------------------------|--------------------------------|
e   -   vil                                 lives in the motherfucking skin?

----------------------------------------|----------------------------------------|
----------------------------------------|----------------------------------------|
11/12-12-12-12\11-11-11-11\8-8-8-8\7-7-7|7/8-8-8-8/11-11-11-11/12-12\11-11-11-11-|
----------------------------------------|----------------------------------------|
----------------------------------------|----------------------------------------|
----------------------------------------|----------------------------------------|
Don't you                                realize                            that

-----------------------------------------------|------------------------------xx-|
-----------------------------------------------|---------------------------------|
11/12-12-12-12/15-15-15-15\14-14-14-14\12-12-12|12\11-11-11-11\8-8-8-8\7-7-7-7---|
-----------------------------------------------|---------------------------------|
-----------------------------------------------|---------------------------------|
-----------------------------------------------|---------------------------------|
e - vil                                        lives in the motherfucking skin.

-14/15-15-15-15\14-14-14-14\11-11-11-11\10-10-10|
------------------------------------------------|
------------------------------------------------|
------------------------------------------------|
------------------------------------------------|
------------------------------------------------|

10/11-11-11-11/14-14-14-14/15-15\14-14--14-14-|
----------------------------------------------|
----------------------------------------------|
----------------------------------------------|
----------------------------------------------|
----------------------------------------------|

-14/15-15-15-15/18-18-18-18\17-17-17-17\15-15-15-|
-------------------------------------------------|
-------------------------------------------------|
-------------------------------------------------|
-------------------------------------------------|
-------------------------------------------------|

15\14-14-14-14\11-11-11-11\10-10-10-10--|
----------------------------------------|
----------------------------------------|
----------------------------------------|
----------------------------------------|
----------------------------------------|

Why the fuck did you take him away from us you motherfucker!

OUTRO(Gtr.1 & 2)
----------------------------|--------------------------|----------------------|
----------------------------|--------------------------|----------------------|
----------------------------|--------------------------|---------(x3)---------|
----------------------------|--------------------------|----------------------|
-3-1-0-3-3--1-1-1-0-0--(x3)-|-3-1-0-3-3--1-1-1-4-4-4-4-|-3-1-0-3-3--1-1-1-0-0-|
-3-1-0-3-3--1-1-1-0-0-------|-3-1-0-3-3--1-1-1-4-4-4-4-|-3-1-0-3-3--1-1-1-0-0-|

This may look long and very hard but once you look over it it isn't that bad.
So all my guitar friends enjoy this tab.
                                     fin

War ?-System Of A Down
System Of A Down

Drop C:
C G C F A D

Intro:

d----------------x--x-----------------x--x--x--x--------------x--x--x----|
a----------------x--x-----------------x--x--x--x--------------x--x--x----|
f-8--7--8--7--8--x--x-----8--7--8--7--x--x--x--x--8--7--8--7--x--x--x----|
c-0-----0--0--------------0--0--0--0--------------0--0--0--0-----------0-|
g----------------------0-------------------------------------------------|
c------------------------------------------------------------------------|

d---------------------------------------x--x--x--x--------------x--x--x--x--|
a---------------------------------------x--x--x--x--------------x--x--x--x--|
f-8--7--8--7--12--7--12--7--8--7--8--7--x--x--x--x--8--7--8--7--x--x--x--x--|
c-0--0--0--0---0--0---0--0--0--0--0--0--------------0--0--0--0--------------|
g---------------------------------------------------------------------------|
c---------------------------------------------------------------------------|

d-------------x--x--x--x--x---x----x-----x-----x-----x--x--x--x--x--x--x----|
a-------------x--x--x--x--x---x----x-----x-----x----------------------------|
f-8--7--8--7--x--x--x--x--------x-----x-----x-----x-------------------------|
c-0--0--0--0--------------------x-----x-----x-----x-------------------------|
g-------------------------------------------------------------------------0-|
c-------------------------------------------------------------------------0-|

Fig. 1

d-----------------------------------------------------------------|
a-----------------------------------------------------------------|
f------------------------------------1010------------1111---------|
c-------------------------------------x-x-------------x-x---------|
g---0-6-6-0-0-6-0---0-8-8-0-0-6-0---0-8-8-0-0-6-0---0-9-9-0-0-6-0-|
c---0-6-6-0-0-6-0---0-8-8-0-0-6-0---0-----0-0-6-0---0-----0-0-6-0-|

d-----------------------------------------------------------------|
a-----------------------------------------------------------------|
f------------------------------------1010------------1111---------|
c-------------------------------------x-x-------------x-x---------|
g---0-6-6-0-0-6-0---0-8-8-0-0-6-0---0-8-8-0-0-6-0---0-9-9-0-0-6-0-|
c---0-6-6-0-0-6-0---0-8-8-0-0-6-0---0-----0-0-6-0---0-----0-0-6-0-|

Verse:

x2, pm
d-----------------------------------------------------------------|
a-----------------------------------------------------------------|
f-----------------------------------------------------------------|
c-----------------------------------------------------------------|
g-1-0-1-0---------1-0-1-0---------1-0-1-0---------1-0-1-0-5-0-5-0-|
c-1-0-1-0---------1-0-1-0---------1-0-1-0---------1-0-1-0-5-0-5-0-|

then.

d-------------x---------------x---------------x-x-----------------|
a-------------x---------------x---------------x-x-----------------|
f-------------x---------------x---------------x-x-----------------|
c-----------------------------------------------------------------|
g-1-0-1-0---------1-0-1-0---------1-0-1-0-x-x-----1-0-1-0-5-0-5-0-|
c-1-0-1-0-x-x---x-1-0-1-0-x-x---x-1-0-1-0-x-x-----1-0-1-0-5-0-5-0-|

d-------------x---------------x---------------x-x-x-x-x-x-x-x-x---|
a-------------x---------------x---------------x-x-----------------|
f-------------x---------------x---------------x-x-----------------|
c-----------------------------------------------------------------|
g-1-0-1-0---------1-0-1-0---------1-0-1-0-x-x-------------------0-|
c-1-0-1-0-x-x---x-1-0-1-0-x-x---x-1-0-1-0-x-x-------------------0-|

Chorus: Fig. 1

Verse 2:

d-----------------------------------------------------------------|
a-----------------------------------------------------------------|
f-----------------------------------------------------------------|
c-----------------------------------------------------------------|
g-1-0-1-0---------1-0-/5----------1-0-1-0---------1-0-1-0-5-0-5-0-|
c-1-0-1-0---------1-0-/5----------1-0-1-0---------1-0-1-0-5-0-5-0-|

d---------x-x-x-x-------------x-x---------x-x-x-x-x-x-x-x-x-x-x---|
a---------x-x-x-x-------------x-x---------x-x-x-x-----------------|
f---------x-x-x-x-------------x-x---------x-x-x-x-----------------|
c-----------------------------------------------------------------|
g-1-0-1-0---------1-0-/5----------1-0-1-0-----------------------0-|
c-1-0-1-0---------1-0-/5--0-0-----1-0-1-0-----------------------0-|

Chorus: Fig. 1

before Interlude:

pm
d-----------------------------------------------------------------|
a-----------------------------------------------------------------|
f-----------------------------------------------------------------|
c------------------------------------1010------------1111---------|
g-0-0-6-6-0-0-6-0-0-0-8-8-0-0-6-0-0-0-8-8-0-0-6-0-0-0-9-9-0-0-6-0-|
c-0-0-6-6-0-0-6-0-0-0-8-8-0-0-6-0-0-0-----0-0-6-0-0-0-----0-0-6-0-|

d-----------------------------------------------------------------|
a-----------------------------------------------------------------|
f------------------------------------1010-------------------------|
c-------------------------------------x-x------------1111---------|
g-0-0-6-6-0-0-6-0-0-0-8-8-0-0-6-0-0-0-8-8-0-0-6-0-0-0-9-9-0-0-6-0-|
c-0-0-6-6-0-0-6-0-0-0-8-8-0-0-6-0-0-0-----0-0-6-0-0-0-----0-0-6-0-|

Interlude:

x4, pm
d-------------------------------------|
a-------------------------------------|
f---10-8-7---7-8-10---10-8-7---6-7-9--|
c-0--------0--------0--------0--------|
g-------------------------------------|
c-------------------------------------|

Bridge: x6
pm
d--------------------------------------|
a--------------------------------------|
f---10-8-7---10-8-7---10-8-7---10-8-7--|
c-0--------0--------0--------0---------|
g--------------------------------------|
c--------------------------------------|

then

d-------------------------------------------------------------------|
a-------------------------------------------------------------------|
f---10-8-7---10-8-7---6-7-9---6-7-9---6-7-9---6-7-9---6-7-9---6-7-9-|
c-0--------0--------0-------0-------0-------0-------0-------0-------|
g-------------------------------------------------------------------|
c-------------------------------------------------------------------|

x8, pm
d------------------------------------|
a-------10---------------10----------|
f---6-7------6-7-9---6-7------6-7-9--|
c-0--------0-------0--------0--------|
g------------------------------------|
c------------------------------------|

x2, pm
d-----------------------------------------------------------------|
a-----------------------------------------------------------------|
f---6-7-9---6-7-9---6-7-9---6-7-9---6-7-9---6-7-9---6-7-9---6-7-9-|
c-0-------0-------0-------0-------0-------0-------0-------0-------|
g-----------------------------------------------------------------|
c-----------------------------------------------------------------|

x4, pm
d--------------------------------------|
a--------------------------------------|
f---10-8-7---10-8-7---10-8-7---10-8-7--|
c-0--------0--------0--------0---------|
g--------------------------------------|
c--------------------------------------|

Chorus: Fig. 1

Outro:

pm
d-----------------------------------------------------------------|
a-----------------------------------------------------------------|
f-----------------------------------------------------------------|
c------------------------------------1010------------1111---------|
g-0-0-6-6-0-0-6-0-0-0-8-8-0-0-6-0-0-0-8-8-0-0-6-0-0-0-9-9-0-0-6-0-|
c-0-0-6-6-0-0-6-0-0-0-8-8-0-0-6-0-0-0-----0-0-6-0-0-0-----0-0-6-0-|

d-----------------------------------------------------------------|
a-----------------------------------------------------------------|
f------------------------------------1010-------------------------|
c-------------------------------------x-x------------1111---------|
g-0-0-6-6-0-0-6-0-0-0-8-8-0-0-6-0-0-0-8-8-0-0-6-0-0-0-9-9-0-0-6-0-|
c-0-0-6-6-0-0-6-0-0-0-8-8-0-0-6-0-0-0-----0-0-6-0-0-0-----0-0-6-0-|


that’s all

Mind
System of a Down
rmwaters3000@hotmail.com
4/6/03
Drop C - c g c f a d

INTRO
Gtr1 (slight dist.)                       let ring....
-----------||---------|----------|---------|------------||
-----------||---------|----------|---------|------------||
-------12--||-11^-----|----------|---------|-------12---||
---10------||-10------|----------|---------|---10-------||
-----------||---------|----------|---------|------------||
-----------||---------|----------|---------|------------||

||----------------|------------|-----------------------|-----------|
||-----------10---|------------|-----------10----------|-----------|
||-----11-12------|------------|-----11-12----12-11----|---------12|
||--12------------|------------|--12----------------12-|-10--------|
||----------------|------------|-----------------------|-----------|
||----------------|------------|-----------------------|-----------|
    Oh, baby come close to me                              Let me
________________________________________________________
|1                                                     |
|--------------|-------------|-----------|-------------||
|--------------|-------------|-----------|-------------||
|--11^---------|-------------|-----------|-------------||
|-----------12-|-10^---------|-----------|-------------||
|--------------|-------------|-----------|-------------||
|--------------|-------------|-----------|-------------||
           love          you
_________________________________________
|2                                       let ring.....
|-------------|-------------|---------|---------------|--------------|
|-------------|-------------|---------|---------------|--------------|
|--11^--------|-------------|---------|---------12----|-11^----------|
|----------12-|-10^---------|---------|------10----10-|-10-----------|
|-------------|-------------|---------|---------------|--------------|
|-------------|-------------|---------|---------------|--------------|
          feel        you.                 Look at each other

    let ring.....                       .......................................
|----------------|-------------|-----------------|---------------|-------------|
|----------------|-------------|-----------------|---------------|-------------|
|----------12----|-11----------|-----------12----|-11------------|--------12---|
|-------10----10-|-10----------|--------10----10-|-------12---10-|----10----10-|
|----------------|-------------|-----------------|---------------|-------------|
|----------------|-------------|-----------------|---------------|-------------|
      Look at each other              Look at each other            Look at each

let ring............|pm...............................................
|--------------|--------------||------------------|------------------||
|--------------|--------------||------------------|------------------||
|-11-----------|--------12----||-11--12--11--12---|-11--12--11--12---||
|------12---10-|-----10----10-||---10--10--10--10-|---10--10--10--10-||
|--------------|--------------||------------------|------------------||
 other              look at each other                   Look at each

pm...........................................................
|----------------|----|-------------------------|-------------------------|----|
|----------------|----|-------------------------|-------------------------|----|
|11--12--11--12--|-x4-|-11-11-12-11-11-11-12-11-|-11-11-12-12-12-12-12-12-|p11-|
|--10--10--10--10|----|-10-10-10-10-10-10-10-10-|-10-10-10-10-10-10-10-10-|----|
|----------------|----|-------------------------|-------------------------|----|
|----------------|----|-------------------------|-------------------------|----|
 other

Gtrs1&2(dist)
pm.................            .............
|------------------||-----------------------|  |------------|
|------------------||-----------------------|  |------------|
|------------------||-----------------------|x3|------------|
|------3-2-0-3-2-0-||--0--0--0--3-2-0-3-2-0-|  |--0--0--0---|
|------3-2-0-3-2-0-||--0--0--0--3-2-0-3-2-0-|  |--0--0--0---|
|------3-2-0-3-2-0-||--0--0--0--3-2-0-3-2-0-|  |--0--0--0---|
                      Go  a way                   Go    a -

RhyFig1            pm.........                    ........
|------------|-----------------|------------|--------------|
|------------|-----------------|------------|--------------|
|------------|-----------------|------------|--------------|
|-0----1--3--|-0----3--2--1--1-|-0----1--3--|-0----3--2--1-|
|-0----1--3--|-0----3--2--1--1-|-0----1--3--|-0----3--2--1-|
|-0----1--3--|-0----3--2--1--1-|-0----1--3--|-0----3--2--1-|
                                                       End RhyFig1

Verse                              PH
-------------------|  |----------|---------|------------------|  |
-----------12~~~---|  |----------|-12------|----------12~~~---|  |
-12~~~-------------|x3|-12~~~----|---------|-12~~~------------|x2|
-------------------|  |----------|---------|------------------|  |
-------------------|  |----------|---------|------------------|  |
-------------------|  |----------|---------|------------------|  |

hold bend & let ring....................................................
|-------------10----|----10-------|--10----------10--|----------10--------|
|--13^-----------13-|--------13---|-------13---------|-13-------------13--|
|-------------------|-------------|------------------|--------------------|
|-------------------|-------------|------------------|--------------------|
|-------------------|-------------|------------------|--------------------|
|-------------------|-------------|------------------|--------------------|

PRE-CHORUS
Gtrs1&2 w/ RhyFig1, 3 3/4 times

RhyFill1
      pm.......
----------------|---------------------------|
----------------|---------------------------|
----------------|---------------------------|
--0----3--2--1--|---------------------------|
--0----3--2--1--|---------------------------|
--0----3--2--1--|---------------------------|End RhyFill1
                 Free thinkers are dangerous

CHORUS
RhyFig2
pm.......................
|-------------------------------|-------------------------------|
|-------------------------------|-------------------------------|
|-------------------------------|-------------------------------|
|-0-0-0-3-0-0-6-0-0-3-0-0-6--6--|-0-0-0-3-0-0-6-0-0-3-0-0-6--6--|
|-0-0-0-3-0-0-6-0-0-3-0-0-6--6--|-0-0-0-3-0-0-6-0-0-3-0-0-6--6--|
|-0-0-0-3-0-0-6-0-0-3-0-0-6--6--|-0-0-0-3-0-0-6-0-0-3-0-0-6--6--|
Blame!                           Hate!

                                 pm......................
|-------------------------------|-------------------------------|-----|--------|
|-------------------------------|-------------------------------|-----|--------|
|-------------------------------|-------------------------------|-----|--------|
|-0-0-0-3-0-0-6-0-0-3-0-0-6--6--|-0-0-0-3-0-0-6-0-0-3-0-0-6--6--|--6--|--------|
|-0-0-0-3-0-0-6-0-0-3-0-0-6--6--|-0-0-0-3-0-0-6-0-0-3-0-0-6--6--|--6--|--------|
|-0-0-0-3-0-0-6-0-0-3-0-0-6--6--|-0-0-0-3-0-0-6-0-0-3-0-0-6--6--|--6--|--------|
                          For     Fate's                         Seed    End RF2

INTERLUDE x4
||--------------------------||
||--------------------------||
||--------------------------||
||-7--6-7--6-7--6-7--6-7--7-||
||-7--6-7--6-7--6-7--6-7--7-||
||-7--6-7--6-7--6-7--6-7--7-||

pm...............               ............
|--------------------||----------------------|  |----------|
|--------------------||----------------------|  |----------|
|--------------------||----------------------|x3|----------|
|--3--2--0--3--2--0--||-0--0--0--3-2-0-3-2-0-|  |-0--0--0--|
|--3--2--0--3--2--0--||-0--0--0--3-2-0-3-2-0-|  |-0--0--0--|
|--3--2--0--3--2--0--||-0--0--0--3-2-0-3-2-0-|  |-0--0--0--|
                       Go  a way                   Go  a -

Gtrs1&2 w/RhyFig1, x2

VERSE
---------------------------|  |----------------|-----------|--------------|
----------------12------12-|  |----------------|--12-------|--------------|
--12-----12----------------|x3|--12-----12-----|-----------|--12-----12---|
---------------------------|  |----------------|-----------|--------------|
---------------------------|  |----------------|-----------|--------------|
---------------------------|  |----------------|-----------|--------------|

|-------------|--------------|-------------------------------|This last bar is a
|--12----12---|--------------|-12p10h12p10h12p10h12p10-------|load of hammers and
|-------------|--12----12----|-------------------------------|pull offs which
|-------------|--------------|-------------------------------|speeds up as it
|-------------|--------------|-------------------------------|nears the end.
|-------------|--------------|-------------------------------|

PRE-CHORUS
Gtrs1&2 w/ RhyFig1, 3 3/4 times
Gtrs1&2 w/ RhyFill1

CHORUS
Gtrs1&2 w/ RhyFig2

INTERLUDE
Same as before x8

pm throughout
|-------------------------|---------------------------|
|-------------------------|---------------------------|
|-------------------------|---------------------------|
|-------------------------|---------------------------|
|-------------------------|---------------------------|
|-7--6-7--6-7--6-7--6-7-7-|-7--6-7--6-7--6-7-7-6-7--7-|

|---------------------------|---------------------------|
|---------------------------|---------------------------|
|---------------------------|---------------------------|
|---------------------------|---------------------------|
|---------------------------|---------------------------|
|-7--6-7--6-7--6-7-7-6-7--7-|-7--6-7--6-7--6-7-7-6-7--6-|

|-----------------|-----------|
|-----------------|-----------|
|-----------------|-----------|
|-----------------|-----------|
|-----------------|-----------|
|-7-6-7-6-7-6-7-6-|-7-6-7-6---|

RhyFig3
|---------------------------|---------------------|
|---------------------------|---------------------|
|---------------------------|---------------------|
|-7--6-7--6-7--6-7--6-7--7--|-7--6-7--6-7--6-7----|
|-7--6-7--6-7--6-7--6-7--7--|-7--6-7--6-7--6-7----|
|-7--6-7--6-7--6-7--6-7--7--|-7--6-7--6-7--6-7----|
                 End RhyFig3

Gtrs1&2 w/ RhyFig3 x8

FREE TIME
 pm..                                        w/ clean tone
|---------|-----------|-----------|---------|--------------|
|---------|-----------|-----------|---------|--------------|
|---------|-----------|-----------|---------|--------------|
|--0------|-----------|-----------|---------|--------------|
|--0------|-----------|-----------|---------|--5--5--4--4--|
|--0------|-----------|-----------|---------|--------------|

OUTRO
||------------|-----------|-----------|-----------------|  |--------|--------|
||------------|-----------|-----------|-----------------|  |--------|--------|
||------------|-----------|-----------|-----------------|x3|--------|--------|
||------------|-----------|-----------|-----------------|  |--------|--------|
||-3----------|-----------|-----------|---5--5--4--4----|  |-3------|--------|
||-0----------|-----------|-----------|-----------------|  |-0------|--------|

That's it, the whole dang song. This is from the tab book and sounds correct to
me. Any questions, comments or corrections leave a comment or e-mail me.
rmwaters3000@hotmail.com

band: system of a down
song: peephole
albulm: self titled

tunning: c g c f a d (of course)

- = palm mute
* = pinch harmonic
p = pull off
h = hammer on
/ = slide up
\ = slide down
^ = bend
~ = let ring

intro 2x's
------------------------------------------|
-----3----3----3----3----3----3----3----3-|
---3----3-----3----3----3----3----3----3--|
-5----5-----------------------------------|
-----------4----5----0----0----4----5-----|
------------------------------------------|
light distorsion

verse 2x's (on the cd it goes like this)
---------------------------------------------------------------------------------|
-3-3----3-3----3-3----3-3----3-3----3-3----3-3----3-3----------------------------|
-3-3----3-3----3-3----3-3----3-3----3-3----3-3----3-3----------------------------|
---------------------------------------------------------4-4-4-4-4-4-7-7-7-7-7-7-|
---------------------------------------------------------4-4-4-4-4-4-7-7-7-7-7-7-|
---------------------------------------------------------4-4-4-4-4-4-7-7-7-7-7-7-|
 or

verse 2x's(but this is how i play it)
----------------------------------------------------------------------------------|
----3-3----3-3----3-3----3-3----3-3----3-3----3-3----3-3--------------------------|
----3-3----3-3----3-3----3-3----3-3----3-3----3-3----3-3--------------------------|
-5------0------5------0------5------0------5------0-------4-4-4-4-4-4-7-7-7-7-7-7-|
-5------0------5------0------5------0------5------0-------4-4-4-4-4-4-7-7-7-7-7-7-|
-5------0------5------0------5------0------5------0-------4-4-4-4-4-4-7-7-7-7-7-7-|
 -      -      -      -      -      -      -      -

pre chorus thing
------------9-9-9-10-10-10-----------------9-9-9-10-10-10------------|
-8-8-8-8-8-8--------------10-10-10-10-10-10--------------8-8-8-8-8-8-|
---------------------------------------------------------------------|
---------------------------------------------------------------------|
---------------------------------------------------------------------|
---------------------------------------------------------------------|

-9-9-9-10-10-10--/13-13-13-13-13-13-13*-13*-13*-13*-13*-13*-13*-|
---------------------------------------------0---0---0---0---0--|
----------------------------------------------------------------|
----------------------------------------------------------------|
----------------------------------------------------------------|
----------------------------------------------------------------|


chorus
------------------------------------------------------------------------------|
------------------------------------------------------------------------------|
--------------6-6-6-7-7-7---------------6-6-6-7-7-7---------------6-6-6-7-7-7-|
-5-5-5-5-5-5--6-6-6-7-7-7--7-7-7-7-7-7--6-6-6-7-7-7--5-5-5-5-5-5--6-6-6-7-7-7-|
-5-5-5-5-5-5--4-4-4-5-5-5--7-7-7-7-7-7--4-4-4-5-5-5--5-5-5-5-5-5--4-4-4-5-5-5-|
-5-5-5-5-5-5---------------7-7-7-7-7-7---------------5-5-5-5-5-5--------------|

-------------------------|
-------------------------|
-------------------------|
-3-3-3-3-3-3-1-1-1-1-1-1-|
-3-3-3-3-3-3-1-1-1-1-1-1-|
-3-3-3-3-3-3-1-1-1-1-1-1-|

then intro 2x's
then verse 2x's
then pre chorus
then chorus 2x's

pre solo
---------------------|
---------------------|
---------------------|
-3--3--3--3--3--3--1-|
-3--3--3--3--3--3--1-|
-3--3--3--3--3--3--1-|

solo 1
-----------------------------------------------------------------|
-----------------------------------------------------------------|
-7-8-7h8p7p5-7----7-8-7h8p7p5-7----7-8-7h8p7p5-7-5-3-2-3-2h3p2-0-|
-----------------------------------------------------------------|
-----------------------------------------------------------------|
-----------------------------------------------------------------|

guitar 1                         guitar 2
----------------------------    -------------------------|
----------------------------    -------------------------|
----------------------------    -------------------------|
-4-5-4--5-4-5--4-5-4--5-4-5-    -4-4-4-4-4-4-7-7-7-7-7-7-|
----------------------------    -4-4-4-4-4-4-7-7-7-7-7-7-|
----------------------------    -4-4-4-4-4-4-7-7-7-7-7-7-|


-10-11-10h11p10p9-10-----10-11-10h11p10p9-10-----10-11-10h11p10p9-10-8-6-5-6-5h6p5-3-|
-------------------------------------------------------------------------------------|
-------------------------------------------------------------------------------------|
-------------------------------------------------------------------------------------|
-------------------------------------------------------------------------------------|
-------------------------------------------------------------------------------------|

guitar 1                          guitar 2
----------------------------     -------------------------|
----------------------------     -------------------------|
----------------------------     -------------------------|
-4-5-4--5-4-5--4-5-4--5-4-5-     -4-4-4-4-4-4-7-7-7-7-7-7-|
----------------------------     -4-4-4-4-4-4-7-7-7-7-7-7-|
----------------------------     -4-4-4-4-4-4-7-7-7-7-7-7-|


solo 2                                     1st end
-----10*-10*-10*--------9*-9*-9*----      9-9*9*9*9*-9^-9*^9-9-9-9*9*9*9*-|
-8------8*--8*--8---8-7--7*-7*--7---      -----------x--x-x-x-x-----------|
------------------------------------      -----------6^-6-6-6-6^----------|
------------------------------------      --------------------------------|
------------------------------------      --------------------------------|
------------------------------------      --------------------------------|

2nd end                                  3rd end
-----8--8h10^--8-------6--6h8^---6--    -9-9*9*9*9*9*9*9*9*9*9-9*9*9*9*9*9*9*9*-|
-6------------------4--------------8    -x-------------------x------------------|
------------------------------------    -6^~-----------------6^~----------------|
------------------------------------    ----------------------------------------|
------------------------------------    ----------------------------------------|
------------------------------------    ----------------------------------------|

then
-9*----9*----9*----9*------9*--9*-9*-9*--9*------9*-9*------9*-9\-|
-x-----x-----x-----x-------x---x--x--x---x-------x--x-------x--x--|
-6*----6*----6*----6*------6*--6*-6*-6*--6*------6*-6*------6*-6\-|
------------------------------------------------------------------|
------------------------------------------------------------------|
------------------------------------------------------------------|

ending chorus 2x's
------------------------------------------------------------------------------|
------------------------------------------------------------------------------|
--------------6-6-6-7-7-7---------------6-6-6-7-7-7---------------6-6-6-7-7-7-|
-5-5-5-5-5-5--6-6-6-7-7-7--7-7-7-7-7-7--6-6-6-7-7-7--5-5-5-5-5-5--6-6-6-7-7-7-|
-5-5-5-5-5-5--4-4-4-5-5-5--7-7-7-7-7-7--4-4-4-5-5-5--5-5-5-5-5-5--4-4-4-5-5-5-|
-5-5-5-5-5-5---------------7-7-7-7-7-7---------------5-5-5-5-5-5--------------|

1st end
-------------------------       ------------------------------------|
-------------------------       ------------------------------------|
-------------6-6-6-7-7-7-       ------------------6-6-6-7-7-7-------|
-7-7-7-7-7-7-6-6-6-7-7-7-       -7--7--7--7--7--7-6-6-6-7-7-7---5~--|
-7-7-7-7-7-7-4-4-4-5-5-5-       -7--7--7--7--7--7-4-4-4-5-5-5---5~--|
-7-7-7-7-7-7-------------       -7--7--7--7--7--7---------------5~--|


CUBErt-System Of A Down
System Of A Down

Drop C:
C G C F A D


Intro: x4

d-15-15-15--15-15-15--15-15-15--15-15-15--15-15-15--15-15-15--15-15-15--15--|
a---------------------------------------------------------------------------|
f---------------------------------------------------------------------------|
c---------------------------------------------------------------------------|
g---------------------------------------------------------------------------|
c---------------------------------------------------------------------------|

x4, pm
d-----------------------------------------------------|
a-----------------------------------------------------|
f-----------------------------------------------------|
c-5-5-5--5-5-5--5-5-5--5-5-5--5-5-5--5-5-5--5-5-5--5--|
g-5-5-5--5-5-5--5-5-5--5-5-5--5-5-5--5-5-5--5-5-5--5--|
c-5-5-5--5-5-5--5-5-5--5-5-5--5-5-5--5-5-5--5-5-5--5--|

Verses:

x3
d--------------------------------------------|
a--------------------------------------------|
f-3--------1---------------------------------|
c-----4--------3----5-5-5--5-5-5--5-5-5--5---|
g-------------------5-5-5--5-5-5--5-5-5--5---|
c-------------------5-5-5--5-5-5--5-5-5--5---|
                    pm

then,

d-----------------------------------------------|
a-----------------------------------------------|
f-3--------1------------------------------------|
c-----4--------3----5---5--5-5-5--5---5--5-5-5--|
g-------------------5---5--5-5-5--5---5--5-5-5--|
c-------------------5---5--5-5-5--5---5--5-5-5--|
                    pm

Chorus:

gtr. 1

d-----------------------------------------------------------------|
a-----------------------------------------------------------------|
f----------------7------------------------------------------------|
c-5--------------7----------------7--------------8----------------|
g-5--------------5----------------7--------------8----------------|
c-5-------------------------------7--------------8----------------|

gtr. 2

d-----------------------------------------------------------------|
a-----------------------------------------------------------------|
f-----------------------------------------------------------------|
c-5-----5--5--5--12-----12-12-12--7-----7--7--7--8-----8--8--8----|
g-5-----5--5--5--12-----12-12-12--7-----7--7--7--8-----8--8--8----|
c-5-----5--5--5--12-----12-12-12--7-----7--7--7--8-----8--8--8----|

gtr. 1

d-----------------------------------------------------------------|
a-----------------------------------------------------------------|
f----------------7--------------6--------------5------------------|
c-5--------------7-------8------6-------7------5-------6----------|
g-5--------------5-------8------4-------7------3-------6----------|
c-5----------------------8--------------7--------------6----------|

gtr. 2

d-----------------------------------------------------------------|
a-----------------------------------------------------------------|
f-----------------------------------------------------------------|
c-5-----5--5--5--12------8------11------7------10------6----------|
g-5-----5--5--5--12------8------11------7------10------6----------|
c-5-----5--5--5--12------8------11------7------10------6----------|

Interlude: pm

x2
d-------------------------------------------------------|
a-------------------------------------------------------|
f-------------------------------------------------------|
c-5-5-5--5-5-5--5-5-5--5-----5-5-5--5-5-5--5-5-5--5-----|
g-5-5-5--5-5-5--5-5-5--5-----5-5-5--5-5-5--5-5-5--5-----|
c-5-5-5--5-5-5--5-5-5--5-----5-5-5--5-5-5--5-5-5--5-----|

Interlude 2:

gtr. 1

d-----------------------------------------------------------------|
a-----------------------------------------------------------------|
f-----------------------------------------------------------------|
c-4---4---4---4---4---4---4---4---5---5---5---5---5---5---5---5---|
g-4---4---4---4---4---4---4---4---5---5---5---5---5---5---5---5---|
c-4---4---4---4---4---4---4---4---5---5---5---5---5---5---5---5---|

gtr. 2

d-----------------------------------------------------------------|
a-7---7---7---7---7---7---7---7---8---8---8---8---8---8---8---8---|
f-6---6---6---6---6---6---6---6---7---7---7---7---7---7---7---7---|
c-4---4---4---4---4---4---4---4---5---5---5---5---5---5---5---5---|
g-4---4---4---4---4---4---4---4---5---5---5---5---5---5---5---5---|
c-4---4---4---4---4---4---4---4---5---5---5---5---5---5---5---5---|

Outro Chorus:

gtr. 1

d-------------------------------------------------------------------|
a-------------------------------------------------------------------|
f----------7-------------------------------7-7-----6-6-----5-5------|
c-5--------7--------7--------8--------5----7-7-8-8-6-6-7-7-5-5-6-6--|
g-5--------5--------7--------8--------5----5-5-8-8-4-4-7-7-3-3-6-6--|
c-5-----------------7--------8--------5--------8-8-----7-7-----6-6--|
                                          pm
gtr. 2

d------------------------------------------------------------------------|
a------------------------------------------------------------------------|
f------------------------------------------------------------------------|
c-5-------12--------7--------8--------5--5-12-12-8-8-11-11-7-7-10-10-6-6-|
g-5-------12--------7--------8--------5--5-12-12-8-8-11-11-7-7-10-10-6-6-|
c-5-------12--------7--------8--------5--5-12-12-8-8-11-11-7-7-10-10-6-6-|
                                           pm

Outro:

d-----------------------------------------------------------------|
a-----------------------------------------------------------------|
f-------------3---------------3---------------3-------------------|
c-5-5-5-5-5-5-----5-5-5-5-5-5-----5-5-5-5-5-5-----5-5-5-5-5-5-5---|
g-5-5-5-5-5-5-----5-5-5-5-5-5-----5-5-5-5-5-5-----5-5-5-5-5-5-----|
c-5-5-5-5-5-5-----5-5-5-5-5-5-----5-5-5-5-5-5-----5-5-5-5-5-5-----|
  pm              pm              pm              pm


that’s all


System of a Down ----
S.O.A.D. ------------|
Darts ---------------|

Tabbed by: Devon Marquis
Posted: March 29, 2004
Email: adr_enaline@hotmail.com
AIM: popnshroomz

Tuning: C-G-C-F-A-D
PM = palm mute


1:-----------------|-----------------|-------------------------|-----------------|
2:-----------------|-----------------|-------------------------|-----------------|
3:-----------------|-----------------|-------------------------|-----------------|
4:-0-0-0-0-0-0-0-0-|-6-6-6-6-6-6-6-6-|-11-11-11-11-11-11-11-11-|-5-5-5-5-5-5-5-5-|
5:-0-0-0-0-0-0-0-0-|-6-6-6-6-6-6-6-6-|-11-11-11-11-11-11-11-11-|-5-5-5-5-5-5-5-5-|
6:-0-0-0-0-0-0-0-0-|-6-6-6-6-6-6-6-6-|-11-11-11-11-11-11-11-11-|-5-5-5-5-5-5-5-5-|

1:---------------|---------------|---------------|--------|
2:-----9--9/11\9-|-----8--8/10\8-|-----9--9/11\9-|----8b9-|
3:-7-------------|-6-------------|-7-------------|-6--6---|
4:---------------|---------------|---------------|--------|
5:---------------|---------------|---------------|--------|
6:---------------|---------------|---------------|--------|

1:--------------------------|---------12----|--------11----|---------10----|-------|
2:-10(8x)-9(8x)-8(8x)-7(8x)-|-10--10-----10-|-9-9-9------9-|-8--8-8------8-|-7b8r7-|
3:--------------------------|---------------|--------------|---------------|-------|
4:--------------------------|---------------|--------------|---------------|-------|
5:--------------------------|---------------|--------------|---------------|-------|
6:--------------------------|---------------|--------------|---------------|-------|

1:--------------|--------------|-----------|-------------------------|
2:--------------|--------------|-----------|-------------------------|
3:--------------|--------------|-----------|-------------------------|
4:-----6--6/8\6-|-----5--5/7\5-|-----6/8\6-|-----ah5b6.6.6.6.6.6.6.6-|
5:-5------------|-4------------|-5---------|-4-----------------------|
6:--------------|--------------|-----------|-------------------------|

1:---------------------|
2:---------------------|
3:---------------------|
4:-0----6----11----5---|
5:-0----6----11----5---|
6:-0----6----11----5---|

PM
1:-----------------|-----------------|-------------------------|-----------------|
2:-----------------|-----------------|-------------------------|-----------------|
3:-----------------|-----------------|-------------------------|-----------------|
4:-0-0-0-0-0-0-0-0-|-6-6-6-6-6-6-6-6-|-11-11-11-11-11-11-11-11-|-5-5-5-5-5-5-5-5-|
5:-0-0-0-0-0-0-0-0-|-6-6-6-6-6-6-6-6-|-11-11-11-11-11-11-11-11-|-5-5-5-5-5-5-5-5-|
6:-0-0-0-0-0-0-0-0-|-6-6-6-6-6-6-6-6-|-11-11-11-11-11-11-11-11-|-5-5-5-5-5-5-5-5-|

d----ah5----ah5----ah5----ah5-|----ah4----ah4----ah4----ah4-|----ah3----ah3----ah3----ah3-|
a---x------x------x------x----|---x------x------x------x----|---x------x------x------x----|
f--x------x------x------x-----|--x------x------x------x-----|--x------x------x------x-----|
c-x------x------x------x------|-x------x------x------x------|-x------x------x------x------|
g-----------------------------|-----------------------------|-----------------------------|
c-----------------------------|-----------------------------|-----------------------------|


1:------------|------------|----------------|------------|
2:------------|------------|----------------|------------|
3:------------|------------|----------------|------------|
4:-0--0--0--0-|-6--6--6--6-|-11--11--11--11-|-5--5--5--5-|
5:-0--0--0--0-|-6--6--6--6-|-11--11--11--11-|-5--5--5--5-|
6:-0--0--0--0-|-6--6--6--6-|-11--11--11--11-|-5--5--5--5-|

PM
1:-----------------------------------|
2:-----------------------------------|
3:-----------------------------------|
4:-0----6----11----5----0----6----11-|
5:-0----6----11----5----0----6----11-|
6:-0----6----11----5----0----6----11-|

This song is definitely awesome and crazy!  Serj's voice is most unique, and the tempo
is great.  It's a pretty damn easy song to play best of all!  Well, make sure to rate
this tab and leave some freakin comments because I like reading people's comments.  And
don't forget to rate, mate!  Laterz!


.L.U.C.K.
SOAD
Tabbed by rmwaters3000@hotmail.com
18/1/03
Tuning: c g c f a d

This is without a shadow of a doubt SOAD's best song ever, it is raw emotion
mixed with pure power. This tab comes from the book and has the guitar mixed
mixed with transcribed bass so you're busy playing for the whole song so here
it goes, the only correct version of P.L.U.C.K.

INTRO
Gtr1(dist)
Fill 1                            Gtr1:Fill 1 x4
pm.....................       (x4)Gtr2                                 (x4)
-0-0-0-0-0-0-0-0-0-0-0-0-0-0-0-0-|----------------------------------------|
---------------------------------|----------------------------------------|
---------------------------------|----------------------------------------|
---------------------------------|----------------------------------------|
---------------------------------|----------------------------------------|
---------------------------------|-2-2-3-3-2--2-2-3-3-2--2--3--2-2-3-3-2--|
                       End Fill 1

Gtr2 tacet                       ____________________________________
Gtr3 (dist)                      |1,2,3                 |4
pm..................................................................
---------------------------------|----------------------|-----------|
---------------------------------|----------------------|-----------|
---------------------------------|----------------------|-----------|
---------------------------------|----------------------|-----------|
---------------------------------|----------------------|-----------|
-2-2-3-3-2-2-2-2-3-3-2-2-2-2-3-3-|2-2-3-3-0--0--0-0-0-0-|-2-2-3-3-2-|
                                            Elimination.
Gtrs1+3
RhyFig1
pm.......   ........           ........
------------------------------|------------|
------------------------------|------------|
------------------------------|------------|
----------2----------2--2--3--|---------2--|
----------2----------2--2--3--|---------2--|
--2-2-3-3-2--2-2-3-3-2--2--3--|-2-2-3-3-2--|EndRhyFig1
 Die

Gtr1
--0-0--0--0--0-|-0-0--0--0--0-|-0-0--0--0--0-|-0-0--0--0--0-|
--0-0--0--0--0-|-0-0--0--0--0-|-6-0--0--0--0-|-0-0--0--0--0-|
--4-4--4--4--4-|-3-4--4--4--0-|-0-0--4--4--4-|-3-4--4--4--4-|
---------------|--------------|--------------|--------------|
---------------|--------------|--------------|--------------|
---------------|--------------|--------------|--------------|
                                                       Well a
VERSE
RiffA (NOTE:All the ghost notes are palm muted)
-------------------|---------------------|----------------------|
-------------------|---------------------|----------------------|
-7/9---9---9---9-9-|-9/13---13---13---13-|-13/15---15---15---10-|
-x/x---x---x---x-x-|-x/-x----x----x----x-|--x/-x----x----x----x-|
-5/7---7---7---7-7-|-7/11---11---11---11-|-11/13---13---13----8-|
----(0)-(0)-(0)----|-----(0)--(0)--(0)---|------(0)--(0)--(0)---|
whole race,         Genocide,             taken away          all

---------------------|-----------------|------------------------|
---------------------|-----------------|------------------------|
-10/13---13---13---7-|-7/9---9---9---9-|-9/13---13---13---13-13-|
--x/-x----x----x---x-|-x/x---x---x---x-|-x/-x----x----x----x--x-|
--8/11---11---11---5-|-5/7---7---7---7-|-7/11---11---11---11-11-|
------(0)--(0)--(0)--|----(0)-(0)-(0)--|-----(0)--(0)--(0)------|
  of our pride.   A    whole race,      Genocide,

-----------------------|-----------------------------------------|
-----------------------|-----------------------------------------|
-13/15---15---15----10-|-10/13--13-13-13-13-13-13-13-13-13-13-13\|
--x/-x----x----x-----x-|--x/-x---x--x--x--x--x--x--x--x--x--x--x\|
-11/13---13---13-----8-|--8/11--11-11-11-11-11-11-11-11-11-11-11\|
------(0)--(0)---(0)---|-----------------------------------------|End RiffA
taken away...           (watch them all fall down!)

CHORUS
Gtrs1+3 RhyFig2
  pm.......     .........
----------------------------|
----------------------------|
----------------------------|
-2----------0--2----------0-|
-2----------0--2----------0-|
-2--2-2-2-2-0--2--2-2-2-2-0-|End RhyFig2
Revolution,              the

Gtrs1+3: RhyFig2 x7
only solution, the armed response of an entire nation. Revolution, the
only solution. We've taken all your shit now it's time for restitution.

VERSE
Gtr1: RiffA, simile
Recognition, Restoration, Reparation.
Recognition, Restoration, Reparation. (Watch them all fall down)

CHORUS
Gtrs1+3:RhyFig2 x6
Revolution, the only solution, the armed response of an
entire nation. Revolution, the only solution. We've

Gtrs1+3                       RhyFill1
  pm.......     .........     ..........
-----------------------------|------------------------|
-----------------------------|------------------------|
-----------------------------|------------------------|
-2----------0--2----------0--|0--3--3--3--------------|
-2----------0--2----------0--|0--5--5--5--5--5--5--0--|
-2--2-2-2-2-0--2--2-2-2-2-0--|0-----------------------|End RhyFill1
taken all your shit now it's time for restitution.

BRIDGE
RhyFig3
--------------------------|----------------------|---------------------------|
--------------------------|----------------------|---------------------------|
----5-5-5--5--5--7--5-----|----------------------|---------------------------|
-2--x-x-x--x--x--x--x-----|-5-----------5-----5--|----3---3------3-----3-----|
-2--3-3-3--3--3--5--3--0--|-5-----------5-----5--|----3---3------3-----3-----|
-2------------------------|-5-----------5-----5--|----3---3------3-----3-----|
                                                                     End RhyFig3
                               The plan was mast-ered and called    Geno-
cide.                          You took all the children and then we died
                                 The few that remained were never found

Gtrs1+3       pm.......    ........  .........           ........   (x3)
-------------|------------|-----------------------------|--------------|
-------------|------------|-----------------------------|--------------|
-------------|------------|-----------------------------|--------------|
--5---5---5--|--3-3-3-3---|---------2----------2--2--3--|---------2----|
--5---5---5--|--3-3-3-3---|---------2----------2--2--3--|---------2----|
--5---5---5--|--3-3-3-3---|-2-2-3-3-2--2-2-3-3-2--2--3--|-2-2-3-3-2----|
                            Down!

pm......   .........           ........   .................
------------------------------|-----------------------------|
------------------------------|-----------------------------|
------------------------------|-----------------------------|
---------2-----------2--2--3--|---------2-------------------|
---------2-----------2--2--3--|---------2-------------------|
-2-2-3-3-2--2-2-3-3--2--2--3--|-2-2-3-3-2--2-2-2-2-2-2-5--3-|
Yeah!                                                   Walk

Gtrs1+3:RhyFig1,1st meas. x8
down!                     Walk down.

Gtr1
RiffA
-------------------|------------------------|----------------------|
-------------------|------------------------|----------------------|
-7/9---9---9---9-9-|-9/13---13---13---13-13-|-13/15---15---15---10-|
-x/x---x---x---x-x-|-x--x----x----x----x--x-|--x/-x----x----x----x-|
-5/7---7---7---7-7-|-7/11---11---11---11-11-|-11/13---13---13----8-|
----(0)-(0)-(0)----|-----(0)--(0)--(0)------|-------0----0----0----|
             steady gliss
-------------------------|
-------------------------|
-10/13-13-13-------------|
--x/-x--x--x-------------|
--8/11-11-11--x\x\-------|
--------------x\x\-------|

CHORUS
Gtrs1+3: RhyFig2 x7
Revolution, the only solution, the armed responce of an entire nation.
Revolution, the only. We've taken all your shit now it's time for restitution.

OUTRO
          The plan was mastered and called geno
cide. You took all the children and then we died.
         The few that remained were never found.

Gtrs1+3
-----------------------|-----------------------|-----------|---------|
-----------------------|-----------------------|-----------|---------|
-----------------------|-----------------------|-----------|---------|
---5---------5------5--|--3--3-----3----3------|-2---------|---------|
---5---------5------5--|--3--3-----3----3------|-2---------|---------|
---5---------5------5--|--3--3-----3----3--0---|-2---------|---------|
       All  in    a  system.                    Down


Thats the whole album, have fun learning it. It's an aweosme album.
Enjoy =]
comments
print report bad tab
1 comment total.
0 reply
LlamaLove! wrote on June 13 2008, 07:12 pm

Rawr, Looks Guuuurd Dewwd xD
Lubbs Yah! XxX Awesome Tab

I want to post or [tab]
guest
You may want to rate the tab now too:
select rating
Please do not post tabs as comments. Select "correction" instead!