Oops, an error
Loading. Please wait.

Toxicity Tab

239,094 views 154 this week
59 commentsread comments
1 2 3 4 5
accurate
x 84
Autoscroll
+/-
esc
set tempo
stop
Contributor
NEW! There's an official Ultimate Guitar app which is ideal
for learning songs when you're away from computer. Get the app
WARNING: You are trying to view
                                    content from Ultimate-Guitar.com
                                    in an unauthorized application,
                                    which is prohibited.

                                    Please use an official Ultimate
                                    Guitar Tabs application for iPhone,
                                    iPad or Android to access legitimate
                                    chords, guitar, bass, and drum tabs
                                    from Ultimate-Guitar.com database.

                                    Type "ultimate guitar tabs" in Apple
                                    App Store's or Android Market's
                                    search to find the application.
WELL HERE WE GO THE WHOLE SYSTEM OF A DOWN ALBUM!! i DIDNT
ADD CHOP SUEY CAUSE WELL I THINK EVERYONE KNOWS IT BY KNOW
SO HERE IS ALL THE OTHER SONGS!! ENJOY!!

Song: "Prison Song"
Artist: System of A Down
Album: Toxicity
Transcribed By: Josh Minnish

Tuning: Drop D, Down 1 Step (C,G,C,F,A,D)

<> - harmonic

INTRO:
|-----------------------------------------|
|-----------------------------------------|
|-----------------------------------------|
|-0------0-1-3-1-0-1-3-1-0-1-3-1-0-1-8888-|
|-0------0-1-3-1-0-1-3-1-0-1-3-1-0-1-8888-|
|-0------0-1-3-1-0-1-3-1-0-1-3-1-0-1-8888-|

|----------------------------------------------------------------------|
|----------------------------------------------------------------------|
|----------------------------------------------------------------------|
|-0-1-3-1-0-1-3-1-0-1-3-1-0-1-8888-----0-1-3-1-0-1-3-1-0-1-3-1-----8888|
|-0-1-3-1-0-1-3-1-0-1-3-1-0-1-8888-----0-1-3-1-0-1-3-1-0-1-3-1-----8888|
|-0-1-3-1-0-1-3-1-0-1-3-1-0-1-8888-----0-1-3-1-0-1-3-1-0-1-3-1-----8888|

CHORUS:
|---------------------------------------------------------|
|---------------------------------------------------------|
|---------------------------------------------------------|
|-0-1-0-1-0-1-0--0-1-0-1-0-1-0--0-1-0-1-0-1-0--0-1-0-8888-|
|-0-1-0-1-0-1-0--0-1-0-1-0-1-0--0-1-0-1-0-1-0--0-1-0-8888-|
|-0-1-0-1-0-1-0--0-1-0-1-0-1-0--0-1-0-1-0-1-0--0-1-0-8888-|

BRIDGE:
|----------------------------------|
|----------------------------------|
|----------------------------------|
|-0-1-3-1-0-1-3-1-0-1-3-1-0-1-8888-|
|-0-1-3-1-0-1-3-1-0-1-3-1-0-1-8888-|
|-0-1-3-1-0-1-3-1-0-1-3-1-0-1-8888-|

VERSE:
|----------|
|----------|
|---<4>----|
|----------|
|-5----<6>-|
|----------|

FILL: (palm mute)
|--------------|
|--------------|
|--------------|
|--------------|
|-0-8-0-8-0-88-|
|-0-8-0-8-0-88-|

FILL 2:
|---------|
|---------|
|---------|
|-0-1-0-8-|
|-0-1-0-8-|
|-0-1-0-8-|

INTERLUDE:
|-----------------|
|-----------------|
|-7---------6-----|
|---8---8-7---7---|
|-----8---------7-|
|-----------------|

INTERLUDE 2:
|----------------------------------|
|----------------------------------|
|----------------------------------|
|-0-0-0-0-0-0-0-0-0-0-0-0-0-0-8888-|
|-0-0-0-0-0-0-0-0-0-0-0-0-0-0-8888-|
|-0-0-0-0-0-0-0-0-0-0-0-0-0-0-8888-|

INTERLUDE 3:
|-----------------------------|
|-----------------------------|
|-----------------------------|
|-0-0--00-0--00-0--00-0--8888-|
|-0-0--00-0--00-0--00-0--8888-|
|-0-0--00-0--00-0--00-0--8888-|
PM. .  .. .  .. .  .. .  ....

OUTRO:
|---------------1-|
|---------------3-|
|---7------6----2-|
|-----8------7--0-|
|-8------7------0-|
|---------------0-|





Song: "Needle"
Artist: System of A Down
Album: Toxicity
Transcribed By: Josh Minnish

Tuning:  Drop D, Down 1 Step (C,G,C,F,A,D)

INTRO: (not positive on this)
|-6p5p0-6p5p0-6p5p0-6p5p0-6-0-6-0-6-5/6-6-0-6-0-6p5p0-6p5p0-6p0-6p0-6p0|
|----------------------------------------------------------------------|
|----------------------------------------------------------------------|
|----------------------------------------------------------------------|
|----------------------------------------------------------------------|
|----------------------------------------------------------------------|


BRIDGE: (slight variations on this throughout song)
|-------------------------------------------------------------------|
|-------------------------------------------------------------------|
|-------------------------------------------------------------------|
|-0-6-6-6-6-6-6-6-6-6-6-6-6-6-6-6-6---------------------------------|
|-0-6-6-6-6-6-6-6-6-6-6-6-6-6-6-6-6-660-660-660-660-660-660-660-660-|
|-0-6-6-6-6-6-6-6-6-6-6-6-6-6-6-6-6-660-660-660-660-660-660-660-660-|
PM                                  ... ... ... ... ... ... ... ...

|---------------------------------|
|---------------------------------|
|---------------------------------|
|---------------------------------|
|-660-660-660-660-660-660-660-660-|
|-660-660-660-660-660-660-660-660-|
PM... ... ... ... ... ... ... ...

VERSE:
|----------------------------------------|
|----------------------------------------|
|----------------------------------------|
|----------------------------------------|
|-5-6--5-6--5-6--5-6--5-6--5-6--5-6--5-6-|
|-5-6--5-6--5-6--5-6--5-6--5-6--5-6--5-6-|

PRECHORUS:
|-----------------------------------------------------|
|-----------------------------------------------------|
|-----------------------------------------------------|
|-5-13\8-13\8-1-13\8-13\8-6-13\8-6-13\8-6-13\8-6-13\8-|
|-5-13\8-13\8-1-13\8-13\8-6-13\8-6-13\8-6-13\8-6-13\8-|
|-5-13\8-13\8-1-13\8-13\8-6-13\8-6-13\8-6-13\8-6-13\8-|

CHORUS:
|---------------------------------|
|---------------------------------|
|---------------------------------|
|-5-5-5-5-3-3-3-3-6-6-6-6-5-5-5-5-|
|-5-5-5-5-3-3-3-3-6-6-6-6-5-5-5-5-|
|-5-5-5-5-3-3-3-3-6-6-6-6-5-5-5-5-|

CHORUS FILL:
|---------------------------|
|---------------------------|
|---------------------------|
|-5-5-5-5-3-3-3-3-6-6-6-6-5-|
|-5-5-5-5-3-3-3-3-6-6-6-6-5-|
|-5-5-5-5-3-3-3-3-6-6-6-6-5-|

INTERLUDE:
|-------------------------------------------------|
|---4p3---4p3---------------3p2---3p2-------------|
|-------------------------------------------------|
|-5-----5-------5-4---5-4-4-----4-------5-4---5-4-|
|-------------6-----6-----------------5-----5-----|
|-------------------------------------------------|
PM.     .       . . . . . .     .       . . . . .

OUTRO: (palm mute)
|---------------------------------|
|---------------------------------|
|---------------------------------|
|---------------------------------|
|-5-5-6-6-8-8-6-6-5-5-3-3-6-6-5-5-|
|-5-5-6-6-8-8-6-6-5-5-3-3-6-6-5-5-|





Song: "Deer Dance"
Artist: System of A Down
Album: Toxicity
Transcribed By: Josh Minnish

Tuning: Drop D, 1 Step Down (C,G,C,F,A,D)

<> - harmonics

INTRO: (palm mute)
|------------------------------|
|------------------------------|
|------------------------------|
|------------------------------|
|-110-110-110-1--110-110-110-1-|
|-110-110-110-1--110-110-110-1-|
PM... ... ...    ... ... ...

MAIN RIFF:
|--------------------------------------------------------------|
|--------------------------------------------------------------|
|--------------------------------------------------------------|
|-1-0-1-0-1-0-1-0-1-0-1-0-1-0-1-0-1-0-1-0-1-0-1--1-0-1-0-1-0-1-|
|-1-0-1-0-1-0-1-0-1-0-1-0-1-0-1-0-1-0-1-0-1-0-1--1-0-1-0-1-0-1-|
|-1-0-1-0-1-0-1-0-1-0-1-0-1-0-1-0-1-0-1-0-1-0-1--1-0-1-0-1-0-1-|
PM. . . . . . . . . . . . . . . . . . . . . .    . . . . . .

VERSE:
|-------------------------|
|-------------------------|
|-------------------------|
|---------------------<5>-|
|-------------------------|
|-5-5/8--3-3/7--1-1/5-----|

VERSE: (slide between palm muted notes)
|--------------------------------------------------------------|
|--------------------------------------------------------------|
|--------------------------------------------------------------|
|----------------------------------------------------------<5>-|
|--------------------------------------------------------------|
|-55558888333377771111555500000000-555588883333777711115555----|
PM................................ ........................

INTERLUDE:
|----------------------|
|-10-9------13-10-9----|
|------9------------9--|
|--------12------------|
|----------------------|
|----------------------|

INTERLUDE B:
|---------------------------------------------------------------------|
|-----------10-9------13-10-9-/11-11-11-11-11/13-13-13-13-13/15-15-15-|
|-15-14-12-------9----------------------------------------------------|
|------------------12-------------------------------------------------|
|---------------------------------------------------------------------|
|---------------------------------------------------------------------|

|-------------------|
|-16-15-13----------|
|----------14-15-14-|
|-------------------|
|-------------------|
|-------------------|

INTERLUDE FILL :
|-------------|
|-------------|
|-15-14-15-14-|
|-------------|
|-------------|
|-------------|

INTERLUDE C:
|-------------------------|
|-------------------------|
|-15-15-15-14-14-14-14-14-|
|-------------------------|
|-------------------------|
|-------------------------|

OUTRO:
|-------------------------------|
|-------------------------------|
|-------------------------------|
|-1-0-1-0-1-0-1-0-1-0-1-0-1-0-1-|
|-1-0-1-0-1-0-1-0-1-0-1-0-1-0-1-|
|-1-0-1-0-1-0-1-0-1-0-1-0-1-0-1-|
PM. . . . . . . . . . . . . .




Song: Jet Pilot 
Artist: System Of A Down
Album: Toxicity
Transcribed By: Josh Minnish


Tuning:  Drop D, Down 1 Step (C,G,C,F,A,D)

Intro/Chorus: first play this
|-----------|------------------|
|-----------|------------------|
|-----------|------------------|
|-0-0-0--8\-|-0-0--6\--0-0--8\-|
|-0-0-0--8\-|-0-0--6\--0-0--8\-|
|-0-0-0--8\-|-0-0--6\--0-0--8\-|
( only once )(play this a bunch of times)

Bridge: play after chorus
|-----------|---------|
|-----------|---------|
|-----------|---------|
|-0-0-0--8\-|-0-0--8\-|
|-0-0-0--8\-|-0-0--8\-|
|-0-0-0--8\-|-0-0--8\-|
( play once )( play a bunch of times)


Fill in: play after bridge
|---------------------|
|---------------------|
|---------------------|
|---------------------|
|---8-7\5-7-5h7p5-3-1-|
|-7-------------------|

verse: play this after the fill in
|--------------||------------------|
|--------------||------------------|
|--------------||------------------|
|--------------||-7-8-7-8-7-7--5-5-|
|--------------||-7-8-7-8-7-7--5-5-|
|-7-8-7-8-7--5-||-7-8-7-8-7-7--5-5-|
Pm. . . . .  .   . . . . . .  . .


Chorus: now play this
|-----------|------------------|
|-----------|------------------|
|-----------|------------------|
|-0-0-0--8\-|-0-0--6\--0-0--8\-|
|-0-0-0--8\-|-0-0--6\--0-0--8\-|
|-0-0-0--8\-|-0-0--6\--0-0--8\-|
( only once )(play this a bunch of times)


Fill in: play after bridge
|---------------------|
|---------------------|
|---------------------|
|---------------------|
|---8-7\5-7-5h7p5-3-1-|
|-7-------------------|

verse: play this after the fill in
|--------------||------------------|
|--------------||------------------|
|--------------||------------------|
|--------------||-7-8-7-8-7-7--5-5-|
|--------------||-7-8-7-8-7-7--5-5-|
|-7-8-7-8-7--5-||-7-8-7-8-7-7--5-5-|
Pm. . . . .  .   . . . . . .  . .


Chorus: now play this
|-----------|------------------|
|-----------|------------------|
|-----------|------------------|
|-0-0-0--8\-|-0-0--6\--0-0--8\-|
|-0-0-0--8\-|-0-0--6\--0-0--8\-|
|-0-0-0--8\-|-0-0--6\--0-0--8\-|
( only once )(play this a bunch of times)


Fill in: now play this a bunch of times
|---------------------|
|---------------------|
|---------------------|
|---------------------|
|---8-7\5-7-5h7p5-3-1-|
|-7-------------------|


Fill in: after a bunch of times play this
|---------------------------------------------------------------|
|---------------------------------------------------------------|
|---------------------------------------------------------------|
|---------------------------------------------------------------|
|---12-10-12-13-12-15-13--17-15-19-17--20-19-17-15--19-17-15-14-|
|-7-------------------------------------------------------------|
pm                                     .. .. .. ..  .. .. .. ..


Chorus: now play this
|-----------|------------------|
|-----------|------------------|
|-----------|------------------|
|-0-0-0--8\-|-0-0--6\--0-0--8\-|
|-0-0-0--8\-|-0-0--6\--0-0--8\-|
|-0-0-0--8\-|-0-0--6\--0-0--8\-|
( only once )(play this a bunch of times)




Song: X 
Artist: System Of A Down
Album: Toxicity
Transcribed By: Josh Minnish

Tuning:  Drop D, Down 1 Step (C,G,C,F,A,D)

INTRO: Guitar only couple times, Open String, then harmanic
|------------|------------|------------|
|------------|------------|------------|
|------------|------------|------------|
|-0-12-13-12-|-0-12-13-12-|-0-12-13-12-|
|------------|------------|------------|
|------------|------------|------------|
Pm.  .  .  .              Ha.  .  .  .


VERSE: Start playing this after intro
|-----------------------||-----------------------|
|-----------------------||-----------------------|
|--------------14/15-15-||-----------------------|
|-0--0--0-0-0-----------||-0--0--0-0-0--12h13-13-|
|-0--0--0-0-0--12/13-13-||-0--0--0-0-0--12h13-13-|
|-0--0--0-0-0-----------||-0--0--0-0-0--12h13-13-|


CHORUS: Play many times
|------------|
|------------|
|------------|
|-0-12-13-12-|
|-0-12-13-12-|
|-0-12-13-12-|


VERSE: Play Verse again
|-----------------------||-----------------------|
|-----------------------||-----------------------|
|--------------14/15-15-||-----------------------|
|-0--0--0-0-0-----------||-0--0--0-0-0--12h13-13-|
|-0--0--0-0-0--12/13-13-||-0--0--0-0-0--12h13-13-|
|-0--0--0-0-0-----------||-0--0--0-0-0--12h13-13-|


CHORUS: Play chorus again
|------------|
|------------|
|------------|
|-0-12-13-12-|
|-0-12-13-12-|
|-0-12-13-12-|


VERSE: Play Verse again
|-----------------------||-----------------------|
|-----------------------||-----------------------|
|--------------14/15-15-||-----------------------|
|-0--0--0-0-0-----------||-0--0--0-0-0--12h13-13-|
|-0--0--0-0-0--12/13-13-||-0--0--0-0-0--12h13-13-|
|-0--0--0-0-0-----------||-0--0--0-0-0--12h13-13-|


Outro: Play this right after the verse
|--------------------------------------|---------|
|--------------15^-----15^---------15^-|---------|
|--------------------------------------|---------|
|-0--0--0-0-0-------0-------0-0-0------|-0-0-0-0-|
|-0--0--0-0-0-------0-------0-0-0------|-0-0-0-0-|
|-0--0--0-0-0-------0-------0-0-0------|-0-0-0-0-|


Outro: play after first time you play outro
|-----------------------------------------------|
|-----------------------15^-----15^---------15^-|
|-----------------------------------------------|
|-0-0-0-0--0--0--0-0-0-------0-------0-0-0------|
|-0-0-0-0--0--0--0-0-0-------0-------0-0-0------|
|-0-0-0-0--0--0--0-0-0-------0-------0-0-0------|


CHORUS: And finish off with the chorus
|------------|
|------------|
|------------|
|-0-12-13-12-|
|-0-12-13-12-|
|-0-12-13-12-|


Chop Suey! You Should Know it BY Know



Artist: System Of A Down
Song: Bounce
Album: Toxicity
Transcribed By: Josh Minnish

C G C F A D

Intro/Chorus: 

|-----------------------------------------------------------------|
|-----------------------------------------------------------------|
|-----------------------------------------------------------------|
|-----------------------------------------------------------------|
|-8--7-7-8-8-7-7-8-8-7-7-8-8--0--8--7-7-8-8-7-7-8-8-7-7-8-8--0----|
|-8--7-7-8-8-7-7-8-8-7-7-8-8--0--8--7-7-8-8-7-7-8-8-7-7-8-8--0----|

1st Verse Riff 

|-----------------------------------------------------------------|
|-----------------------------------------------------------------|
|-----------------------------------------------------------------|
|---7--8----7--8----7--8----7--8----6--7----6--7----6--7----6--7--|
|-5-------5-------5-------5-------4-------4-------4-------4-------|
|-----------------------------------------------------------------|

Verse Riff 

|-----------------------------------------------------------------|
|-----------------------------------------------------------------|
|-----------------------------------------------------------------|
|---9-10----9-10----9-10----9-10----9--8----9--8----9--8----9--8--|
|-7------7-------7-------7--------6-------6-------6-------6-------|
|-----------------------------------------------------------------|

Bridge 

|-----------------------------------------------------------|
|-----------------------------------------------------------|
|-----10-----10-----10-----10-----9-----9-----9-----9-------|
|-8-------8------8------8------8-----8-----8-----8----------|
|-----------------------------------------------------------|
|-----------------------------------------------------------|


|-----------------------------------------------------------------|
|-----------------------------------------------------------------|
|-----------------------------------------------------------------|
|-----------------------------------------------------------------|
|-8-8--0--8-8--0--8-8--0--8-8--0--8-8--0--8-8--0--8-8--0--8-8--0--|
|-8-8--0--8-8--0--8-8--0--8-8--0--8-8--0--8-8--0--8-8--0--8-8--0--|



|-----------------------------------------------------|
|-x-x-----------------------x-x-----------------------|
|-x-x--10---10---10---10----x-x---9----9----9----9----|
|-x-x---8----8----8----8----x-x---8----8----8----8----|
|-----------------------------------------------------|
|-----------------------------------------------------|






Song: "Forest"
Artist: System of A Down
Album: Toxicity
Transcribed By: Josh Minnish

Tuning: Drop D, 1 Step Down (C,G,C,F,A,D)

INTRO:
|------------------------------------------------------------------|
|------------------------------------------------------------------|
|------------------------------------------------------------------|
|-0-00000000000000-1-111-111-111-112-22222222222223-333-3333333333-|
|------------------------------------------------------------------|
|------------------------------------------------------------------|
PM. .............. . ... ... ... ... .............. ... ..........

|-----------------------------------------------------------------|
|-------------------------------------------------6-6-6-6-6-6-6-6-|
|-----------------------------------------------------------------|
|-0-000-0000000000-1-111-11111111112-222-2222222223-3-3-3-3-3-3-3-|
|-----------------------------------------------------------------|
|-----------------------------------------------------------------|
PM. ... .......... . ... ........... ... .........

BRIDGE: (play once then again w/ palm mute)
|-------------------------------------------------|
|-------------------------------------------------|
|-------------------------------------------------|
|-0-064-0-064-0-064-0-064-0-046-0-046-0-046-0-046-|
|-0-064-0-064-0-064-0-064-0-046-0-046-0-046-0-046-|
|-0-064-0-064-0-064-0-064-0-046-0-046-0-046-0-046-|

VERSE: (palm mute chords during verse 2)
|----------------------------------------------------------|
|----------------------------------------------------------|
|---------77777777--------88888888-------------------------|
|-----4444------------5555---------0-064-0-064-0-064-0-064-|
|-5555------------6666-------------0-064-0-064-0-064-0-064-|
|----------------------------------0-064-0-064-0-064-0-064-|

|----------------------------------------------------------|
|----------------------------------------------------------|
|---------88888888--------99999999-------------------------|
|-----5555------------6666---------0-046-0-046-0-046-0-046-|
|-6666------------7777-------------0-046-0-046-0-046-0-046-|
|----------------------------------0-046-0-046-0-046-0-046-|

VERSE B: (no ones or zeros, elevens and tens)
|----------------------------------------------------------|
|----------------------------------------------------------|
|---------88888888--------99999999--------1010101010101010-|
|-----5555------------6666------------7777-----------------|
|-6666------------7777------------8888---------------------|
|----------------------------------------------------------|

|--------------------------|
|--------------------------|
|---------1111111111111111-|
|-----8888-----------------|
|-9999---------------------|
|--------------------------|

VERSE C:
|-------------------------------------------------|
|-------------------------------------------------|
|-----7-------7-------8-------8-------9-------9---|
|---4---4---4---4---5---5---5---5---6---6---6---6-|
|-5-------5-------6-------6-------7-------7-------|
|-------------------------------------------------|

CHORUS:
|------------------------------|
|------------------------------|
|------------------------------|
|--------------0-0---1-1---5-5-|
|-8-10-8-7-5-4-0-0---1-1---5-5-|
|-8-10-8-7-5-4-0-0---1-1---5-5-|

CHORUS END 1:
|--------------|
|--------------|
|--------------|
|--------------|
|-8-10-8-7-5-4-|
|-8-10-8-7-5-4-|

CHORUS END 2:
|---------------------------------------|
|---------------------------------------|
|---------------------------------------|
|---------------------------------------|
|-8-8-8-8-7-5--8-8-8-8-7-5--8-8-8-8-7-5-|
|-8-8-8-8-7-5--8-8-8-8-7-5--8-8-8-8-7-5-|

INTERLUDE: (palm mute)
|-------------------------------------|
|-------------------------------------|
|-------------------------------------|
|-------------------------------------|
|-00-0-6-4-00-0-6-4-00-0-6-4-00-0-6-4-|
|-00-0-6-4-00-0-6-4-00-0-6-4-00-0-6-4-|

INTERLUDE 2: (palm mute)
|-------------------------------------|
|-------------------------------------|
|-------------------------------------|
|-------------------------------------|
|-00-0-4-6-00-0-4-6-00-0-4-6-00-0-4-6-|
|-00-0-4-6-00-0-4-6-00-0-4-6-00-0-4-6-|


INTERLUDE 3:
|--------------------------|
|--------------------------|
|--------------------------|
|--------------8-8-8-8-7---|
|-8-8-8-8-7-5--6-6-6-6-5-8-|
|-8-8-8-8-7-5------------8-|

INTERLUDE 4:
|-------------------------------------------|
|-------------------------------------------|
|-------------------------------------------|
|--------------8-8-8-8-7----10-10-10-10-8-7-|
|-8-8-8-8-7-5--6-6-6-6-5-8---8--8--8--8-6-5-|
|-8-8-8-8-7-5------------8------------------|

INTERLUDE 5:
|----------------------------------------------------------------------|
|----------------------------------------------------------------------|
|----------------------------------------------------------------------|
|-10-10-10-10-8-7-12-12-12-12-10-8-13-13-13-13-12-10-15-15-15-15-13-12-|
|--8--8--8--8-6-5-10-10-10-10--8-6-11-11-11-11-10--8-13-13-13-13-11-10-|
|----------------------------------------------------------------------|

INTERLUDE 6: (palm mute)
|--------------|
|--------------|
|--------------|
|-00-0-0000-00-|
|-00-0-0000-00-|
|-00-0-0000-00-|

VERSE D: (palm mute)
|-------------------------------------------------------------------|
|-------------------------------------------------------------------|
|-----7-------7-------8-------8-------9-------9-------10-------10---|
|---4---4---4---4---5---5---5---5---6---6---6---6---7----7---7----7-|
|-5-------5-------6-------6-------7-------7-------8--------8--------|
|-------------------------------------------------------------------|

CHORUS 2:
|--------------------------------------------------------|
|--------------------------------------------------------|
|--------------------------------------------------------|
|--------------00-00-0000-00-11-11-1111-11-55-55-5555-55-|
|-8-10-8-7-5-4-00-00-0000-00-11-11-1111-11-55-55-5555-55-|
|-8-10-8-7-5-4-00-00-0000-00-11-11-1111-11-55-55-5555-55-|
PM             .. .. .... .. .. .. .... .. .. .. .... ..

OUTRO:
|----------------|
|----------------|
|----------------|
|--------------0-|
|-8-10-8-7-5-4-0-|
|-8-10-8-7-5-4-0-|




Author/Artist: System Of A Down
Title: ATWA
Album: Toxicity
Transcribed by: Josh Minnish


Tuned C-G-C-F-A-D



|------------------------------------------------------------------------------|
|------------------------------------------------------------------------------|
|------------------------------------------------------------------------------|
|-----8-----7-----10-----12------13------12-----10-----8-----8-----7-----10----|
|------------------------------------------------------------------------------|
|-0-5---5\3---3/7----7/8----8/10----10\8----8\7----7\5---5-5---5\3---3/7-------|
 Intro                                                                        

|------------------------------------------------------------------------------|
|------------------------------------------------------------------------------|
|------------------------------------------------------------------------------|
|-----12------13------12-----10-----8-----8-----7-----10-----12------13-----12-|
|------------------------------------------------------------------------------|
|-7/8----8/10----10\8----8\7----7\5---5-5---5\3---3/7----7/8----8/10----10\8---|
                                                                              

|------------------------------------------------------------------------------|
|------------------------------------------------------------------------------|
|------------------------------------------------------------------------------|
|-----10-----8-----8-----7-----10-----12------13------12-----10-----8----------|
|------------------------------------------------------------------------------|
|-8\7----7\5---5-5---5\3---3/7----7/8----8/10----10\8----8\7----7\5------------|
                                                                              

|--------------------------------------------------------------------|
|--------------------------------------------------------------------|
|--------------------------------------------------------------------|
|-5555555-5555555-5555555-5555555-5555555-5555555-5555555-5555555----|
|-5555555-5555555-5555555-5555555-5555555-5555555-5555555-5555555----|
|-5555555-5555555-5555555-5555555-5555555-5555555-5555555-5555555----|
 Chorus                                                                       

|-------------------------------------------------------------------|
|-------------------------------------------------------------------|
|-------------------------------------------------------------------|
|-5555555-5555555-5555555-5555555-5555555-5555555-5555555-55555h6---|
|-5555555-5555555-5555555-5555555-5555555-5555555-5555555-55555h6---|
|-5555555-5555555-5555555-5555555-5555555-5555555-5555555-55555h6---|
 2nd Chorus                                                                   

|-----------------------------------|
|-----------------------------------|
|-----------------------------------|
|-5555h6-5555h6-5555h6-5555h6-------|
|-5555h6-5555h6-5555h6-5555h6-------|
|-5555h6-5555h6-5555h6-5555h6-------|
 (I don't see)                                                         

|-------------------------------------------------------|
|-------------------------------------------------------|
|-12-12\10-10/14-14/15-15/17-17\15-15\14-14\12-12-------|
|-------------------------------------------------------|
|-10-10\8--8-/12-12/13-13/15-15\13-13\12-12\10-10-------|
|-------------------------------------------------------|
 Solo                                                                         

|------------------------------------------------------------------------------|
|------------------------------------------------------------------------------|
|-12-12-12-12-12-12-12-10-10-10-10-10-10-10-10-14-14-14-14-14-14-14-14-15-15---|
|------------------------------------------------------------------------------|
|------------------------------------------------------------------------------|
|------------------------------------------------------------------------------|
 This here you use an artificial harmonic                                     

|------------------------------------------------------------------------------|
|------------------------------------------------------------------------------|
|-15-15-15-15-15-15-17-17-17-17-17-17-17-17-15-15-15-15-15-15-15-15-14-14-14---|
|------------------------------------------------------------------------------|
|------------------------------------------------------------------------------|
|------------------------------------------------------------------------------|
                                                                              

|---------------------------------------------------------------|
|---------------------------------------------------------------|
|-14-14-14-14-14-12v--------------------------------------------|
|--------------------5-5\3-3/7-7/8-8/10-10\8-8\7-7\5-5-5-5-5----|
|--------------------5-5\3-3/7-7/8-8/10-10\8-8\7-7\5-5-5-5-5----|
|--------------------5-5\3-3/7-7/8-8/10-10\8-8\7-7\5-5-5-5-5----|
                                                                              

|-------------------------------------------|
|-------------------------------------------|
|-------------------------------------------|
|-5-5\3-3/7-7/8-8/10-10\8-8\7-7\5-5-5-5-5---|
|-5-5\3-3/7-7/8-8/10-10\8-8\7-7\5-5-5-5-5---|
|-5-5\3-3/7-7/8-8/10-10\8-8\7-7\5-5-5-5-5---|
                                                                              

|---------------------------------------------------------------------|
|---------------------------------------------------------------------|
|---------------------------------------------------------------------|
|-5555555-5555555-5555555-5555555-5555555-5555555-5555555-55555h6-----|
|-5555555-5555555-5555555-5555555-5555555-5555555-5555555-55555h6-----|
|-5555555-5555555-5555555-5555555-5555555-5555555-5555555-55555h6-----|
                                                                              
                                                                        
|---------------------------------------------|
|---------------------------------------------|
|---------------------------------------------|
|-5-5-5-5h6-5-5-5-5h6-5-5-5-5h6-5-5-5-5h6-----|
|-5-5-5-5h6-5-5-5-5h6-5-5-5-5h6-5-5-5-5h6-----|
|-5-5-5-5h6-5-5-5-5h6-5-5-5-5h6-5-5-5-5h6-----|





Song: "Science"
Artist: System of A Down
Album: Toxicity
Transcribed By: Josh Minnish

Tuning: Drop D, 1 Step Down (C,G,C,F,A,D)

< > - harmonics

INTRO: 
|-----------------------------------------------------------------|
|-----------------------------------------------------------------|
|-<7>-----------------------------<7>-----------------------------|
|-----------------------------------------------------------------|
|-----5-5-555-5-5-555-5-5-555-5-5-----5-5-555-5-5-555-5-5-555-5-5-|
|-----------------------------------------------------------------|
PM    . . ... . . ... . . ... . .     . . ... . . ... . . ... . .


|-----------------------------------------------------------------|
|-----------------------------------------------------------------|
|-<7>-------------<7>-------------<7>-----<7>-----<7>-----<7>-----|
|-----------------------------------------------------------------|
|-----5-5-555-5-5-----5-5-555-5-5-----5-5-----5-5-----5-5-----5-5-|
|-----------------------------------------------------------------|
      . . ... . .     . . ... . .     . .     . .     . .     . .

CHORUS:
|---------------------------------------------------------|
|---------------------------------------------------------|
|-7-------------7-------------7---------------------------|
|-7-------------7-------------7---------------------5-----|
|-5-0-0-0-0-0-0-5-0-0-0-0-0-0-5-0-0-0-0-0-0---5-7-8---8-7-|
|---0-0-0-0-0-0---0-0-0-0-0-0---0-0-0-0-0-0-8-------------|
PM  . . . . . .   . . . . . .   . . . . . .

VERSE:
|-------------------------------------------------------------|
|-------------------------------------------------------------|
|-------------------------------------------------------------|
|-------------------------------------------------------------|
|-6-5-5-555-5-5-555-5-5-555-5-5-6-5-5-555-5-5-555-5-5-555-5-5-|
|-------------------------------------------------------------|
PM  . . ... . . ... . . ... . .   . . ... . . ... . . ... . .

|-----------------------------------------------------|
|-----------------------------------------------------|
|-----------------------------------------------------|
|-----------------------------------------------------|
|-6-5-5-555-5-5-6-5-5-555-5-5-6-5-5-6-5-5-6-5-5-6-5-5-|
|-----------------------------------------------------|
    . . ... . .   . . ... . .   . .   . .   . .   . .

VERSE 2:
|-------------------------------------------------------------|
|-------------------------------------------------------------|
|-------------------------------------------------------------|
|-------------------------------------------------------------|
|-6-5-5-555-5-5-555-5-5-555-5-5-6-5-5-555-5-5-555-5-5-555-5-5-|
|-------------------------------------------------------------|
PM  . . ... . . ... . . ... . .   . . ... . . ... . . ... . .

|-----------------------------------------------------------------|
|-----------------------------------------------------------------|
|-<7>-------------<7>-------------<7>-----<7>-----<7>-----<7>-----|
|-----------------------------------------------------------------|
|-----5-5-555-5-5-----5-5-555-5-5-----5-5-----5-5-----5-5-----5-5-|
|-----------------------------------------------------------------|
      . . ... . .     . . ... . .     . .     . .     . .     . .

BRIDGE:
|------------------------|
|------------------------|
|------------------------|
|-0--2--3----------5-----|
|-0--2--3----5-7-8---8-7-|
|-0--2--3--8-------------|

INTERLUDE: (palm mute)
|---------------------------|
|---------------------------|
|-------------------5-------|
|---5-7---7-8---7-8---8-7-8-|
|-5-----5-----5-------------|
|---------------------------|

FILL:
|----------------------|
|----------------------|
|----------------------|
|-3-3-5-3-2--2-2h3-2---|
|--------------------3-|
|----------------------|

INTERLUDE 2:
|---------------------------------------------------------------------|
|---------------------------------------------------------------------|
|-0-2-3-0-2-2-22--0-2-5-3-2-2-22--0-2-3-0-2-2-22----------------------|
|-------------------------------------------------3-3-5-3-2-2-2h3-2---|
|-------------------------------------------------------------------3-|
|---------------------------------------------------------------------|

INTERLUDE FILL:
|-------------------------------|
|-------------------------------|
|-0-2-3-0-2-2-23-0-2-2-23-0-2-2-|
|-------------------------------|
|-------------------------------|
|-------------------------------|

OUTRO:
|----------------------------------------------------------|
|----------------------------------------------------------|
|-7-------------9-------------10---------------------------|
|-7-------------9-------------10---------------------5-----|
|-5-555-555-555-7-777-777-777--8-888-888-888---5-7-8---8-7-|
|--------------------------------------------8-------------|
PM  ... ... ...   ... ... ...    ... ... ...




Song: "Shimmy"
Artist: System of A Down
Album: Toxicity
Transcribed By: Josh Minnish

Tuning: Drop D, 1 Step Down (C,G,C,F,A,D)

INTRO: (palm mute)
|---------------------------------|
|---------------------------------|
|---------------------------------|
|---------------------------------|
|---------------------------------|
|-3-2-0-2-3-2-0-2-3-2-0-2-3-2-0-2-|

MAIN RIFF:
|--------------------------------------------|
|--------------------------------------------|
|--------------------------------------------|
|-3-2-2-2-2--7-6-6-6-6--3-2-2-2-2--7-6-6-6-6-|
|-3-2-2-2-2--7-6-6-6-6--3-2-2-2-2--7-6-6-6-6-|
|-3-2-2-2-2--7-6-6-6-6--3-2-2-2-2--7-6-6-6-6-|

VERSE:
|--------------------------------------------|
|--------------------------------------------|
|--------------------------------------------|
|-------------------------2--2-3-2-0---------|
|-3-2-0-2-3-2-0-2-3-2-0-2-2----------3-2-0---|
|-3-2-0-2-3-2-0-2-3-2-0-2-2----------------6-|
PM. . . . . . . . . . . . 

|------------------------------------------------|
|------------------------------------------------|
|--------------------------------1-2-1h2p1-------|
|-------------------------2--2-3-----------3-2-0-|
|-3-2-0-2-3-2-0-2-3-2-0-2-2----------------------|
|-3-2-0-2-3-2-0-2-3-2-0-2-2----------------------|
PM. . . . . . . . . . . . 

|--------------------------------------------|
|--------------------------------------------|
|--------------------------------------------|
|-------------------------2--2-3-2-0---------|
|-3-2-0-2-3-2-0-2-3-2-0-2-2----------3-2-0---|
|-3-2-0-2-3-2-0-2-3-2-0-2-2----------------6-|
PM. . . . . . . . . . . . 

|----------------------------------------------------------------|
|----------------------------------------------------------------|
|--------------------------------1-2-1h2p1-----------------------|
|-------------------------2--2-3-----------3-2-3-2-0-------------|
|-3-2-0-2-3-2-0-2-3-2-0-2-2--------------------------3-2-3-2-0---|
|-3-2-0-2-3-2-0-2-3-2-0-2-2------------------------------------6-|
PM. . . . . . . . . . . . 

CHORUS:
|----------------------------------------------|
|----------------------------------------------|
|----------------------------------------------|
|-2-2--6-6--2-2--6-6--2-2--6-6--2-2--7-6-6-6-6-|
|-2-2--6-6--2-2--6-6--2-2--6-6--2-2--7-6-6-6-6-|
|-2-2--6-6--2-2--6-6--2-2--6-6--2-2--7-6-6-6-6-|
PM                                   . . . . 

CHORUS 2:
|----------------------------------------|
|----------------------------------------|
|----------------------------------------|
|-2-2--6-6--2-2--6-6--2-2--6-6--2-2--6-6-|
|-2-2--6-6--2-2--6-6--2-2--6-6--2-2--6-6-|
|-2-2--6-6--2-2--6-6--2-2--6-6--2-2--6-6-|

BRIDGE:
|-------------------------------------------------|
|-------------------------------------------------|
|-------------------------------------------------|
|-3-2---3-2---3-2---3-2---32-32-32-32-32-32-32222-|
|-3-2---3-2---3-2---3-2---32-32-32-32-32-32-32222-|
|-3-2---3-2---3-2---3-2---32-32-32-32-32-32-32222-|
PM                                          ....

INTERLUDE: (palm mute, play several times then grad. release)
|-----------------|
|-----------------|
|-----------------|
|-2-3-2-0---------|
|---------3-2-0---|
|---------------6-|

OUTRO:
|----------------------------|
|----------------------------|
|----------------------------|
|-3-2-0-2-3-2-0-2-3-2-0-2--2-|
|-3-2-0-2-3-2-0-2-3-2-0-2--2-|
|-3-2-0-2-3-2-0-2-3-2-0-2--2-|


Artist: System Of A Down
Album: Toxicity
Song: Toxicty
Transcribed By: Josh Minnish

Drop C:
(C G C F A D)

Intro:


|----------------------------------------------------------------------------|
|----------------------------------------------------------------------------|
|----14----14----14----14----14----14----17----17----17----17----17----17----|
|-12----12----12----12----12----12----15----15----15----15----15----15-------|
|----------------------------------------------------------------------------|
|----------------------------------------------------------------------------|


|----------------------------------------------------------|
|----------------------------------------------------------|
|----------------------------------------------------------|
|---7---7---7---7---7---7---10---10---10---10---10---10----|
|-5---5---5---5---5---5---8----8----8----8----8----8-------|
|----------------------------------------------------------|

Fig 1.

|----------------------------------------------------------------------------|
|----------------------------------------------------------------------------|
|----14----14----14-15----15-14----14----17----19----19-17----17----15----15-|
|-12----12----12-------12-------12----15----15----15-------15----15----15----|
|----------------------------------------------------------------------------|
|----------------------------------------------------------------------------|

Fig 1a.

|-------------------------------------------------------------|
|-------------------------------------------------------------|
|-------------------------------------------------------------|
|---7---7---7-8---8-7---7---10---12---12-10---10---8---8------|
|-5---5---5-----5-----5---8----8----8-------8----8---8--------|
|-------------------------------------------------------------|

Chorus


|-------------------------------------------------------------------|
|-------------------------------------------------------------------|
|-------------------------------------------------------------------|
|-------------------------------------------------------------------|
|-0-----------------0-----------8---------8---------7-------7-7-7---|
|-0---------3-2-0-2-0-----------8---------8---------7-------7-7-7---|

|----------------------------------------------------------------------------|
|----------------------------------------------------------------------------|
|----------------------------------------------------------------------------|
|----------------------------------------------------------------------------|
|-------------------------------------------------8-------8-8-8--7----7-7-7--|
|-3-2-0-2-0-0-3-2-0-2-0-0-3-2-0-2-0-0-3-2-0-2-0-0-8-------8-8-8--7----7-7-7--|

Play Fig 1 and 1a. w/

|---------------------------------------------------------|
|---------------------------------------------------------|
|---------------------------------------------------------|
|---------------------------------------------------------|
|---0---0---0---0---0---0---3---3---3---3---3---3---------|
|-0---0---0---0---0---0---3---3---3---3---3---3-----------|

|-----------------------------------------------------------------|
|-----------------------------------------------------------------|
|-----------------------------------------------------------------|
|-----------------------------------------------------------------|
|---0---0---0-1---1-0---0---3---3---3---3---3---3---3---3---------|
|-0---0---0-----0-----0---3---3---3---3---3---3---3---3---3-------|

Verses

|----------------------------------------------------------|
|----------------------------------------------------------|
|--------------------------------9------10------9----------|
|---7---7---7---7---7---7---10-----10------10-----10-------|
|-5---5---5---5---5---5---8----8------8-------8------8-----|
|----------------------------------------------------------|

|-------------------------------------------------------------|
|-------------------------------------------------------------|
|-------------------------------------------------------------|
|---7---7---7---7-8---8-7---7---10---12---12-10---10-8---8----|
|-5---5---5---5-----5-----5---8----8----8-------8------8------|
|-------------------------------------------------------------|

Eating seeds...(When he sings this Play this)

|----------------------------------------------------------------------------|
|----------------------------------------------------------------------------|
|----------------------------------------------------------------------------|
|----------------------------------------------------------------------------|
|----------------------------------------------------------------------------|
|-0---0-0-0--0-0-0--0---0-0-0--0-0-0--3---3-3-3--3-3-3--3----3-3-3-3--3-3----|


Interlude:

|-----------------------------------------------------------------------|
|-----------------------------------------------------------------------|
|-----------------------------------------------------------------------|
|-----------------------------------------------------------------------|
|-----------------------------------------------------------------------|
|-12--12--12-12-12-15-12-12-14b---12--12--12-12-12-15-12-12-14~~~-------|

|----------------------------------------------------------------------------|
|----------------------------------------------------------------------------|
|----------------------------------------------------------------------------|
|----------------------------------------------------------------------------|
|----------------------------------------------------------------------------|
|-3-2-0-0-0-0-3-2-0-0-0-0-3-2-0-0-0-0-3-2-0-0-0-0-3-2-0-0-0-0-3-2-0-0-0-0----|

|--------------------------------------------------------------------|
|--------------------------------------------------------------------|
|--------------------------------------------------------------------|
|--------------------------------------------------------------------|
|--------------------------------------------------------------------|
|-0--0--0-0-0-3-2-0-2b--0--0--0-0-0-3-2-0-2b--0--0--0-0-0-3-2-0-2b---|

Outro:

|----------------------------------------------------------------------------|
|----------------------------------------------------------------------------|
|----------------------------------------------------------------------------|
|----------------------------------------------------------------------------|
|----------------------------------------------------------------------------|
|-0--0-0-3-2-0-2b---0-0-0-0-0-3-2-0-2b---0--0-0-3-2-0-2b--0-0-0-0-0-3-2-0-2--|





Song: "Psycho"
Artist: System of A Down
Album: Toxicity
Transcribed By: Josh Minnish
Tuning: Drop D, Down 1 Step (C,G,C,F,A,D)

^ - bend 1 step up
^(n) - bend 1/2 step and release

INTRO: (play first part 2X and then 2nd part)
|---------------------------------------------------------------------|
|-17-X-17-X-17-XX-17-X-17-XX-17-X-17-X-17-XX-15-X-15-XX-15-X-15-XX-15-|
|---------------------------------------------------------------------|
|---------------------------------------------------------------------|
|---------------------------------------------------------------------|
|---------------------------------------------------------------------|

|------------------|---------------------------------------------------|
|-XX-15-XX-15-X-15-|-18^(keep picking and grad. bend up to 1 1/2 steps)|
|------------------|---------------------------------------------------|
|------------------|---------------------------------------------------|
|------------------|---------------------------------------------------|
|------------------|---------------------------------------------------|

INTRO 2:
|--------------------|
|--------------------|
|--------------------|
|-222--222--222--222-|
|-222--222--222--222-|
|-222--222--222--222-|

CHORUS:
|---------------------|
|---------------------|
|---------------------|
|-2-XX-2-XX-2-XX-2-XX-|
|-2-XX-2-XX-2-XX-2-XX-|
|-2-XX-2-XX-2-XX-2-XX-|

CHORUS FILL:
|------------------|
|------------------|
|------------------|
|-2-XX-2-XX-2-XX-2-|
|-2-XX-2-XX-2-XX-2-|
|-2-XX-2-XX-2-XX-2-|

CHORUS B:
|-------|
|-------|
|-------|
|-0---3-|
|-0---3-|
|-0---3-|

CHORUS C:
|----------------|
|----------------|
|----------------|
|-0---3---2--0-2-|
|-0---3---2--0-2-|
|-0---3---2--0-2-|

VERSE:
|---------------------------------------------------------|
|-9--9--9-9----9-----9-10--10-12-13-13^-13-12-13-12-10-10-|
|-X--X--X-X-------------X---------------------------------|
|-6--6--6-6--6---6-6----7---------------------------------|
|---------------------------------------------------------|
|---------------------------------------------------------|

|-----------------------|
|-10---10---10-10-12-10-|
|--X------------X--X--X-|
|--7-7----7-----7--9--7-|
|-----------------------|
|-----------------------|

SOLO:
|-----------------------------------------------------|
|-12--10-12-13--12-13-12h13p12------12-------------12-|
|------------------------------14------14-13-13h14----|
|-----------------------------------------------------|
|-----------------------------------------------------|
|-----------------------------------------------------|

|---------------12-------------------------------------------------|
|-10-12---10-12-----13-12-13-12h13p12------------------12----------|
|-------------------------------------14^(14)^(14)-14-----14-13-13-|
|------------------------------------------------------------------|
|------------------------------------------------------------------|
|------------------------------------------------------------------|

|-----------------------------------|
|-----------------12----------------|
|-13-14-13--13-14----14-13-14----14-|
|-----------------------------14----|
|-----------------------------------|
|-----------------------------------|

|--------------------------------------------------------------|
|-12-12-12-12-12-12-10-12-13-13-13-12-13-12-10-10-10-10-10-10--|
|---9--9--9--9--9--9--9--9--9--9--9--9--9--9--9--9--9--9--9--9-|
|--------------------------------------------------------------|
|--------------------------------------------------------------|
|--------------------------------------------------------------|

|---------------------------------------------------------------|
|-12-12-10-9-9-10-12-12-12-12-12-12-10-12-12-12-12-12-12-10-12--|
|---9--9--9-9-------9--9--9--9--9--9--9--9--9--9--9--9--9--9--9-|
|---------------------------------------------------------------|
|---------------------------------------------------------------|
|---------------------------------------------------------------|

|-10-10-10----------------------------------------|
|----------12-13-12-10-10-10-10-10-10-12---10---9-|
|---9--9--9--9--9--9--9--9--9--9--9--9---9----9---|
|-------------------------------------------------|
|-------------------------------------------------|
|-------------------------------------------------|




Author/Artist: System of a Down
Title: Aerials
Album: Toxicity
Transcribed by: Josh Minnish


Tuned (C, G, C, F, A, D)

D|---------------------------------------------------------------------------|
A|---------------------------------------------------------------------------|
F|---------------------------------------------------------------------------|
C|------0------0------0------0------0---------0------0------0------0------0--|
G|----0------0------0------0------0---------0------0------0------0------0----|
C|--3------2------0------0------0------0--5------3------2------2------2------|

D|------------------------------------------------------------------------------|
A|------------------------------------------------------------------------------|
F|------------------------------------------------------------------------------|
C|---------0------0------0------0----0----0------0------0------0------0------0--|
G|-------0------0------0------0----------------0------0------0------0------0----|
C|--2--3------5------7------8------7----5----3------2------0------0------0------|

D|-----------------------------------------------------------------------------------|
A|-----------------------------------------------------------------------------------|
F|-----------------------------------------------------------------------------------|
C|----------0-------0------0------0------0-----------0-------0------0------0------0--|
G|--------0-------0------0------0------0-----------0-------0------0------0------0----|
C|--0--12------10------7------7------7------7-/-14------10------7------7------7------|

D|---------------------------------------------------------------------------------------|
A|---------------------------------------------------------------------------------------|
F|---------------------------------------------------------------------------------------|
C|----------0-------0-------0-------0----0-------0---------0-------0-------0-----0----0--|
G|--------0-------0-------0-------0---------------------0-------0-------0-----0-----0----|
C|--7--12------14------15------17------15----14------12------10-----12----12----12-------|


Verse

D|--------------------------------------------------------------|
A|--------------------------------------------------------------|
F|---------------------12-----------10-----------9-----------7--|
C|--88888888--0-0-0-0------0-0-0-0------0-0-0-0-----0-0-0-0-----|
G|--88888888--0-0-0-0--10--0-0-0-0--8---0-0-0-0--7--0-0-0-0--5--|
C|--88888888--0-0-0-0------0-0-0-0------0-0-0-0-----0-0-0-0-----|
P.M.          - - - -      - - - -      - - - -     - - - -


Bridge

D|---------------------------------------------------------------------------|
A|---------------------------------------------------------------------------|
F|---------------------------------------------------------------------------|
C|------0------0------0------0------0---------0------0------0------0------0--|
G|----0------0------0------0------0---------0------0------0------0------0----|
C|--3------2------0------0------0------0--5------3------2------2------2------|

D|------------------------------------------------------------------------------|
A|------------------------------------------------------------------------------|
F|------------------------------------------------------------------------------|
C|---------0------0------0------0----0----0------0------0------0------0------0--|
G|-------0------0------0------0----------------0------0------0------0------0----|
C|--2--3------5------7------8------7----5----3------2------0------0------0------|


Interlude

D|-----------------------------------|
A|-----------------------------------|
F|-----------------------------------|
C|--7-8-7-8-7-8-7-8-7-8-7-8-7-8-7-8--|
G|--7-8-7-8-7-8-7-8-7-8-7-8-7-8-7-8--|
C|--7-8-7-8-7-8-7-8-7-8-7-8-7-8-7-8--|
P.M.                - - - - - - - -


Breakdown

D|----------------------------------------------------|
A|----------------------------------------------------|
F|----------------------------------------------------|
C|--3--2--0--5--3--2--3--5--7--8--7--5--3--2--0--12/--|
G|--3--2--0--5--3--2--3--5--7--8--7--5--3--2--0--12/--|
C|--3--2--0--5--3--2--3--5--7--8--7--5--3--2--0--12/--|
comments
print report bad tab
59 comments total. Showing first comments.
+1 reply
VaYnE wrote on February 19 2002, 12:00 am

dude kick ass u did great work!!!! oh and thanks u for puting Psycho dude the solo in it is so cool....dude if anyone says these tabs are shit ignore them dude u rule!

0 reply
Dill_Daddy wrote on February 20 2002, 12:00 am

You are the GREATEST!!!!!!!!!!

0 reply
slipknot_133 wrote on February 20 2002, 12:00 am

you fuckin rock man thanks for the toxicity album tab

I want to post or [tab]
guest
You may want to rate the tab now too:
select rating
Please do not post tabs as comments. Select "correction" instead!