Oops, an error
Loading. Please wait.

Toxicity Tab

47,681 views 40 this week
18 commentsread comments
1 2 3 4 5
worth learning
x 10
add to favorites launch autoscroll
font size
0
reset
Autoscroll
+/-
esc
set tempo
stop
WARNING: You are trying to view
                                    content from Ultimate-Guitar.com
                                    in an unauthorized application,
                                    which is prohibited.

                                    Please use an official Ultimate
                                    Guitar Tabs application for iPhone,
                                    iPad or Android to access legitimate
                                    chords, guitar, bass, and drum tabs
                                    from Ultimate-Guitar.com database.

                                    Type "ultimate guitar tabs" in Apple
                                    App Store's or Android Market's
                                    search to find the application.
System Of A Down Toxicity  Album,           

   KEY:          YOU WILL USE THIS IN 'FORESTS'
                 [       --------------       ]    
 O           O   [ EX. O --------------O      ]
    REPEAT       [       ---0---2------       ]
 O           O   [     O -3------------O      ]
                 [       --------------       ]
                 [       --------------       ]
                   (You would play that twice) 
                                            
                                            
KEY: (w/dist) with distortion                                                
Note:You will notice that i spent more
time on some songs than others by
tabbing it all out and not putting
repeat signs.But you could probably work the
timing out yourself. 


PRISON SONG

Tuning:Drop D,Down 1 step (C,G,C,F,A,D)  ALL SONG (W/DIST)


Intro

|------------------------------------------------------------------------------|
|------------------------------------------------------------------------------|
|------------------------------------------------------------------------------|  x2
|-0----0-1-3-2-0-1-3-2-0-1-3-2-0-1-8-8-7-8-------------------------------------|
|-0----0-1-3-2-0-1-3-2-0-1-3-2-0-1-8-8-7-8-------------------------------------|
|-0----0-1-3-2-0-1-3-2-0-1-3-2-0-1-8-8-7-8-------------------------------------|
  

Play Again

|------------------------------------------------------------------------------|
|------------------------------------------------------------------------------|
|------------------------------------------------------------------------------|
|-0-1-3-2-0-1-3-2-0-1-3-2----8-8-7-8-------------------------------------------|
|-0-1-3-2-0-1-3-2-0-1-3-2----8-8-7-8-------------------------------------------|
|-0-1-3-2-0-1-3-2-0-1-3-2----8-8-7-8-------------------------------------------|
  

 (figure out order for intro, it's easy like i said) 

|------------------------------------------------------------------------------|
|------------------------------------------------------------------------------|
|------------------------------------------------------------------------------|
|-0-1-0-2-2-1-0--0-1-0-2-2-1-0--0-1-0-2-2-1-0--0-1-0-8-8-7-8-------------------|
|-0-1-0-2-2-1-0--0-1-0-2-2-1-0--0-1-0-2-2-1-0--0-1-0-8-8-7-8-------------------|
|-0-1-0-2-2-1-0--0-1-0-2-2-1-0--0-1-0-2-2-1-0--0-1-0-8-8-7-8-------------------|
 

Verse (all arificial harmonics)
|-----------6-----6-----6-----6------10-------10------6-----6-----------------|
|---------8---8-8---8-8---8-8---6-11----11-11----11-8---8-8---8---------------|
|-----------------------------------------------------------------------------|
|-----------------------------------------------------------------------------|
|-----------------------------------------------------------------------------|
|-----------------------------------------------------------------------------|

|---6------10------6----------------------------------------------------------|
|-8---8-11----11-8---8---7---7---7---7----------------------------------------|
|--------------------------8---8---8------------------------------------------|
|-----------------------------------------------------------------------------|
|-----------------------------------------------------------------------------|
|-----------------------------------------------------------------------------|

Chorus 
|-----------------------------------------------------------------------------|
|-----------------------------------------------------------------------------|
|-----------------------------------------------------------------------------|
|-0-1-0-2-2-1-0--0-1-0-2-2-1-0--0-1-0-2-2-1-0--0-1-0-8-8-7-8------------------|
|-0-1-0-2-2-1-0--0-1-0-2-2-1-0--0-1-0-2-2-1-0--0-1-0-8-8-7-8------------------|
|-0-1-0-2-2-1-0--0-1-0-2-2-1-0--0-1-0-2-2-1-0--0-1-0-8-8-7-8------------------|
 

Bridge

|-----------------------------------------------------------------------------|
|-----3-2-----1---------------------------------------------------------------|
|-0-3-------2---3-------------------------------------------------------------|
|---------4------------------------------------8-8-7-8------------------------|
|----------------------------------------------8-8-7-8------------------------|
|------------------0-0-0-0-0-0-0-0-0-0-0-0-0-0-8-8-7-8------------------------|
                                           

|-----------------------------------------------------------------------------|
|-----------------------------------------------------------------------------|
|-----------------------------------------------------------------------------|
|-0-0---0-0-0---0-0-0---0-0-0-8-8-7-8-----------------------------------------|
|-0-0---0-0-0---0-0-0---0-0-0-8-8-7-8-----------------------------------------|
|-0-0---0-0-0---0-0-0---0-0-0-8-8-7-8-----------------------------------------|
                                                                              
Ending 
D(----3------------------------------------------------------------------------)
A(----4------------------------------------------------------------------------)
F(----5------------------------------------------------------------------------)
c(----5------------------------------------------------------------------------)
G(----3------------------------------------------------------------------------)
C(----3------------------------------------------------------------------------)
                                             {(wdist) With distortion}

NEEDLES

Tuning:Drop D,Down 1 step (C,G,C,F,A,D)
                                                        Key:{ / slide}
(clean)

INTRO: 
|-6p5p0-6p5p0-6p5p0-6p5p0-6-0-6-0-6-5/6-6-0-6-0-6p5p0-6p5p0-6p0-6p0-6p0-|
|-----------------------------------------------------------------------|
|-----------------------------------------------------------------------|
|-----------------------------------------------------------------------|
|-----------------------------------------------------------------------|
|-----------------------------------------------------------------------|


BRIDGE: (w/dist)
|--------------------------------------------------------------------|
|--------------------------------------------------------------------|
|--------------------------------------------------------------------|
|-0-6-6-6-6-6-6-6-6-6-6-6-6-6-6-6-6----------------------------------|
|-0-6-6-6-6-6-6-6-6-6-6-6-6-6-6-6-6----------------------------------|
|-0-6-6-6-6-6-6-6-6-6-6-6-6-6-6-6-6----5p4-0--5p4-O--5p4-0--5p4-0----|
                               
|---------------------------------|
|---------------------------------|
|---------------------------------|
|---------------------------------|
|---------------------------------|
|-5p4-0--5p4-O--5p4-0--5p4-0------|


VERSE: (W/dist)
|-----------------------------------------|
|-----------------------------------------|
|-----------------------------------------|
|-----------------------------------------|
|-5-6--5-6--5-6--5-6--5-6--5-6--5-6--5-6--|
|-5-6--5-6--5-6--5-6--5-6--5-6--5-6--5-6--|

PRECHORUS: (w/Dist)
|-----------------------------------------------------|
|-----------------------------------------------------|
|-----------------------------------------------------|
|-5--5-5-1--1-1\6--1/6--1/6--1/6--1/6-----------------|
|-5--5-5-1--1-1\6--1/6--1/6--1/6--1/6-----------------|
|-5--5-5-1--1-1\6--1/6--1/6--1/6--1/6-----------------|

CHORUS: (w/dist)
|-----------------------------|
|-----------------------------|
|-----------------------------|
|-5-5-3-3-3-6-6-6-6-6-5-------|
|-5-5-3-3-3-6-6-6-6-6-5-------|
|-5-5-3-3-3-6-6-6-6-6-5-------|

INTERLUDE: (clean) (all palm muted)
|-------------------------------------------------|
|---4p3---4p3---------------3p2---3p2-------------|
|------------------------------------------------ |
|-5-----5-------5-4---5-4-4-----4-------5-4---5-4-|
|-------------6-----6-----------------5-----5-----|
|-------------------------------------------------|


OUTRO: (palm mute) (w/dist)
|---------------------------------|
|---------------------------------|
|---------------------------------|
|---------------------------------|
|-5-5-6-6-8-8-6-6-5-5-3-3-6-6-5-5-|
|-5-5-6-6-8-8-6-6-5-5-3-3-6-6-5-5-| 
 
DEER DANCE

Tuning:Drop D,Down 1 step (C,G,C,F,A,D)
                                                              KEY:
Intro/Chorus 1     ALLSONG(W/DIST) EXEPT SOLO       (PALM MUTED OR P.M......) 

    Gtr I
|--------------------------------|
|--------------------------------|
|--------------------------------|
|--------------------------------|
|-1p0-1p0-1p0-1---1p0-1p0-1p0-1--|
|-1p0-1p0-1p0-1---1p0-1p0-1p0-1- |

P.M.................................................................
|-----------------|-----------------|----------------|----------------|
|-----------------|-----------------|----------------|----------------|
|-----------------|-----------------|----------------|----------------|
|-----------------|-----------------|----------------|----------------|
|-1-0-1-0-1-0-1-0-|-1-0-1-0-1-0-1-0-|-1-0-1-0-1-0-1--|-1-0-1-0-1-0-1--|
|-1-0-1-0-1-0-1-0-|-1-0-1-0-1-0-1-0-|-1-0-1-0-1-0-1--|-1-0-1-0-1-0-1--|


   Verse 1 and 2
                                                                       3x
|------------------|---------10----|-----------------|---------10-----|
|------------------|---------------|-----------------|----------------|
|------------------|---------------|-----------------|----------------|
|------------------|---------------|-----------------|----------------|
|------------------|---------------|-----------------|----------------|
|--5/--8\--3/--7\--|-1/--5\--------|-5/--8\--3/--7\--|-1/--5\---------|


   Pre-Chorus 1 and 2
    PM--------------------------------------------------------------
|----------------------------------|----------------------------------|
|----------------------------------|----------------------------------|
|----------------------------------|----------------------------------|
|----------------------------------|----------------------------------|
|----------------------------------|----------------------------------|
|--5-5-5-5-8-8-8-8-3-3-3-3-7-7-7-7-|-1-1-1-1-5-5-5-5-0-0-0-0-0-0-0-0--|


                                                           
  PM----------------------------------------------|
|---------------------------------|-----------------10----------|
|---------------------------------|-----------------------------|
|---------------------------------|-----------------------------|X2
|---------------------------------|-----------------------------|
|---------------------------------|-----------------------------|
|-5-5-5-5-8-8-8-8-3-3-3-3-7-7-7-7-|-1-1-1-1-5-5-5-5-------------|


   Chorus 2
|-----------------|-----------------|
|-----------------|-----------------|
|-----------------|-----------------| X2
|-----------------|-----------------|
|--1p0-1p0-1p0-1--|-1p0-1p0-1p0-1---|
|--1p0-1p0-1p0-1--|-1p0-1p0-1p0-1---|


  PM-----------------------------------------------------------------
|-----------------|-----------------|----------------|----------------|
|-----------------|-----------------|----------------|----------------|
|-----------------|-----------------|----------------|----------------|
|-----------------|-----------------|----------------|----------------|
|-1-0-1-0-1-0-1-0-|-1-0-1-0-1-0-1-0-|-1-0-1-0-1-0-1--|-1-0-1-0-1-0-1--|
|-1-0-1-0-1-0-1-0-|-1-0-1-0-1-0-1-0-|-1-0-1-0-1-0-1--|-1-0-1-0-1-0-1--|

      Note:you will propally get lost in this solo


   Guitar Solo
PM-------------------------------------------------
|--------------------------|-------------------------|
|-------------13-----------|-------------13----------|
|--15-14----------15-14----|-15-14----------15-14----|X2
|--------15-12----------15-|-------15-12----------15-|
|--------------------------|-------------------------|
|--------------------------|-------------------------|


P.M -------------------------------------------------
|-------------------------|---------------------------|
|-------------13----------|-------------13------------|
|-15-14----------15-14----|-15-14----------15-14------| X2
|-------15-12----------15-|-------15-12----------15---|
|-------------------------|---------------------------|
|-------------------------|---------------------------|


|-------------------|-------------------------|
|-------------------|-------------13----------|
|-15-14-12----15----|-15-14----------15-14----|
|-------12-------12-|-------15-12----------15-|
|-------------------|-------------------------|
|-------------------|-------------------------|


|-------------------------|---------------------|
|-------------------------|---------------------|
|-15-15-15-15-15-17-17-17-|-17-19-19-20-19-17---|
|-12-12-------------------|---------------------|
|-------------------------|---------------------|
|-------------------------|---------------------|


|-----------------------|-------------------------|
|-----------------------|-13----------------------|
|-14-14-14-15--14-------|----15-14----15-14-------|
|-----------------15-12-|----------15-------15-12-|
|-----------------------|-------------------------|
|-----------------------|-------------------------|


|-------------------------|-------------------------|
|-13----------------------|-13----------------------|
|----15-14----15-14-------|----15-14----15-14-------|
|----------15-------15-12-|----------15-------15-12-|
|-------------------------|-------------------------|
|-------------------------|-------------------------|


|-------------------|-------------------------|
|-------------------|-------------13----------|
|-15-14-12----15----|-15-14----------15-14----|
|-------12-------12-|-------15-12----------15-|
|-------------------|-------------------------|
|-------------------|-------------------------|


|-------------------------|---------------------|
|-------------------------|---------------------|
|-15-15-15-15-15-17-17-17-|-17-19-19-20--19-17--|
|-12-12-------------------|---------------------|
|-------------------------|---------------------|
|-------------------------|---------------------|


|---------------------|---------------------------|
|---------------------|---------------13----------|
|-14-14-14-15--14--15-|-(15)-14----------15-14----|
|---------------------|---------15-12----------15-|
|---------------------|---------------------------|
|---------------------|---------------------------|


|-------------------------|-------------------------|
|-------------------------|-------------------------|
|-15-15-15-14-14-14-15-15-|-15-15-15-14-14-14-15-15-|
|-12-12-12-12-12-12-12-12-|-12-12-12-12-12-12-12-12-|
|-------------------------|-------------------------|
|-------------------------|-------------------------|


|-------------------------|-------------------------|
|-------------------------|-------------------------|
|-15-15-15-14-14-14-15-15-|-15-15-15-14-14-14-15-15-|
|-12-12-12-12-12-12-12-12-|-12-12-12-12-12-12-12-12-|
|-------------------------|-------------------------|
|-------------------------|-------------------------|


|-------------------------|-------------------------|
|-------------------------|-------------------------|
|-15-15-15-14-14-14-15-15-|-15-15-15-14-14-14-15-15-|
|-12-12-12-12-12-12-12-12-|-12-12-12-12-12-12-12-12-|
|-------------------------|-------------------------|
|-------------------------|-------------------------|


   Chorus 3
|-----------------|-----------------|
|-----------------|-----------------|
|-----------------|-----------------|
|-----------------|-----------------|
|--1p0-1p0-1p0-1--|-1p0-1p0-1p0-1---|
|--1p0-1p0-1p0-1--|-1p0-1p0-1p0-1---|


  PM-----------------------------------------------------------------
|-----------------|-----------------|----------------|----------------|
|-----------------|-----------------|----------------|----------------|
|-----------------|-----------------|----------------|----------------|
|-----------------|-----------------|----------------|----------------|
|-1-0-1-0-1-0-1-0-|-1-0-1-0-1-0-1-0-|-1-0-1-0-1-0-1--|-1-0-1-0-1-0-1--|
|-1-0-1-0-1-0-1-0-|-1-0-1-0-1-0-1-0-|-1-0-1-0-1-0-1--|-1-0-1-0-1-0-1--|


   Outro
    PM-----------------------------------------------------------------
|------------------|----------------|-----------------|------------------|
|------------------|----------------|-----------------|------------------|
|------------------|----------------|-----------------|------------------|X2
|------------------|----------------|-----------------|------------------|
|-1-0-1-0-1-0-1-0-|-1-0-1-0-1-0-1--|-1-0-1-0-1-0-1-0-|-1-0-1-0-1-0-1-----|
|-1-0-1-0-1-0-1-0-|-1-0-1-0-1-0-1--|-1-0-1-0-1-0-1-0-|-1-0-1-0-1-0-1-----|
 
Jet Pilot

Tuning:Drop D,Down 1 step (C,G,C,F,A,D)

Intro/Chorus          ALL SONG (W/DIST)      Note:work the song order out            
                                             and you will be right
|-----------------------------------------------------|
|-----------------------------------------------------|             
|-----------------------------------------------------|
|-0000-8-0000-8-0000-8-0000-8-0000-8-0000-0000-8-0000-|             
|-0000-8-0000-8-0000-8-0000-8-0000-8-0000-0000-8-0000-|               
|-0000-8-0000-8-0000-8-0000-8-0000-8-0000-0000-8-0000-|
                 
Riff 2                                                     
|-----------------------|
|-----------------------|                                  
|-----------------------|                                 
|---3-2-1-0-1-0h1p0-----|                                
|-0-----------------3-1-|
|-----------------------|                                 
                                                             
Riff 3                   Riff 4              Riff 5                
|--------------|     |-----------------|     |---|
|--------------|     |-----------------|     |---|
|--------------|     |-----------------|     |---|
|-7-8-7-8-7--5-|     |-7-8-7-8-7-5-5-5-|     |-7-|
|-7-8-7-8-7--5-|     |-7-8-7-8-7-5-5-5-|     |-7-|
|-7-8-7-8-7--5-|     |-7-8-7-8-7-5-5-5-|     |-7-|
      

P.M..................................................
|---------------------------------------------------|
|---------------------------------------------------|
|---------------------------------------------------|
|---3-5-7-8-7-10-8-12-10-14-12-14-12-10-8-12-10-8-7-|
|-0-------------------------------------------------|
|---------------------------------------------------|
                              
X

Tuning:Drop D,Down 1 step (C,G,C,F,A,D)  ALL SONG (W/DIST)


INTRO: (palm mute, gradually release)
|---------------------------------|
|---------------------------------|
|-5-7-8-7-5-7-8-7-5-7-8-7-5-7-8-7-|
|---------------------------------|
|---------------------------------|
|---------------------------------|

MAIN RIFF:
|------------------------------------------------|
|------------------------------------------------|
|----------------8/10-10-------------------------|
|-0--0--0-0--0-0-9/11-11--0-0--0--0-0--0-0-5/8-8-|
|-0--0--0-0--0-0----------0-0--0--0-0--0-0-3/6-6-|
|-0--0--0-0--0-0----------0-0--0--0-0--0-0-------|

VERSE: (palm mute during first half of verse, release second)
|---------------------------------|
|---------------------------------|
|---------------------------------|
|---------------------------------|
|-3-5-6-5-3-5-6-5-3-5-6-5-3-5-6-5-|
|---------------------------------|

INTERLUDE: (all palm muted)
|-----------------------------------------------|
|-----------------------15^---15^-----------15^-|
|-----------------------------------------------|
|----------0--0--0-0--0-----0-----0--0-0--0-----|
|-3-5-6-5--0--0--0-0--0-----0-----0--0-0--0-----|
|----------0--0--0-0--0-----0-----0--0-0--0-----|


CHOP SUEY

 Tuning:Drop D,Down 1 step (C,G,C,F,A,D) 
 
Gtr.1 (play for all 4 bars)

clean 9x on each chord on the intro (acou)
|-------------|
|-------------|
|-5--7--4--2--|
|-7--9--5--4--|
|-0--0--0--0--|
|-------------|
Gtr.2

(w/dist)  (overdub on 2nd bar of the intro) 
p.m................................................ 
|---------------------------------------------------| 
|---------------------------------------------------| 
|-5---5---5----7---7---7----4---4---4---2---2---2---|
|---7---7---7----9---9---9----5---5---5---4---4---4-| 
|---------------------------------------------------|
|---------------------------------------------------|

Gtr.2 also plays this riff on the 3rd bar and 4th) (w/dist)
|-------------------------------------------------------------| 
|-------------------------------------------------------------| 
|-------------------------------------------------------------| 
|-----55---55---5---77--77--7---44---44---4----22---22---2----| 
|---7----7----7---9---9---9---5----5----5----4----4----4------| 
|-------------------------------------------------------------| 

 (overdub on 3rd and 4th bar bar of the intro) also used later) (clean)
|----------------------------------------------------------------| 
|-13-15-12--17---18--15--18--------------------------------------| 
|--x--x--x---x----x---x---x--------------------------------------| 
|-10-12--9--14---15--12--15--------------------------------------| 
|----------------------------------------------------------------| 
|----------------------------------------------------------------| 

(w/dist)
|------------------------------------------------------------------------------| 
|------------------------------------------------------------------------------| 
|------------------------------------------------------------------------------| 
|------------------------------------------------------------------------------| X2
|-8-7-8-7-8-7-8-7-7-6-7-6-7-6-7-6-10-9-10-9-10-9-10-9--12-11-12-11-12-11-12-11-| 
|-8-7-8-7-8-7-8-7-7-6-7-6-7-6-7-6-10-9-10-9-10-9-10-9--12-11-12-11-12-11-12-11-| 


|------------------------------------------------------------------------------| 
|------------------------------------------------------------------------------| 
|------------------------------------------------------------------------------| X2
|------------------------------------------------------------------------------| 
|------------------------------------------------------------------------------| 
|-77777777-66666666-99999999-1212121212121212----------------------------------| 


|------------------------------------------------------------| 
|------------------------------------------------------------| 
|------------------------------------------------------------| 
|------------------------------------------------------------| X4
|--8-7---8-7-8-7-8-7-8-7--7-6-----7-6-7-6-7-6-7-6-7-6--------| 
|--8-7---8-7-8-7-8-7-8-7--7-6-----7-6-7-6-7-6-7-6-7-6--------| 

(w/dist) (all palm muted) 
|------------------------------------------------------------------------------| 
|------------------------------------------------------------------------------| 
|-5----5----5----------7---7---7-------4---4----4------2---2----2--------------|
|-7-------7----7-------9-----9---9-----5------5---5----4------4---4------------| X2
|-0--------------------0---------------0---------------0-----------------------| 
|------------------------------------------------------------------------------| 


(w/dist)
|------------------------------------------------------------------------------| 
|------------------------------------------------------------------------------| 
|------------------------------------------------------------------------------| 
|------------------------------------------------------------------------------| X2
|-8-7-8-7-8-7-8-7-7-6-7-6-7-6-7-6-10-9-10-9-10-9-10-9--12-11-12-11-12-11-12-11-| 
|-8-7-8-7-8-7-8-7-7-6-7-6-7-6-7-6-10-9-10-9-10-9-10-9--12-11-12-11-12-11-12-11-| 

   (FATHER! FATHER! FATHER! FATHER!)

        (ALL PALM MUTED)
|------------------------------------------------------------------------------|
|------------------------------------------------------------------------------|
|------------------------------------------------------------------------------|
|------------------------------------------------------------------------------| X2
|-8-7-8-7-8-7-8-7-7-6-7-6-7-6-7-6-10-9-10-9-10-9-10-9--12-11-12-11-12-11-12-11-| 
|-8-7-8-7-8-7-8-7-7-6-7-6-7-6-7-6-10-9-10-9-10-9-10-9--12-11-12-11-12-11-12-11-|

 (Father into your hands)

|------------------------------------------------------------------------------| 
|------------------------------------------------------------------------------| 
|------------------------------------------------------------------------------| X2
|------------------------------------------------------------------------------| 
|------------------------------------------------------------------------------| 
|-77777777-66666666-99999999-1212121212121212----------------------------------| 

  (forsaken me)
                  (w/dist)
distortion 
|-------------------------------------------------------------------------------| 
|-------------------------------------------------------------------------------| 
|-------------------------------------------------------------------------------|X6
|--------7---10---5---10--------------------------------------------------------|
|--------7----8---3----8--------------------------------------------------------|
|--------7----------------------------------------------------------------------|

  (when angels deserve to die)
                                (w/dist)
|-----------------|
|-----------------|
|-3-3-3-3-3-3-3---|
|-2-2-2-2-2-2-2---|
|-0-0-0-0-0-0-0---|
|-----------------|

BOUNCE

Tuning:Drop D,Down 1 step (C,G,C,F,A,D) ALL SONG (W/DIST) EXEPT FOR THE VERSE

CHORUS: Main intro
|------------------------------|
|------------------------------|
|------------------------------|
|-8--7-7-8-8-7-7-8-7-7-8-8--8--|
|-8--7-7-8-8-7-7-8-7-7-8-8--8--|
|-8--7-7-8-8-7-7-8-7-7-8-8--8--|
(w/dist)

VERSE: palm mute
|----------------------------------------|
|----------------------------------------|
|----------------------------------------|
|----------------------------------------|
|-13-12-13--13-12-13--13-12-13--13-12-13-|
|----------------------------------------|

|----------------------------------------|
|----------------------------------------|
|----------------------------------------|
|----------------------------------------|
|-12-11-12--12-11-12--12-11-12--12-11-12-|
|----------------------------------------|

VERSE 2:
|-----------------------------------------------------|
|-----------------------------------------------------|
|-----10-----10-----10-----10-----9-----9-----9-----9-|
|---12-----12-----12-----12-----11----11----11----11--|
|-12-----12-----12-----12-----11----11----11----11----|
|-----------------------------------------------------|

Part 1:
|-------------------------------------|
|-------------------------------------|
|---10---10---10---10---9---9---9---9-|
|-8----8----8----8----7---7---7---7---|
|-------------------------------------|
|-------------------------------------|

Part 2:
|----------------------------|
|----------------------------|
|----------------------------|
|-8-8-0--8-8-0--8-8-0--8-8-0-|
|-8-8-0--8-8-0--8-8-0--8-8-0-|
|-8-8-0--8-8-0--8-8-0--8-8-0-|

Part 3:
|-----------------------------------------------------|
|-----------------------------------------------------|
|-----10-----10-----10-----10-----9-----9-----9-----9-|
|------8------8------8------8-----7-----7-----7-----7-|
|-0-0----0-0----0-0----0-0----0-0---0-0---0-0---0-0---|
|-0-0----0-0----0-0----0-0----0-0---0-0---0-0---0-0---|
Palm mute all

Part 4: (palm mute)
|------------------------------------------------------------|
|------------------------------------------------------------|
|------------------------------------------------------------|
|------------------------------------------------------------|
|------------------------------------------------------------|
|-8-8-0--8-8-0--8-8-0--8-8-0--8-7-12--8-7-12--8-7-12--8-7-12-|

Outro: Palm Mute
|------------------------------------------------------------|
|------------------------------------------------------------|
|------------------------------------------------------------|
|----7--7--7--5--5--5--3--3--3--2--2-------------------------|
|----7--7--7--5--5--5--3--3--3--2--2-------------------------|
|----5--5--5--3--3--3--1--1--1--0--0-------------------------|



FORESTS

Tuning:Drop D,Down 1 step (C,G,C,F,A,D) ALL SONG (W/DIST)

Intro

     Gtr I
PM-------------------------------------------------------
|-------------------------------|--------------------------|
|-------------------------------|--------------------------|
|-------------------------------|--------------------------|
|-0-0-0-0-0-0-0-0-0-0-0-0-0-0-0-|-1-1-1-1-1-1-1-1-1-1-1-1--|
|-------------------------------|--------------------------|
|-------------------------------|--------------------------|


  PM--------------------------------------------------------
|-------------------------------|-----------------------------|
|-------------------------------|-----------------------------|
|-------------------------------|-----------------------------|
|-2-2-2-2-2-2-2-2-2-2-2-2-2-2-2-|-3-3-3-3-3-3-3-3-3-3-3-3-3-3-|
|-------------------------------|-----------------------------|
|-------------------------------|-----------------------------|


  PM------------------------------------------------------
|-----------------------------|-----------------------------|
|-----------------------------|-----------------------------|
|-----------------------------|-----------------------------|
|-0-0-0-0-0-0-0-0-0-0-0-0-0-0-|-1-1-1-1-1-1-1-1-1-1-1-1-1-1-|
|-----------------------------|-----------------------------|
|-----------------------------|-----------------------------|


  PM------------------------
|-----------------------------|-----------------------------|
|-----------------------------|-6-6-6-6-6-6-6-6-6-6-6-6-6-6-|
|-----------------------------|-4-4-4-4-4-4-4-4-4-4-4-4-4-4-|
|-2-2-2-2-2-2-2-2-2-2-2-2-2-2-|-3-3-3-3-3-3-3-3-3-3-3-3-3-3-|
|-----------------------------|-----------------------------|
|-----------------------------|-----------------------------|


|-----------------|-----------------|-----------------|-----------------|
|-----------------|-----------------|-----------------|-----------------|
|-----------------|-----------------|-----------------|-----------------|
|-0-0-6-4-0-0-6-4-|-0-0-6-4-0-0-6-4-|-0-0-4-6-0-0-4-6-|-0-0-4-6-0-0-4-6-|
|-0-0-6-4-0-0-6-4-|-0-0-6-4-0-0-6-4-|-0-0-4-6-0-0-4-6-|-0-0-4-6-0-0-4-6-|
|-0-0-6-4-0-0-6-4-|-0-0-6-4-0-0-6-4-|-0-0-4-6-0-0-4-6-|-0-0-4-6-0-0-4-6-|


PM-----------------| PM------------------|  PM----------------|
|-------------------|-------------------|--------------------|
|-------------------|-------------------|--------------------|
|-------------------|-------------------|--------------------|
|-0--0-6-4-0--0-6-4-|-0--0-6-4-0--0-6-4-|-0--0-4-6-0--0-4-6--|
|-0--0-6-4-0--0-6-4-|-0--0-6-4-0--0-6-4-|-0--0-4-6-0--0-4-6--|
|-0--0-6-4-0--0-6-4-|-0--0-6-4-0--0-6-4-|-0--0-4-6-0--0-4-6--|


                       1st, 2nd Verses
                    
 PM------------------------------------------------------|
|-------------------||----------------------------------|          
|-------------------||o---------------------------------|    
|-------------------||------------------6-6-6-6-7-7-7-7-|         
|-0--0-4-6-0--0-4-6-||----------4-4-4-4-----------------|      
|-0--0-4-6-0--0-4-6-||o-5-5-5-5-------------------------|
|-0--0-4-6-0--0-4-6-||----------------------------------|


PM--------------------------------|  PM---------------|  PM-----------|
|---------------------------------|-------------------|--------------------|
|---------------------------------|-------------------|--------------------|
|-----------------7-7-7-7-8-8-8-8-|-------------------|--------------------|
|---------5-5-5-5-----------------|-0--0-6-4-0--0-6-4-|-0--0-6-4-0--0-6-4--|
|-6-6-6-6-------------------------|-0--0-6-4-0--0-6-4-|-0--0-6-4-0--0-6-4--|
|---------------------------------|-0--0-6-4-0--0-6-4-|-0--0-6-4-0--0-6-4--|


  

  PM--------------------------------------------------------------|
|---------------------------------|---------------------------------|
|---------------------------------|---------------------------------|
|-----------------7-7-7-7-8-8-8-8-|-----------------8-8-8-8-9-9-9-9-|
|---------5-5-5-5-----------------|---------6-6-6-6-----------------|
|-6-6-6-6-------------------------|-7-7-7-7-------------------------|
|---------------------------------|---------------------------------|


    PM PM---------------|  PM----------------
|-------------------|--------------------||
|-------------------|-------------------o||
|-------------------|--------------------||
|-0--0-4-6-0--0-4-6-|-0--0-4-6-0--0-4-6--||
|-0--0-4-6-0--0-4-6-|-0--0-4-6-0--0-4-6-o||
|-0--0-4-6-0--0-4-6-|-0--0-4-6-0--0-4-6--||


  2.
 ----------------------------------|
|--------------------------------------|
|--------------------------------------|
|-----------------9-9-9-9-10-10-10-10--|
|---------7-7-7-7----------------------|
|-8-8-8-8------------------------------|
|--------------------------------------|


  PM------------------------------------------------------------------------|
|-----------------------------------------|-----------------|------------------|
|-----------------------------------------|-----------------|------------------|
|-----------------10-10-10-10-11-11-11-11-|-----7-------7---|-----8-------8----|
|---------8-8-8-8-------------------------|---5---5---5---5-|---6---6---6---6--|
|-9-9-9-9---------------------------------|-6-------6-------|-7-------7--------|
|-----------------------------------------|-----------------|------------------|


                                    Chorus
                                       PM------------|
|-----------------|--------------||----------------|---------------|
|-----------------|--------------||o---------------|---------------|
|-----9-------9---|--------------||----------------|---------------|
|---7---7---7---7-|--------------||--0--0-(0)----0-|-1--1-(1)----1-|
|-8-------8-------|--------------||o-0--0-(0)----0-|-1--1-(1)----1-|
|-----------------|-8-10-8-7-5-4-||--0--0-(0)----0-|-1--1-(1)----1-|


     
                            4x
|-----------|---------------||-----------------|
|-----------|--------------o||-----------------|
|-----------|---------------||-----------------|
|-5--5------|---------------||-0-0-6-4-0-0-6-4-|
|-5--5------|--------------o||-0-0-6-4-0-0-6-4-|
|-5--5------|-8-10-8-7-5-4--||-0-0-6-4-0-0-6-4-|


                                        
|-----------------|-----------------|-----------------||
|-----------------|-----------------|-----------------||
|-----------------|-----------------|-----------------||
|-0-0-6-4-0-0-6-4-|-0-0-4-6-0-0-4-6-|-0-0-4-6-0-0-4-6-||
|-0-0-6-4-0-0-6-4-|-0-0-4-6-0-0-4-6-|-0-0-4-6-0-0-4-6-||
|-0-0-6-4-0-0-6-4-|-0-0-4-6-0-0-4-6-|-0-0-4-6-0-0-4-6-||



                                            PM------------------|
|-------------|-------------|-------------|-----------------------|
|-------------|-------------|-------------|-----------------------|
|-------------|-------------|-------------|-----------------------|
|-------------|-------------|-------------|-0-0--0-6-4-0-0--0-6-4-|
|-------------|-------------|-------------|-0-0--0-6-4-0-0--0-6-4-|
|-8-8-8-8-7-5-|-8-8-8-8-7-5-|-8-8-8-8-7-5-|-0-0--0-6-4-0-0--0-6-4-|


  
  PM------------------------------------------------------------------|
|-----------------------|-----------------------|------------------------|
|-----------------------|-----------------------|------------------------|
|-----------------------|-----------------------|------------------------|
|-0-0--0-6-4-0-0--0-6-4-|-0-0--0-4-6-0-0--0-4-6-|-0-0--0-4-6-0-0--0-4-6--|
|-0-0--0-6-4-0-0--0-6-4-|-0-0--0-4-6-0-0--0-4-6-|-0-0--0-4-6-0-0--0-4-6--|
|-0-0--0-6-4-0-0--0-6-4-|-0-0--0-4-6-0-0--0-4-6-|-0-0--0-4-6-0-0--0-4-6--|


                                PM------------------|
|-------------|-------------||-------------------------||-------------|
|-------------|-------------||o-----------------------o||-------------|
|-------------|-------------||-------------------------||-------------|
|-------------|-------------||--0-0--0-6-4-0-0--0-6-4--||-------------|
|-------------|-6-6-6-6-5-3-||o-0-0--0-6-4-0-0--0-6-4-o||-------------|
|-8-8-8-8-7-5-|-------------||--0-0--0-6-4-0-0--0-6-4--||-8-8-8-8-7-5-|


                                
                                PM------------------|
|-------------|-------------||-------------------------||-------------|
|-------------|-------------||o-----------------------o||-------------|
|-------------|-------------||-------------------------||-------------|
|-------------|-------------||--0-0--0-6-4-0-0--0-6-4--||-------------|
|-6-6-6-6-5-3-|-8-8-8-8-6-5-||o-0-0--0-6-4-0-0--0-6-4-o||-8-8-8-8-6-5-|
|-------------|-------------||--0-0--0-6-4-0-0--0-6-4--||-------------|


|-----------------|------------------|
|-----------------|------------------|
|-----------------|------------------|
|-----------------|------------------|
|-10-10-10-10-8-7-|-11-11-11-11-10-8-|
|-----------------|------------------|
                        PM--------------------|
                                                 4x
|-------------------||---------------------------||
|-------------------||o-------------------------o||
|-------------------||---------------------------||
|-------------------||---------------------------||
|-13-13-13-13-11-10-||o-0-0--0-0-0-0-0-0--0-0---o||
|-------------------||--0-0--0-0-0-0-0-0--0-0----||


 3rd Verse
             PM------------------------------------------------|
|---------|-----------------|-----------------|-----------------|
|---------|-----------------|-----------------|-----------------|
|---------|-----6-------6---|-----7-------7---|-----8-------8---|
|---------|---4---4---4---4-|---5---5---5---5-|---6---6---6---6-|
|---------|-5-------5-------|-6-------6-------|-7-------7-------|
|---------|-----------------|-----------------|-----------------|


  PM-------------------------------------------------
|-----------------|---------------------------------|
|-----------------|---------------------------------|
|-----9-------9---|---------6-6-------------6-6-----|
|---7---7---7---7-|-----4-4-----4-4-----4-4-----4-4-|
|-8-------8-------|-5-5-------------5-5-------------|
|-----------------|---------------------------------|


 
------------------------------------|
|-----------------------------------|
|-----------------------------------|
|---------7-7-------------7-7-------|
|-----5-5-----5-5-----5-5-----5-5---|
|-6-6-------------6-6---------------|
|-----------------------------------|


                                                    Chorus
                                                     
|---------------------------------|--------------||-----------------|
|---------------------------------|--------------||o----------------|
|---------8-8-------------8-8-----|--------------||-----------------|
|-----6-6-----6-6-----6-6-----6-6-|--------------||--0--0-(0)----0--|
|-7-7-------------7-7-------------|--------------||o-0--0-(0)----0--|
|---------------------------------|-8-10-8-7-5-4-||--0--0-(0)----0--|


  
                                                   PM----------------------|
|---------------|-----------|---------------||-||-----------------------------|
|---------------|-----------|--------------o||-||o----------------------------|
|---------------|-----------|---------------||-||-----------------------------|
|-1--1-(1)----1-|-5--5------|---------------||-||-----------------------------|
|-1--1-(1)----1-|-5--5------|--------------o||-||o-0-0--0-0-0-0-0-0--0-0-0-0--|
|-1--1-(1)----1-|-5--5------|-8-10-8-7-5-4--||-||--0-0--0-0-0-0-0-0--0-0-0-0--|



  PM--------------------------------------------------|
|---------------------------|---------------------------|
|---------------------------|---------------------------|
|---------------------------|---------------------------|
|---------------------------|---------------------------|
|-1-1--1-1-1-1-1-1--1-1-1-1-|-5-5--5-5-5-5-5-5--5-5-5-5-|
|-1-1--1-1-1-1-1-1--1-1-1-1-|-5-5--5-5-5-5-5-5--5-5-5-5-|

|---------------||------*|
|--------------o||------*|
|---------------||------*|
|---------------||-0----*|
|--------------o||-0----*|
|-8-10-8-7-5-4--||-0----*|


ATWA

Tuning:Drop D,Down 1 Step (C,G,C,F,A,C)

Intro: (clean)
|--------|--------|---------|---------|-----------|---------|---------|--------|
|--------|--------|---------|---------|-----------|---------|---------|--------|
|--------|--------|---------|---------|-----------|---------|---------|--------|
|----8---|----7---|----10---|----12---|-----13----|----12---|----10---|----8---|
|--------|--------|---------|---------|-----------|---------|---------|--------|
|-5----5-|-3----3-|-7-----7-|-8-----8-|-10-----10-|-8-----8-|-7-----7-|-5----5-|
                                                                         
  (w/dist)
|-----------------|
|-----------------|
|-----------------|
|-5-5-5-5-5-5-5---|
|-5-5-5-5-5-5-5---|
|-5-5-5-5-5-5-5---|
                                                              
               (w/dist)
|--------|--------|---------|---------|-----------|---------|---------|--------|
|--------|--------|---------|---------|-----------|---------|---------|--------|
|--------|--------|---------|---------|-----------|---------|---------|--------|
|----8---|----7---|----10---|----12---|-----13----|----12---|----10---|----8---|
|-5----5-|-3----3-|-7-----7-|-8-----8-|-10-----10-|-8-----8-|-7-----7-|-5----5-|
|-5----5-|-3----3-|-7-----7-|-8-----8-|-10-----10-|-8-----8-|-7-----7-|-5----5-|
                                                                              

|------------------|
|------------------|
|------------------|
|-5---5---5---5-6--|
|-5---5---5---5-6--|
|-5---5---5---5-6--|

SIENCE

Tuning:Drop D,Down 1 Step (C,G,C,F,A,C) ALL SONG (W/Slight/dist)


Intro/Verse
D|-10--------------------10---------------------10------------10-|
A|---------------------------------------------------------------|
F|---------------------------------------------------------------|
C|---------------------------------------------------------------|
G|---------------------------------------------------------------|
C|---0-0-000-0-0-000-000----0-0-000-0-0-000-000----0-0-000-00----|
(cont.)
D|------------10-----10-----10-----10----|
A|---------------------------------------|
F|---------------------------------------|
C|---------------------------------------|
G|---------------------------------------|
C|-0-0-000-00----0-0----0-0----0-0----0-0|

Chorus Riff
D|---------------------------------------------------------------|
A|---------------------------------------------------------------|
F|---------------------------------------------------------------|
C|-3--0-0-0-0-0-0--3--0-0-0-0-0-0--3-0-0-0-0-0-0------0-1-3-1-0--|
G|-3--0-0-0-0-0-0--3--0-0-0-0-0-0--3-0-0-0-0-0-0--1-3------------|
C|-3--0-0-0-0-0-0--3--0-0-0-0-0-0--3-0-0-0-0-0-0-----------------|

Bridge/Interlude 1
D|-------------------------------------------|
A|---8-10-11---8-10-11---8-10-11-13-11-10-11-|
F|-7---------7---------7---------------------|
C|-------------------------------------------|
G|-------------------------------------------|
C|-------------------------------------------|

Post Chorus
D|----------------------|
A|----------------------|
F|----------------------|
C|-0-2-3------0-1-3-1-0-|
G|-0-2-3--1-3-----------|
C|-0-2-3----------------|


SHIMMY

Tuning:Drop D,Down 1 Step (C,G,C,F,A,C)
                                                ALL SONG (W/DIST)
Intro:

|------------------|
|------------------|
|------------------|
|-3-2-0-2-3-2-0-2--|
|-3-2-0-2-3-2-0-2--|
|-3-2-0-2-3-2-0-2--|
 

|----------|---------|
|----------|---------|
|----------|---------|
|--3-2-2-2-|-7-6-6-6-|
|--3-2-2-2-|-7-6-6-6-|
|--3-2-2-2-|-7-6-6-6-|
                                                                         

|-----------------|---------|-------------------|
|-----------------|---------|-------------------|
|-----------------|---------|-------------------|
|-----------------|---------|-------------------|
|-----------------|---------|-7-8-7-5-3-2-0-----|
|-3-2-0-2-3-2-0-2-|-3-2-0-2-|---------------6---|
                            fisrt and third times                             

|-----------------------|
|-----------------------|
|-----------------------|
|-----6-7-6h7p6---------|
|-7-8-----------8-7-5---|
|-----------------------|
 second time                                                                  

|--------------------------------------|
|--------------------------------------|
|--------------------------------------|
|-----6-7-6h7p6------------------------|
|-7-8-----------8-7-5-7-5-3-2-3-2-0----|
|-----------------------------------6--|
 last time                                                                    

|---------|
|---------|
|---------|
|-2----6--|
|-2----6--|
|-2----6--|
 chorus   

|----|
|----|
|----|
|-0--|
|-0--|
|-0--|
                                                       

|------------------|
|------------------|
|------------------|
|------------------|
|-7-8-7-5-3-2-0----|
|---------------6--|

TOXICITY

Tuning:Drop D,Down 1 step (C,G,C,F,A,D) 

Intro:             ALL OTHHER PARTS ARE IN DISTORTION EXEPT FOR THE INTRO/VERSE

|---5---5---5---5---5---5-----8---8---8---8---8---8----------------------------|
|-3---3---3---3---3---3-----6---6---6---6---6---6------------------------------|
|------------------------------------------------------------------------------|
|------------------------------------------------------------------------------|
|------------------------------------------------------------------------------|
|------------------------------------------------------------------------------|

|---5---5---5---6---6--5---5---8---10---10--8---8---6---6----------------------|
|-3---3---3---3---3------3---6---6----6-------6---6---6------------------------|
|------------------------------------------------------------------------------|
|------------------------------------------------------------------------------|
|------------------------------------------------------------------------------|
|------------------------------------------------------------------------------|
                                                      
                      
Chorus:   (Play twice then play..................this part once X2)          s
really fast. 
|------------------------------------------|-----------------------------------|
|------------------------------------------|-----------------------------------|
|------------------------------------------|-----------------------------------|
|-0-----3-2-0-2-0----8--8-8-8---7--7-7-7---|----0-0-0-0-3--0-0-0-0-3-----------|
|-0-----3-2-0-2-0----8--8-8-8---7--7-7-7-x2|----0-0-0-0-3--0-0-0-0-3-----------|
|-0-----3-2-0-2-0----8--8-8-8---7--7-7-7---|----0-0-0-0-3--0-0-0-0-3-----------|
                                                                              
(then this once)
|------------------------------------------------------------------------------|
|------------------------------------------------------------------------------|
|------------------------------------------------------------------------------|
|-8--8-8-8--7--7-7-7-----0------3-2-0-2-0----8--8-8-8--7--7-7-7----------------|
|-8--8-8-8--7--7-7-7-----0------3-2-0-2-0----8--8-8-8--7--7-7-7----------------|
|-8--8-8-8--7--7-7-7-----0------3-2-0-2-0----8--8-8-8--7--7-7-7----------------|
                                                                              
Then do Intro part 3 times, then chorus again, then Intro part 3 times then chorus again,
then play this cool riff 4 times.

|------------------------------|
|------------------------------|
|------------------------------|
|------------------------------|
|------------------------------|
|-12--12-12-12-12-15-12-14^----|          
                                                                
 Then comes this sic that you play twice
|----------------------------------------------------|
|----------------------------------------------------|
|----------------------------------------------------|
|-0-0-0-3--0-0-0-3--0-0-0-3--0-0-0-3--0-0-0-3--------|
|-0-0-0-3--0-0-0-3--0-0-0-3--0-0-0-3--0-0-0-3--------|
|-0-0-0-3--0-0-0-3--0-0-0-3--0-0-0-3--0-0-0-3--------|
                                                                              
After that play this riff 4 times
|-------------------------|
|-------------------------|
|-------------------------|
|-0--0-0-0-0--3-2-0-------|
|-0--0-0-0-0--3-2-0-------|
|-0--0-0-0-0--3-2-0-2^----|
                                                                              
then the sic riff and end with this 4 times
 
|------------------|
|------------------|
|------------------|
|-0--0-0-3-0-------|
|-0--0-0-3-0-------|
|-0--0-0-3-0-2^----|


PSYCHO

Tuning: Drop D, Down 1 Step (C,G,C,F,A,D)

        Key:   {^ bend 1 step up} { h hammer on  }  { p pull off}
          
ALL SONG (W/DIST) EXEPT VERSE AND SOLO

INTRO: (play first part twice and then once for 2nd part)
|-----------------------------------------------------------------------------------|
|-12-X-12-X-12-X-12-X-12-X-12-X-12-X-12-X-10-X-10-X-10-X-10-X-10--X-10-X-10-X-10----|
|-----------------------------------------------------------------------------------|
|-----------------------------------------------------------------------------------|
|-----------------------------------------------------------------------------------|
|-----------------------------------------------------------------------------------|

|---------------------------------------------------|
|-13^(keep picking and grad. bend up)---------------|   (Don't brake you string like i did!)
|---------------------------------------------------|
|---------------------------------------------------|
|---------------------------------------------------|
|---------------------------------------------------|

 PSYCHO! GROUPIE! COCAINE! CRAZY!
|--------------------|
|--------------------|
|--------------------|
|-22--22--22--22-----|
|-22--22--22--22-----|
|-22--22--22--22-----|

CHORUS:(makes you high makes you high)
|------------------------------------------------------------|
|------------------------------------------------------------|
|-------------------------------------------------------(go)-|
|--2-3-2-3-2-3-2-3-2-3-2-3-2-3-2-3-2-3-2-3-2-3-2-3--------2--|
|--2-3-2-3-2-3-2-3-2-3-2-3-2-3-2-3-2-3-2-3-2-3-2-3--------2--|
|--2-3-2-3-2-3-2-3-2-3-2-3-2-3-2-3-2-3-2-3-2-3-2-3--------2--|



first time
|--------|
|--------|
|--------|
|-5---10-|
|-5---10-|
|-3----8-|

Second time
|--------------------|
|--------------------|
|--------------------|
|-5---10---7---5---7-|
|-5---10---7---5---7-|
|-3----8---5---3---5 |

VERSE:  (Clean)
|------------------------------------------------------|
|-10-10-10-10-10-10-10---10--10-12-13-13^-13-12-13--10-|
|-X--X--X--X--X--X--X----------------------------------|
|-7--7--7--7--7--7--7----------------------------------|
|------------------------------------------------------|
|------------------------------------------------------|

|-----------------------|
|-10-10-10-10-10-10-----|
|-X--X--X--X--X--X------|
|-7--7--7--7--7--7------|
|-----------------------|
|-----------------------|

SOLO:
|-----------------------------------------------------|
|-12--10-12-13--12-13-12------12-----------------12---|
|--------------------------14------14-13-13h14--------|
|-----------------------------------------------------|
|-----------------------------------------------------|
|-----------------------------------------------------|

|---------------12-------------------------------------------------|
|-10-12---10-12-----13-12p13---------------------------------------|
|-------------------------------------14^-14^----14-13-13----------|
|------------------------------------------------------------------|
|------------------------------------------------------------------|
|------------------------------------------------------------------|

|-----------------------------------|
|-----------------12----------------|
|-13-14-13--13-14----14-13-14----14-|
|-----------------------------14----|
|-----------------------------------|
|-----------------------------------|

Note: On this second part of the solo i'm not sure how many times you hit these notes so hit
      them as many times as it sounds right to you.  But this is just gives you the
      rough idea.

|--------------------------------------------------------------|
|-12-12-12-12-12-12-10-12-13-13-13-12-13-12--------------------|
|--------------------------------------------14-14-14-14-14-14-|
|--------------------------------------------------------------|
|--------------------------------------------------------------|
|--------------------------------------------------------------|

|-------------------------------------------------------------------|
|-12----------------12-12-12-12-12-12-12-10-12-12-12-12-12-12-10-12-|
|-----14-13-13h14---------------------------------------------------|
|-------------------------------------------------------------------|
|-------------------------------------------------------------------|
|-------------------------------------------------------------------|

|-12-12-12----------------------------------------------------------|
|------------13-13p12---------------------12-------------------10---|
|---------------------14-14-14-14-14-14------14--13--13h14----------|
|-------------------------------------------------------------------|
|-------------------------------------------------------------------|
|-------------------------------------------------------------------|

AERIALS

Tuning: Drop D, Down 1 Step (C,G,C,F,A,D)         Key: {/ slide}
                                            
ALL SONG (W/DIST) EXEPT FOR INTRO/VERSE AND THESE COOL OCTAVES

Note: If you are in a band and have a few guitar players these octave version
      sound cool overdubed in the heavy breakdown.

|---------------------------------------------------------------------------|
|---------------------------------------------------------------------------|
|-10-9-7---12-10-9--10-12-14-15-14-12--10-9-7-------------------------------|
|---------------------------------------------------------------------------|
|-8--7-5---10-8--7--8--10-12-13-12-10--8--7-5-------------------------------|
|---------------------------------------------------------------------------|

Intro:          

|---------------------------------------------------------------------------|
|---------------------------------------------------------------------------|
|---------------------------------------------------------------------------|
|------0------0------0------0------0---------0------0------0------0------0--|
|----0------0------0------0------0---------0------0------0------0------0----|
|--3------2------0------0------0------0--5------3------2------2------2------|

|------------------------------------------------------------------------------|
|------------------------------------------------------------------------------|
|------------------------------------------------------------------------------|
|---------0------0------0------0----0----0------0------0------0------0------0--|
|-------0------0------0------0----------------0------0------0------0------0----|
|-----3------5------7------8------7----5----3------2------0------0------0------|

|-----------------------------------------------------------------------------------|
|-----------------------------------------------------------------------------------|
|-----------------------------------------------------------------------------------|
|----------0-------0------0------0------0-----------0-------0------0------0------0--|
|--------0-------0------0------0------0-----------0-------0------0------0------0----|
|----12------10------7------7------7---------14------10------7------7------7--------|

|---------------------------------------------------------------------------------------|
|---------------------------------------------------------------------------------------|
|---------------------------------------------------------------------------------------|
|----------0-------0-------0-------0----0-------0---------0-------0-------0-----0----0--|
|--------0-------0-------0-------0---------------------0-------0-------0-----0-----0----|
|-----12------14------15------17------15----14------12------10-----12----12----12-------|
                                     
Chorus:   (strum aprox 13x times on this chord)
|----|
|----|
|----|
|-8--|
|-8--|
|-8--|
                                                                    

|--------------------------------------------|
|--------------------------------------------|
|----------12---------10--------9---------7--|
|--------------------------------------------|
|----------10---------8---------7---------5--|
|--0-0-0-0----0-0-0-0---0-0-0-0---0-0-0-0----|
                                                             
 Note: Use the octaves here
|---------------------------------------------|
|---------------------------------------------|
|---------------------------------------------|
|-3-2-0-0-0-0--5-3-2-2-2-2--3-5-7-8-7-5---12/-|
|-3-2-0-0-0-0--5-3-2-2-2-2--3-5-7-8-7-5---12/-|
|-3-2-0-0-0-0--5-3-2-2-2-2--3-5-7-8-7-5---12/-|
                                       
End with the verse twice
comments
print report bad tab
18 comments total. Showing first comments.
0 reply
datwasntmythumb wrote on April 22 2002, 12:00 am

I dont want to bash you to hard because you went through all that trouble to write the whole album....but IT SUCKS. I HAVENT SEEN A WORSE TAB IN MY LIFE. That will be all. thank you.

0 reply
VaYnE wrote on April 22 2002, 12:00 am

damn dude! this sh*t is f*cked up!! i can say the best tabs in this is chop suey i agree with him all the way! and dear dance...maybe.....but the rest look crap,psycho has a chunk missing out from the solo!!!! and so does ATWA!! cant u see there is no solo!! and forest sounds right!! dude u should have tried harder on most of the other songs too....cuz to me u only got 3 to 5 songs right!!! anyway i realy think u tried....caugh caugh caugh copied it from the other tabs caugh caugh caugh! not so good but i think chop suey can cover the whole album!!

0 reply
HatchetFL wrote on April 22 2002, 12:00 am

hahahha

I want to post or [tab]
guest
You may want to rate the tab now too:
select rating
Please do not post tabs as comments. Select "correction" instead!