Oops, an error
Loading. Please wait.

Red White And Bullet Blues Tab

1,937 views 1 this week
no commentswrite comment
1 2 3 4 5
please rate
Autoscroll
+/-
esc
set tempo
stop
Contributor
Difficulty
intermediate
Hey! There's an official Ultimate Guitar app which is ideal
for learning songs when you're away from computer. Get the app
WARNING: You are trying to view
                                    content from Ultimate-Guitar.com
                                    in an unauthorized application,
                                    which is prohibited.

                                    Please use an official Ultimate
                                    Guitar Tabs application for iPhone,
                                    iPad or Android to access legitimate
                                    chords, guitar, bass, and drum tabs
                                    from Ultimate-Guitar.com database.

                                    Type "ultimate guitar tabs" in Apple
                                    App Store's or Android Market's
                                    search to find the application.
-------------------------------------------------------------------------------
Red, White and Bullet Blues - Tak Matsumoto Group
-------------------------------------------------------------------------------

B'z / Tak Matsumoto Group official website: 

http://bz-vermillion.com/tmg/top/index.html

Tabbed by: Andy (yalaki)
Email: yalaki@hotmail.com

Tuning: down half a tone

I love a couple of the riffs in this song ("Shot down, playground..." and "Come on, come on...")

This sounds generaly quite accurate, except in particular in the phrases "Blame it on the daddy...".
Any suggestions for making this bit sound better would be appreciated! EMail me at yalaki@hotmail.com

Any wrong notes/chords, questions, requests, anything: yalaki@hotmail.com

The solo is a bit poor - I lack effects he uses and one part Tak plays it way too fast!



Intro Riff: (repeat once, ie play it twice)

Gently
eb|---------------------------|
Bb|o-----8----5----8----10---o|
Gb|------7----4----7----9-----|
Db|------5----2----5----7-----|
Ab|o-------------------------o|
Eb|---------------------------|


Heavy (Play twice - note the two circles at the beginning and end of each phrase to be repeated)

eb|-------------------------------------------------|
Bb|o------------------------------------------------|
Gb|--------------------------------4-7--4-----------|
Db|--5--2---5--2----5--7----5--2-----------5--------|
Ab|o-5--2---5--2----5--7----5--2--------------7-----|
Eb|--3--0---3--0----3--5----3--0--------------0-----|
			      Let low Eb ring

eb|-------------------------------------------------|
Bb|-------------------------------------------5----o|
Gb|--------------------------------4-7--4-----4-----|
Db|--5--2---5--2----5--7----5--2-----------5--------|
Ab|--5--2---5--2----5--7----5--2-------------------o|
Eb|--3--0---3--0----3--5----3--0--------------------|
			      Let low Eb ring


"He's a young..."

Gently		   Play 4 times
eb|---------------------------|
Bb|o-----8----5----8----10---o|
Gb|------7----4----7----9-----|
Db|------5----2----5----7-----|
Ab|o-------------------------o|
Eb|---------------------------|

"Blame it on the daddy..."

eb|-------------------|--------------------|
Bb|-------------------|--------------------|
Gb|---2/4-4-2/4-4-4-4-|---2/4-4-7\4-4-4-4--|
Db|---0-2-2-0-2-2-2-2-|---0-2-2-5\2-2-2-2--|
Ab|---0-2-2-0-2-2-2-2-|---0-2-2-5\2-2-2-2--|
Eb|-------------------|--------------------|

eb|-------------------|--------------------|
Bb|-------------------|-------------10-----|
Gb|---2/4-4-2/4-4-4-4-|---2/4-4--7--9------|
Db|---0-2-2-0-2-2-2-2-|---0-2-2--5--7------|
Ab|---0-2-2-0-2-2-2-2-|---0-2-2--5--7------|
Eb|-------------------|--------------------|



eb|---------------------------------------------------|
Bb|---------------------------------------------------|
Gb|---------------------------------------------------|
Db|--------------4-5~----------------------4-5~-------|
Ab|---7-7----5-7------7-5-7-----7-7----5-7--------7---|
Eb|---0-0-----------------------0-0-------------------|


"Come on, come on, come on..."

eb|------------------------------------------------------------|
Bb|------------------------------------------------------------|
Gb|------------------------------------------------------------|
Db|--------------4-5~----------------------4-5~---7-7-7-7-7-7--|
Ab|---7-7----5-7------7-5-7-----7-7----5-7--------5-5-5-5-5-5--|
Eb|---0-0-----------------------0-0---------------5-5-5-5-5-5--|


"Shot down, playground..."

eb|-------------------------------------------------|
Bb|-------------------------------------------------|
Gb|--------------------------------4-7--4-----------|
Db|--5--2---5--2----5--7----5--2-----------5--------|
Ab|--5--2---5--2----5--7----5--2--------------7-----|
Eb|--3--0---3--0----3--5----3--0--------------0-----|
			      Let low Eb ring

eb|-------------------------------------------------|
Bb|-------------------------------------------5-----|
Gb|--------------------------------4-7--4-----4-----|
Db|--5--2---5--2----5--7----5--2-----------5--------|
Ab|--5--2---5--2----5--7----5--2--------------------|
Eb|--3--0---3--0----3--5----3--0--------------------|
			      Let low Eb ring


"God-given right to kill..."

eb|----------------------------------------------------|
Bb|---------------------------------3------------------|
Gb|---------5---7-------------------0---------5----7---|
Db|---7-----5---7-----5--2---5--2-------5-----5----7---|
Ab|---7-----3---5-----5--2---5--2-------5-----3----5---|
Eb|---5---------------3--0---3--0-------3--------------|

All stop suddenly, except guitar which plays a slight variation on the intro:

Gently
eb|---------------------------|-------------------------|
Bb|------8----5----8----10\9--|----8----5----8----10----|
Gb|------7----4----7----9-----|----7----4----7----9-----|
Db|------5----2----5----7-----|----5----2----5----7-----|
Ab|---------------------------|-------------------------|
Eb|---------------------------|-------------------------|

"The white mansion on the mountain..."

eb|------------------------------------|-------------------------|
Bb|------8----5----8----10-8h10p8------|----8----5----8----10----|
Gb|------7----4----7----9---------9----|----7----4----7----9-----|
Db|------5----2----5----7--------------|----5----2----5----7-----|
Ab|------------------------------------|-------------------------|
Eb|------------------------------------|-------------------------|

"Just another day in the Wild, wild west..."

eb|---------------------------|
Bb|------8----5----8----10----|
Gb|------7----4----7----9-----|
Db|------5----2----5----7-----|
Ab|---------------------------|
Eb|---------------------------|


"Blame it on the daddy..."

eb|---------------------|--------------------|
Bb|---------------------|--------------------|
Gb|-----2/4-4-2/4-4-4-4-|---2/4-4-7\4-4-4-4--|
Db|-7\--0-2-2-0-2-2-2-2-|---0-2-2-5\2-2-2-2--|
Ab|-7\--0-2-2-0-2-2-2-2-|---0-2-2-5\2-2-2-2--|
Eb|---------------------|--------------------|

eb|-------------------|--------------------|
Bb|-------------------|--------------------|
Gb|---2/4-4-2/4-4-4-4-|---2/4-4--7--9------|
Db|---0-2-2-0-2-2-2-2-|---0-2-2--5--7------|
Ab|---0-2-2-0-2-2-2-2-|---0-2-2--5--7------|
Eb|-------------------|--------------------|

You might like to add a fifth in a couple of places in the next phrase.
Otherwise it may sound a little too low pitched (?).


eb|---------------------------------------------------|
Bb|---------------------------------------------------|
Gb|---------------------------------------------------|
Db|--------------4-5~----------------------4-5~-------|
Ab|---7-7----5-7------7-5-7-----7-7----5-7--------7---|
Eb|---0-0-----------------------0-0-------------------|


"Come on, come on, come on..."

eb|------------------------------------------------------------|
Bb|------------------------------------------------------------|
Gb|------------------------------------------------------------|
Db|--------------4-5~----------------------4-5~---7-7-7-7-7-7--|
Ab|---7-7----5-7------7-5-7-----7-7----5-7--------5-5-5-5-5-5--|
Eb|---0-0-----------------------0-0---------------5-5-5-5-5-5--|

"Shot down, playground..."

Play twice,

eb|-------------------------------------------------|
Bb|o------------------------------------------------|
Gb|--------------------------------4-7--4-----------|
Db|--5--2---5--2----5--7----5--2-----------5--------|
Ab|o-5--2---5--2----5--7----5--2--------------7-----|
Eb|--3--0---3--0----3--5----3--0--------------0-----|
			      Let low Eb ring

eb|-------------------------------------------------|
Bb|-------------------------------------------5----o|
Gb|--------------------------------4-7--4-----4-----|
Db|--5--2---5--2----5--7----5--2-----------5--------|
Ab|--5--2---5--2----5--7----5--2-------------------o|
Eb|--3--0---3--0----3--5----3--0--------------------|
			      Let low Eb ring


"...on the 10 o'clock news..."

eb|-------------------------------------------------------|
Bb|---------------------------------3---------------------|
Gb|---------5---7-------------------0---------5----7------|
Db|---7-----5---7-----5--2---5--2-------5-----5----7---2--|
Ab|---7-----3---5-----5--2---5--2-------5-----3----5---2--|
Eb|---5---------------3--0---3--0-------3--------------0--|


***********
Guitar Solo
***********

The solo is very roughly as follows:

eb|---------------------------------------------------------------------------|
Bb|--18/20----18/20----18/20----18/20----18/20----18/20-----------------------|
Gb|--------18-------18-------18-------18-------18-------18--------------------|
Db|----------------------------------------------------------15b17-14~--------|
Ab|---------------------------------------------------------------------------|
Eb|---------------------------------------------------------------------------|


eb|---------------------------------------------------------------------------|
Bb|--------------------------------(16)pb17-17-17-17-17-17-17~----------------|
Gb|--(15)pb16-16-16-16-16-16-16~----------------------------------------------|
Db|-----------------------------------------------------------------14--------|
Ab|---------------------------------------------------------------------------|
Eb|---------------------------------------------------------------------------|


eb|---------------------------------------------------------------------------|
Bb|---------------------------------------------------------------------------|
Gb|--12b13-9--11b13-9--11b13-9~---12b13~--9---11b13-9--11b13-9~---------------|
Db|---------------------------------------------------------------------------|
Ab|---------------------------------------------------------------------------|
Eb|---------------------------------------------------------------------------|


eb|---------------------------------------------------------------------------|
Bb|---------------------------------------------------------------------------|
Gb|--11b13----------------------------------------------9-11-9--11b12-11~-----|
Db|----------something way too fast--------------10---------------------------|
Ab|----------------------------------------10-12-----12-----------------------|
Eb|-------------------------------------10------------------------------------|



Rhythm Guitar:

Play five times,

eb|-------------------------------------------------|
Bb|o------------------------------------------------|
Gb|--------------------------------4-7--4-----------|
Db|--5--2---5--2----5--7----5--2-----------5--------|
Ab|o-5--2---5--2----5--7----5--2--------------7-----|
Eb|--3--0---3--0----3--5----3--0--------------0-----|
			      Let low Eb ring

				       Play 5 times
eb|-------------------------------------------------|
Bb|-------------------------------------------5----o|
Gb|--------------------------------4-7--4-----4-----|
Db|--5--2---5--2----5--7----5--2-----------5--------|
Ab|--5--2---5--2----5--7----5--2-------------------o|
Eb|--3--0---3--0----3--5----3--0--------------------|
			      Let low Eb ring

"...on the 10 o'clock news..."

eb|-----------------------------------------------------------|
Bb|---------------------------------3-------------------------|
Gb|---------5---7-------------------0--------------5----7-----|
Db|---7-----5---7-----5--2---5--2-------5----10\---5----7-----|
Ab|---7-----3---5-----5--2---5--2-------5----10\---3----5-----|
Eb|---5---------------3--0---3--0-------3---------------------|
				       hold


eb|-------------------------------------------------|
Bb|-------------------------------------------------|
Gb|--------------------------------4-7--4-----------|
Db|--5--2---5--2----5--7----5--2-----------5--------|
Ab|--5--2---5--2----5--7----5--2--------------7-----|
Eb|--3--0---3--0----3--5----3--0--------------0-----|
			      Let low Eb ring

eb|-------------------------------------------------|
Bb|-------------------------------------------5-----|
Gb|--------------------------------4-7--4-----4-----|
Db|--5--2---5--2----5--7----5--2-----------5--------|
Ab|--5--2---5--2----5--7----5--2--------------------|
Eb|--3--0---3--0----3--5----3--0--------------------|
			      Let low Eb ring
"Shot down"

eb|-------------------------------------------------|
Bb|-------------------------------------------------|
Gb|--------------------------------4-7--4-----------|
Db|--5--2---5--2----5--7----5--2-----------5--------|
Ab|--5--2---5--2----5--7----5--2--------------7-----|
Eb|--3--0---3--0----3--5----3--0--------------0-----|
			      Let low Eb ring

"Big noise"

eb|-------------------------------------------------|
Bb|-------------------------------------------------|
Gb|--------------------------------4-7--4-----------|
Db|--5--2---5--2----5--7----5--2-----------5--------|
Ab|--5--2---5--2----5--7----5--2--------------------|
Eb|--3--0---3--0----3--5----3--0--------------------|
			      Let low Eb ring


eb|-------------------------------------||
Bb|-------------------------------------||
Gb|-------------------------------------||
Db|--------------4-5~-------------------||
Ab|---7-7----5-7------7-5-7-----7-7-----||
Eb|---0-0-----------------------0-0-----||









| /  slide up
| \  slide down
| h  hammer-on
| p  pull-off
| ~  vibrato
| +  harmonic
| x  Mute note
| b  bend note
| r  releast bend
| (15)pb16  play note on 16th fret, prebent from 15th fret
===============================================================================
comments
We did not receive enough feedback on this tab! Please rate:
print report bad tab
1 2 3 4 5
I want to post or [tab]
guest
You may want to rate the tab now too:
select rating
Please do not post tabs as comments. Select "correction" instead!