Oops, an error
Loading. Please wait.

Crayons Tab

75 views 1 this week
no commentswrite comment
1 2 3 4 5
please rate
Autoscroll
+/-
esc
set tempo
stop
Contributor
Difficulty
Tuning
intermediate
D A D G B E
WARNING: You are trying to view
                                    content from Ultimate-Guitar.com
                                    in an unauthorized application,
                                    which is prohibited.

                                    Please use an official Ultimate
                                    Guitar Tabs application for iPhone,
                                    iPad or Android to access legitimate
                                    chords, guitar, bass, and drum tabs
                                    from Ultimate-Guitar.com database.

                                    Type "ultimate guitar tabs" in Apple
                                    App Store's or Android Market's
                                    search to find the application.
    e|-----------------------------|
    b|---------7-------------8-----|
GTR G|-----------------------------|
 1  D|-----4-----4-------4-----4---|
    A|---5---5-----5---5---5-----5-|
    D|-0-------------0-------------|

    e|---------------------------|
    b|----------7/10\8-----------|
GTR G|---------------------------|
 2  D|---------------------------|
    A|---------------------------|
    D|---------------------------|

    e|-------7-----------------|
    b|-----------------5-----2-|
GTR G|---7-----7---------------|
 1  D|-9---9-----9-------------|
    A|-------------5/7---0h4---|
    D|-------------------------|

    e|-------------------------|
    b|-7-----------5-----------|
GTR G|-------------------6-----|
 2  D|-------------------------|
    A|-------------------------|
    D|-------------------------|

Play above x4

    e|----------------------|
    b|-/slow slide-7----7---|
GTR G|----------------------|
 1  D|----------------------|
    A|----------------------|
    D|----------------------|

    e|------------------------|
    b|------------------------|
GTR G|----------------9-9-9-9-|
1+2 D|-2-2------------5-5-5-5-|
    A|-2-2------------7-7-7-7-|
    D|-2-2--------------------|

    e|-------------------------------------------------------|
    b|-------------------------------------------------------|
GTR G|-------7-7-7-------7-7-7-------7-7-7-12-12-12-12-12-12-|
1+2 D|-2-2-2-4-4-4-2-2-2-4-4-4-2-2-2-4-4-4-9--9--9--9--9--9--| x2
    A|-2-2-2-5-5-5-2-2-2-5-5-5-2-2-2-5-5-5-10-10-10-10-10-10-|
    D|-2-2-2-------2-2-2-------2-2-2-------------------------|

    e|----------------------------------------------------|
    b|----------------------------------------------------|
GTR G|-12121212-7777-12121212-7777-12121212-7777-99999999-|
1+2 D|----------------------------------------------------|
    A|-10101010-5555-10101010-5555-10101010-5555-77777777-|
    D|----------------------------------------------------|

    e|-------------------------------------------------|
GTR b|-------------------------------------------------|
1+2 G|-1212-1111-77-1212-1111-77-1212-1111-99-55555555-|
    D|-------------------------------------------------|
    A|-1010-9-9--55-1010-9-9--55-1010-9-9--77-33333333-|
    D|-------------------------------------------------|

    e|--------------|
    b|--------------|
GTR G|--------------|
 1  D|--------------| x4
    A|-0-0-0-0000-0-|
    D|-0-0-0-0000-0-|
       PMP M PMPMPM

    e|--------------|
    b|--------------|
GTR G|--------------|
1+2 D|--------------| x3
    A|-0-0-0-0000-0-|
    D|-0-0-0-0000-0-|
       PMP M PMPMPM

    e|---------|
    b|---------|
GTR G|---------|
1+2 D|---------| 
    A|-0-0-0-0-|
    D|-0-0-0-0-|
       P M P M 

    e|------------------------------------------------------------|
    b|------------------------------------------------------------|
GTR G|-9/11------9/11------9/11----9/11------9/11------9/11/12\12-|
1+2 D|------------------------------------------------------------| 1,3,5,7
    A|-7/9--0000-7/9--0000-7/9--00-7/9--0000-7/9--0000-7/9/10\9---|
    D|------0000------0000------00------0000------0000------------|
            PMPM      PMPM      PM      PMPM      PMPM

    e|---------------------------------------------------------|
    b|---------------------------------------------------------|
GTR G|-9/11------9/11------9/11----9/11------9/11------7-7-7-7-|
1+2 D|---------------------------------------------------------| 2,4,6,8
    A|-7/9--0000-7/9--0000-7/9--00-7/9--0000-7/9--0000-5-5-5-5-|
    D|------0000------0000------00------0000------0000---------|
            PMPM      PMPM      PM      PMPM      PMPM

    e|--------------------------------------------------------------|
    b|--------------------------------------------------------------|
GTR G|-7-7-7-7-7-7-7-7-7-7-7-66-6-6-7-7-7-7-7-7-7-11-12-11-14-12-11-|
1+2 D|-7-7-7-7-7-7-7----------------7-7-7-7-7-7-7-------------------|
    A|-5-5-5-5-5-5-5-5-5-5-5-44-4-4-5-5-5-5-5-5-5-9--10-9--12-10-9--|
    D|-5-5-5-5-5-5-5----------------5-5-5-5-5-5-5-------------------|

    e|--------------------------------------------------------------|
    b|--------------------------------------------------------------|
GTR G|-7-7-7-7-7-7-7-6-6-6-6-66-6-6-7-7-7-7-7-7-7-11-12-11-14-12-11-|
1+2 D|-7-7-7-7-7-7-7----------------7-7-7-7-7-7-7-------------------|
    A|-5-5-5-5-5-5-5-4-4-4-4-44-4-4-5-5-5-5-5-5-5-9--10-9--12-10-9--|
    D|-5-5-5-5-5-5-5----------------5-5-5-5-5-5-5-------------------|

    e|------------------------|
    b|------------------------|
GTR G|----------------9-9-9-9-|
1+2 D|-2-2------------5-5-5-5-|
    A|-2-2------------7-7-7-7-|
    D|-2-2--------------------|

    e|-------------------------------------------------------|
    b|-------------------------------------------------------|
GTR G|-------7-7-7-------7-7-7-------7-7-7-12-12-12-12-12-12-|
1+2 D|-2-2-2-4-4-4-2-2-2-4-4-4-2-2-2-4-4-4-9--9--9--9--9--9--| x2
    A|-2-2-2-5-5-5-2-2-2-5-5-5-2-2-2-5-5-5-10-10-10-10-10-10-|
    D|-2-2-2-------2-2-2-------2-2-2-------------------------|

    e|----------------------------------------------------|
    b|----------------------------------------------------|
GTR G|-12121212-7777-12121212-7777-12121212-7777-99999999-|
1+2 D|----------------------------------------------------|
    A|-10101010-5555-10101010-5555-10101010-5555-77777777-|
    D|----------------------------------------------------|

    e|-------------------------------------------------|
GTR b|-------------------------------------------------|
1+2 G|-1212-1111-77-1212-1111-77-1212-1111-99-55555555-|
    D|-------------------------------------------------|
    A|-1010-9-9--55-1010-9-9--55-1010-9-9--77-33333333-|
    D|-------------------------------------------------|

    e|---------------------------------------------------|
    b|-----8------8------8------8---------------------9*-|
GTR G|-----11-----11-----11-----11--------------------9*-|
1+2 D|------------------------------------------------9*-| x4
    A|-0-0----0-0----0-0----0-0----2-2--2-2--2-2--2-2----|
    D|-0-0----0-0----0-0----0-0----2-2--2-2--2-2--2-2----|
       P M    P M    P M    P M    P M  P M  P M  P M

    e|-------------------------------------------------------|
    b|-------------------------------------------------------|
GTR G|-9-9-9-7-7-7-5-5-5-7-7-7-9-9-9-7-7-7-11-11-11-12-12-12-|
 1  D|-5-5-5-4-4-4-2-2-2-4-4-4-5-5-5-4-4-4-7--7--7--9--9--9--|
    A|-7-7-7-5-5-5-3-3-3-5-5-5-7-7-7-5-5-5-9--9--9--10-10-10-|
    D|-------------------------------------------------------|

    e|-------------------------------------------------------|
    b|-------------------------------------------------------|
GTR G|-------------------------------------------------------|
 2  D|-------------------------------------------------------|
    A|-------------------------------------------------------|
    D|--------------------------------------------pick slide-|

    e|-------------------------------------------------------|
    b|-------------------------------------------------------|
GTR G|-9-9-9-7-7-7-5-5-5-7-7-7-9-9-9-7-7-7-11-11-11-12-12-12-|
 1  D|-5-5-5-4-4-4-2-2-2-4-4-4-5-5-5-4-4-4-7--7--7--9--9--9--|
    A|-7-7-7-5-5-5-3-3-3-5-5-5-7-7-7-5-5-5-9--9--9--10-10-10-|
    D|-------------------------------------------------------|

    e|-------------------------------------------------------|
    b|-------------------------------------------------------|
GTR G|-------------------------------------------------------|
 2  D|-2-----------------------------------------------------|
    A|-2-----------------------------------------------------|
    D|-2------------------------------------------pick slide-|

    e|-------------------------------------------------------------------|
    b|-------------------------------------------------------------------|
GTR G|-------------------------------------------------------------------|
1+2 D|-12-12-12-11-11-11-9-9-9-7-7-7-12-12-12-11-11-11-14-14-14-16-16-16-|
    A|-9--9--9--7--7--7--5-5-5-4-4-4-9--9--9--7--7--7--11-11-11-12-12-12-|
    D|-10-10-10-9--9--9--7-7-7-5-5-5-10-10-10-9--9--9--12-12-12-14-14-14-|

    e|-------------------------------------------------------|
    b|-------------------------------------------------------|
GTR G|-------12--11-11-11-11-11-11------7--11-11-11-11-11-11-|
1+2 D|-------9---7--7--7--7--7--7-------4--7--7--7--7--7--7--| x4
    A|-2-2-2-10--9--9--9--9--9--9-5-5-5-5--9--9--9--9--9--9--|
    D|-2-2-2----------------------5-5-5----------------------|
       PMP M                      PMP M

    e|---------|
    b|---------|
GTR G|---------|
1+2 D|---------|
    A|-2-2-2-2-|
    D|-2-2-2-2-|
       P M P M

    e|---------------------------------------------------------|
    b|---------------------------------------------------------|
GTR G|-9-9-999-9-9-9-99-9-12-12--12121212--12--12--12--1212-12-|
1+2 D|---------------------------------------------------------| x2
    A|-7-7-777-7-7-7-77-7-10-10--10-10-10--10--10--10--1010-10-|
    D|---------------------------------------------------------|

    e|---------------------------------------------------------------|
    b|---------------------------------------------------------------|
GTR G|-1212121212121212-14141414-16161616-1212121212121212-777-66-77-|
1+2 D|---------------------------------------------------------------|
    A|-1010101010101010-12121212-14141414-1010101010101010-555-44-55-|
    D|---------------------------------------------------------------|

    e|--------------------------------------------------------------|
    b|--------------------------------------------------------------|
GTR G|-1212121212121212-14141414-16161616---1212121212121212-777777-|
1+2 D|--------------------------------------------------------------|
    A|-1010101010101010-12121212-14141414---1010101010101010-555555-|
    D|--------------------------------------------------------------|

    e|-------------------------------------|
    b|-------------------------------------|
GTR G|-12-11-12-11-12-11-12-11-12-14-14-14-|
1+2 D|-------------------------------------| 1,3
    A|-10-9--10-9--10-9--10-9--10-12-12-12-|
    D|-------------------------------------|

    e|---------------------------------|
    b|---------------------------------|
GTR G|-12-11-12-11-12-11-12-11-7-7-7-7-|
1+2 D|---------------------------------| 2
    A|-10-9--10-9--10-9--10-9--5-5-5-5-|
    D|---------------------------------|

    e|---------------------------------|
    b|---------------------------------|
GTR G|-12-11-12-11-12-11-12-11-----7---|
1+2 D|---------------------------------| 4
    A|-10-9--10-9--10-9--10-9----5-----|
    D|-------------------------0-------|

comments
We did not receive enough feedback on this tab! Please rate:
print report bad tab
1 2 3 4 5
I want to post or [tab]
guest
You may want to rate the tab now too:
select rating
Please do not post tabs as comments. Select "correction" instead!