Oops, an error
Loading. Please wait.

Haven Tab

68 views 1 this week
no commentswrite comment
1 2 3 4 5
please rate
Autoscroll
+/-
esc
set tempo
stop
Contributor
Difficulty
Tuning
intermediate
D A D G B E
Hey! There's an official Ultimate Guitar app which is ideal
for learning songs when you're away from computer. Get the app
WARNING: You are trying to view
                                    content from Ultimate-Guitar.com
                                    in an unauthorized application,
                                    which is prohibited.

                                    Please use an official Ultimate
                                    Guitar Tabs application for iPhone,
                                    iPad or Android to access legitimate
                                    chords, guitar, bass, and drum tabs
                                    from Ultimate-Guitar.com database.

                                    Type "ultimate guitar tabs" in Apple
                                    App Store's or Android Market's
                                    search to find the application.
TAKEN - HAVEN

    E|------------------|
    B|------------------|
GTR G|-7----------------|
 1  D|---8-7-8-10-8-7-8-| x2
    A|------------------|
    D|------------------|

    E|------------------|
    B|------------------|
GTR G|-7----------------|
 1  D|---8-7-8-10-8-7-8-| x2
    A|------------------|
    D|------------------|

    E|--------| 
    B|--------|
GTR G|--------|
 2  D|-0----0-|
    A|-0----0-|
    D|-0----0-|

repeat above x2

    E|------------------|
    B|------------------|
GTR G|-7----------------|
 1  D|---8-7-8-10-8-7-8-| x2
    A|------------------|
    D|------------------|

    E|--------- x3 -----|-----------------|
    B|------------------|-----------------|
GTR G|-7----------------|-10-8-7-8-7------|
 1  D|---8-7-8-10-8-7-8-|------------10-8-|
    A|------------------|-----------------|
    D|------------------|-----------------|

    E|------------------------------------| 
    B|------------------------------------|
GTR G|-3333333333333333-77777777-88888888-|
 2  D|------------------------------------|
    A|-1111111111111111-55555555-6666666--|
    D|------------------------------------|

    E|------- x3 -------|-------------------------|
    B|------------------|-------------------------|
GTR G|-7----------------|-7777-8888-10101010-8888-|
 1  D|---8-7-8-10-8-7-8-|-------------------------|
    A|------------------|-------------------------|
    D|------------------|-------------------------|

    E|------------------------------------| 
    B|------------------------------------|
GTR G|-3333333333333333-77777777-88888888-|
 2  D|------------------------------------|
    A|-1111111111111111-55555555-6666666--|
    D|------------------------------------|

    E|--------- x3 -----|-----------------|
    B|------------------|-----------------|
GTR G|-7----------------|-10-8-7-8-7------|
 1  D|---8-7-8-10-8-7-8-|------------10-8-|
    A|------------------|-----------------|
    D|------------------|-----------------|

    E|------------------------------------| 
    B|------------------------------------|
GTR G|-3333333333333333-77777777-88888888-|
 2  D|------------------------------------|
    A|-1111111111111111-55555555-6666666--|
    D|------------------------------------|

    E|------------------|
    B|------------------|
GTR G|-7----------------|
 1  D|---8-7-8-10-8-7-8-| x4
    A|------------------|
    D|------------------|

    E|------------------------------------| 
    B|------------------------------------|
GTR G|-3333333333333333-77777777-88888888-|
 2  D|------------------------------------|
    A|-1111111111111111-55555555-6666666--|
    D|------------------------------------|

    E|---------------------------------------------------------| 
    B|---------3-------------3-------------3-------------2-----|
GTR G|-------2-----2-------2-----2-------2-----2-------2-----2-|
 1  D|-----4-----4-------4-----4-------4-----4-------4-----4---|
    A|---5-------------5-------------5-------------5-----------|
    D|-0-------------0-------------0-------------0-------------|

    E|-------------------------------------------------------| 
    B|---------3-------------3-------------3-----2--2--2--2--|
GTR G|-------2-----2-------2-----2-------2-----2-2--2--2--2--|
 1  D|-----4-----4-------4-----4-------4-----4---4--4--4--4--|
    A|---5-------------5-------------5-----------5--5--5--5--|
    D|-0-------------0-------------0-------------0--0--0--0--|

    E|-------------------------------------------------------| 
    B|-------------------------------------------2--2--2--2--|
GTR G|-------------------------------------------2--2--2--2--|
 2  D|-------------------------------------------4--4--4--4--|
    A|-------------------------------------------5--5--5--5--|
    D|-------------------------------------------0--0--0--0--|

    E|-----------------------------------------------| 
    B|-------3-3-3-------3-3-3-------3-3-3-------2---|
GTR G|-------2-2-2-------2-2-2-------2-2-2-------2---|
1+2 D|-------4-4-4-------4-4-4-------4-4-4-------4---| x2
    A|-0-0-0-5-5-5-0-0-0-5-5-5-0-0-0-5-5-5-0-0-0-5---|
    D|-0-0-0-------0-0-0-------0-0-0-------0-0-0-----|
       P MPM       P MPM       P MPM       P MPM

    E|-------------------------------------------------| 
    B|-------7-7-7-------8-8-8-------3-3-3-------2-2-2-|
GTR G|-------------------------------2-2-2-------2-2-2-|
1+2 D|-------4-4-4-------5-5-5-------4-4-4-------4-4-4-| x2
    A|-0-0-0-------0-0-0-------0-0-0-5-5-5-0-0-0-5-5-5-|
    D|-0-0-0-------0-0-0-------0-0-0-------0-0-0-------|
       P MPM       P MPM       P MPM       P MPM

    E|-------------------------------------------| 
    B|-------------------------------------------|
GTR G|------------------------------11-9-9-9-7-7-|
1+2 D|-0----------------0-0-0-4-4-4--------------|
    A|-0----------------0-0-0-4-4-4-9--7-7-7-5-5-|
    D|-0----------------0-0-0-4-4-4--------------|

    E|-------------------------------------------------| 
    B|-------------------------------------------------|
GTR G|-------------6-6-6-7-7-7-------------6-6-6-7-7-7-|
1+2 D|-0-0-0-4-4-4-4-4-4-4-4-4-0-0-0-4-4-4-------------| 1
    A|-0-0-0-4-4-4-4-4-4-4-4-4-0-0-0-4-4-4-4-4-4-5-5-5-|
    D|-0-0-0-4-4-4-4-4-4-4-4-4-0-0-0-4-4-4-------------|

    E|--------------------------------------------------| 
    B|--------------------------------------------------|
GTR G|-------------6-6-6-7-7-7-------------11-9-9-9-7-7-|
1+2 D|-0-0-0-4-4-4-4-4-4-4-4-4-0-0-0-4-4-4--------------| 2,4
    A|-0-0-0-4-4-4-4-4-4-4-4-4-0-0-0-4-4-4-9--7-7-7-5-5-|
    D|-0-0-0-4-4-4-4-4-4-4-4-4-0-0-0-4-4-4--------------|

    E|----------------------------------------------------| 
    B|----------------------------------------------------|
GTR G|-------------6-6-6-7-7-7-------------6-6-6-11-11-11-|
1+2 D|-0-0-0-4-4-4-4-4-4-4-4-4-0-0-0-4-4-4----------------| 3
    A|-0-0-0-4-4-4-4-4-4-4-4-4-0-0-0-4-4-4-4-4-4-9--9--9--|
    D|-0-0-0-4-4-4-4-4-4-4-4-4-0-0-0-4-4-4----------------|

    E|----------------------------------------------------| 
    B|----------------------------------------------------|
GTR G|-------------6-6-6-7-7-7-------------9-9-9-11-11-11-|
 1  D|-0-0-0-4-4-4-4-4-4-4-4-4-0-0-0-4-4-4----------------| 1
    A|-0-0-0-4-4-4-4-4-4-4-4-4-0-0-0-4-4-4-7-7-7-9--9--9--|
    D|-0-0-0-4-4-4-4-4-4-4-4-4-0-0-0-4-4-4----------------|

    E|-----------------------------------------------------| 
    B|-----------------------------------------------------|
GTR G|-7-7-7-7-7-7-6-6-6-6-6-6-121212121212-9-9-9-11-11-11-|
 2  D|-----------------------------------------------------| 1
    A|-5-5-5-5-5-5-4-4-4-4-4-4-101010101010-7-7-7-9--9--9--|
    D|-----------------------------------------------------|

    E|-------------------------------------------------| 
    B|-------------------------------------------------|
GTR G|-------------6-6-6-7-7-7-------------9-9-9-9-9-9-|
 1  D|-0-0-0-4-4-4-4-4-4-4-4-4-0-0-0-4-4-4-------------|  2,4
    A|-0-0-0-4-4-4-4-4-4-4-4-4-0-0-0-4-4-4-7-7-7-7-7-7-|
    D|-0-0-0-4-4-4-4-4-4-4-4-4-0-0-0-4-4-4-------------|

    E|-------------------------------------------------| 
    B|-------------------------------------------------|
GTR G|-7-7-7-7-7-7-6-6-6-6-6-6-7-7-7-7-7-7-9-9-9-9-9-9-|
 2  D|-------------------------------------------------| 2,4
    A|-5-5-5-5-5-5-4-4-4-4-4-4-5-5-5-5-5-5-7-7-7-7-7-7-|
    D|-------------------------------------------------|

    E|-------------------------------------------------| 
    B|-------------------------------------------------|
GTR G|-------------6-6-6-7-7-7-------------6-6-6-7-7-7-|
 1  D|-0-0-0-4-4-4-4-4-4-4-4-4-0-0-0-4-4-4-------------| 3
    A|-0-0-0-4-4-4-4-4-4-4-4-4-0-0-0-4-4-4-4-4-4-5-5-5-|
    D|-0-0-0-4-4-4-4-4-4-4-4-4-0-0-0-4-4-4-------------|

    E|-------------------------------------------------------| 
    B|-------------------------------------------------------|
GTR G|-7-7-7-7-7-7-6-6-6-6-6-6-7-7-7-7-7-7-12-12-12-11-11-11-|
 2  D|-------------------------------------------------------| 3
    A|-5-5-5-5-5-5-4-4-4-4-4-4-5-5-5-5-5-5-10-10-10-9--9--9--|
    D|-------------------------------------------------------|

    E|-----------------------------------------------| 
    B|-------3-3-3-------3-3-3-------3-3-3-------2---|
GTR G|-------2-2-2-------2-2-2-------2-2-2-------2---|
1+2 D|-------4-4-4-------4-4-4-------4-4-4-------4---| x2
    A|-0-0-0-5-5-5-0-0-0-5-5-5-0-0-0-5-5-5-0-0-0-5---|
    D|-0-0-0-------0-0-0-------0-0-0-------0-0-0-----|
       P MPM       P MPM       P MPM       P MPM

    E|-------------------------------------------------| 
    B|-------7-7-7-------8-8-8-------3-3-3-------2-2-2-|
GTR G|-------------------------------2-2-2-------2-2-2-|
1+2 D|-------4-4-4-------5-5-5-------4-4-4-------4-4-4-| x2
    A|-0-0-0-------0-0-0-------0-0-0-5-5-5-0-0-0-5-5-5-|
    D|-0-0-0-------0-0-0-------0-0-0-------0-0-0-------|
       P MPM       P MPM       P MPM       P MPM

    E|---------------------------------------| 
    B|---------------------------------------|
GTR G|-7--7-7-7-6-6-6-6-9--9-9-9-11-11-11-11-|
 1  D|-4--4-4-4-4-4-4-4-7--7-7-7-9--9--9--9--|
    A|-5--5-5-5-4-4-4-4-7--7-7-7-9--9--9--9--|
    D|-4--4-4-4-4-4-4-4-7--7-7-7-9--9--9--9--|

    E|---------------------------------------| 
    B|---------------------------------------|
GTR G|-7--7-7-7-6-6-6-6-9--9-9-9-11-11-11-11-|
 1  D|-4--4-4-4-4-4-4-4-7--7-7-7-9--9--9--9--|
    A|-5--5-5-5-4-4-4-4-7--7-7-7-9--9--9--9--|
    D|-4--4-4-4-4-4-4-4-7--7-7-7-9--9--9--9--|

    E|---------------------------------------| 
    B|---------------------------------------|
GTR G|---------------------------------------|
 2  D|-2-------------------------------------|
    A|-2-------------------------------------|
    D|-0-------------------------------------|

    E|--------------------------------------| 
    B|--------------------------------------|
GTR G|-11--11-11-11-7\6-6-6-66-6-6-66-6/7-7-|
1+2 D|--------------------------------------| x6
    A|-9---9--9--9--5\4-4-4-44-4-4-44-4/5-5-|
    D|--------------------------------------|

    E|-------------------------------------------------| 
    B|---------------------7---------------------------|
GTR G|---------------------------------------------6---|
1+2 D|---------------------4-----------------------4---| x4
    A|-0-0-0-0--0-0-0--0-0-----0-0-0-0--0-0-0--0-0-4---|
    D|-0-0-0-0--0-0-0--0-0-----0-0-0-0--0-0-0--0-0-4---|
       P M P M  P MPM  P M     P M P M  P MPM  P M

    E|---------------------------------------------------------------| 
    B|---------------------------------------------------------------|
GTR G|-7-----7-----7-----7-----7-------7-----7-----7-----7-----7-----|
 1  D|---5-4---5-4---5-4---5-4---5-4-----5-4---5-4---5-4---5-4---5-4-| x4
    A|---------------------------------------------------------------|
    D|---------------------------------------------------------------|

    E|-------------------------------------------------| 
    B|-------------------------------------------------|
GTR G|-7-7-7-7-7-7-7-7-7-7-7-7-7-7-7-7-7-7-7-7-7-7-7-7-|
 2  D|-------------------------------------------------| x4
    A|-7-7-7-7-7-7-7-7-7-7-7-7-5-5-5-5-5-5-5-5-5-5-5-5-|
    D|-------------------------------------------------|

    E|-------------------------------------------| 
    B|-------------------------------------------|
GTR G|-7---------7---------7---------7---7-7-7-7-|
1+2 D|-------------------------------------------| x4
    A|-7-0-0-0-0-7-0-0-0-0-7-0-0-0-0-7---5-5-5-5-|
    D|---0-0-0-0---0-0-0-0---0-0-0-0---0---------|
         P M P M   P M P M   P M P M  

    E|----------------------------------------------------| 
    B|----------------------------------------------------|
GTR G|----9------9-----11-----------12--------12----0--0--|
 1  D|--5-----5-5----7-----7-7---9----9--9---------7-7--7-| x3
    A|-7-7---7-7----9-9---9-9--10-10---10---10----9---9---|
    D|----------------------------------------------------|

    E|-----------------------------------------------------------------| 
    B|-----------------------------------------------------------------|
GTR G|-9-999-9999-11-111111-11111111-12-121212-121212-11-111111-111111-|
 2  D|-5-555-5555-7--7-7-7--7-7-7-7--9--9-9-9--9-9-9--7--7-7-7--7-7-7--| x3
    A|-7-777-7777-9--9-9-9--9-9-9-9--10-101010-101010-9--9-9-9--9-9-9--|
    D|-----------------------------------------------------------------|

    E|---------------------------------------------------------------| 
    B|---------------------------------------------------------------|
GTR F|-------9----------9-------11------------------12---------------|
 1  G|---5--------5---5-----7---------7---7----9--------9----9----12-| 
    D|-7---7----7---7-----9---9-----9---9---10---10-------10---10----|
    A|---------------------------------------------------------------|

    E|--------------------------------------------------| 
    B|--------------------------------------------------|
GTR G|-9-999-9999-11-111111-11111111-11-111111-11111111-|
 2  D|-5-555-5555-7--7-7-7--7-7-7-7--9--9-9-9--9-9-9-9--| 
    A|-7-777-7777-9--9-9-9--9-9-9-9--10-101010-10101010-|
    D|--------------------------------------------------|

    E|-------------------------| 
    B|-------------------------|
GTR G|-11-11-11-11-11-11-11-11-|
1+2 D|-7--7--7--7--7--7--7--7--| 
    A|-9--9--9--9--9--9--9--9--|
    D|-------------------------|

    E|-----------------------------------------------------------------| 
    B|-----------------------------------------------------------------|
GTR G|-9-999-9999-7--7-7-7--7-7-7--12-121212-121212-11-111111-11111111-|
1+2 D|-5-555-5555-4--4-4-4--4-4-4--9--9-9-9--9-9-9--7--7-7-7--7-7-7-7--| x2
    A|-7-777-7777-5--5-5-5--5-5-5--10-101010-101010-9--9-9-9--9-9-9-9--|
    D|-----------------------------------------------------------------|

--------------------------------------------------------------------------

    E|-------------------------------------------------| 
    B|-------------------------------------------------|
GTR G|-9-99-9-99-9-99-9-99-9-9-7-77-7-77-7-77-7-77-7-7-|
 1  D|-5-55-5-55-5-55-5-55-5-5-4-44-4-44-4-44-4-44-4-4-| 
    A|-7-77-7-77-7-77-7-77-7-7-5-55-5-55-5-55-5-55-5-5-|
    D|-------------------------------------------------|
         PM   PM   PM   PM       PM   PM   PM   PM

    E|-------------------------------------| 
    B|-------------------------------------|
GTR G|-9---9--9--9---9-9--7--7--7--7---7-7-|
 2  D|---5--5--5--5--5-5---4--4--4--4--4-4-|
    A|----7--7--7--7-7-7----5--5--5--5-5-5-|
    D|-------------------------------------|
         PM PM PM PM       PM PM PM PM

    E|---------------------------------------------------------------| 
    B|---------------------------------------------------------------|
GTR G|-12-1212-12-12-1212-12-1212-12-12-11-1111-11-1111-11-1111-1111-|
 1  D|-9--9-9--9--9--9-9--9--9-9--9--9--7--7-7--7--7-7--7--7-7--7-7--|
    A|-10-1010-10-1010-10-10-1010-10-10-9--9-9--9--9-9--9--9-9--9-9--|
    D|---------------------------------------------------------------|
          PMPM    PMPM       PMPM          P M     P M     P M     

    E|----------------------------------------------------| 
    B|----------------------------------------------------|
GTR G|-12---12---12---12----12-12-11--11--11--11----11-11-|
 2  D|---9----9----9----9---9--9----7---7---7---7---7--7--|
    A|----10---10---10---10-10-10----9---9---9---9--9--9--|
    D|----------------------------------------------------|
         PM   PM   PM   PM          PM  PM  PM  PM  

Play above x2
--------------------------------------------------------------------------

    E|--------------------------------------------------------| 
    B|--------------------------------------------------------|
GTR G|-9---11-9--11-12--11-12--11-9--11-9--11-12--11-12--11-9-|
1+2 D|-5---7--5--7--9---7--9---7--5--7--5--7--9---7--9---7--5-|
    A|-7---9--7--9--10--9--10--9--7--9--7--9--10--9--10--9--7-|
    D|--------------------------------------------------------|
comments
We did not receive enough feedback on this tab! Please rate:
print report bad tab
1 2 3 4 5
I want to post or [tab]
guest
You may want to rate the tab now too:
select rating
Please do not post tabs as comments. Select "correction" instead!