Oops, an error
Loading. Please wait.

Makedamnsure Tab

ver1
ver1

Solo

Whole song

Interactive

More versions @911Tabs.com
36,843 views 36 this week
3 commentsread comments
1 2 3 4 5
accurate
x 2
add to favorites launch autoscroll
font size
0
reset
Autoscroll
+/-
esc
set tempo
stop
Contributor
WARNING: You are trying to view
                                    content from Ultimate-Guitar.com
                                    in an unauthorized application,
                                    which is prohibited.

                                    Please use an official Ultimate
                                    Guitar Tabs application for iPhone,
                                    iPad or Android to access legitimate
                                    chords, guitar, bass, and drum tabs
                                    from Ultimate-Guitar.com database.

                                    Type "ultimate guitar tabs" in Apple
                                    App Store's or Android Market's
                                    search to find the application.
"MakeDamnSure"
Taking Back Sunday

Guitar One:
Verse:
|-------------------------------------------------------------------|x2
|-------------------------------------------------------------------|
|-------------------------------------------------------------1-----|
|-----3-----3-----3-----3-----4-------3-----3-----3-----3---4-------|
|-------1-1---4-4---------2-2-----------1-1---------------2---------|
|-4-4---------------1-1-----------4-4---------3-3---1-1-------------|

Pre-Chorus
|-------------------------18----------------------------21------|x2
|----18----19----18----19----19----18----19----18----19----19---|
|-18----18----18----18----------18----18----18----18------------|
|---------------------------------------------------------------|
|---------------------------------------------------------------|
|---------------------------------------------------------------|
(Last time through don’t play the last note)

Chorus:
|--------------------------------------|x2
|--------------------------------------|
|---------6---------3-------4----------|
|-4-------6---------3-------4----------|
|-4-------4-(x16)---1-(x16)-2-(x16)----|
|-4-(x16)------------------------------|

Verse
Pre-Chorus
Chorus

Breakdown: (clean)
|--------------------------------------------------------------------|
|-7---7---7---7---7---7---7---7---7---7---7---7---7---7---7---7------|
|---8---8---8---8---8---8---8---8---8---8---8---8---8---8---8---8----|
|--------------------------------------------------------------------|
|--------------------------------------------------------------------|
|--------------------------------------------------------------------|

|---------------------------------------------------------------------|
|-7---7---7---7---7---7---7---7---6---6---6---6---6---6---6---6-------|
|---8---8---8---8---8---8---8---8---8---8---8---8---8---8---8---------|
|---------------------------------------------------------------------|
|---------------------------------------------------------------------|
|---------------------------------------------------------------------|

|---------------------------------------------------------------------|
|---------------------------------------------------------------------|
|---8----8----8----8----8----8----8----8---8---8---8---8---8---8---8--|
|11---11---11---11---11---11---11---11---9---9---9---9---9---9---9---9|
|---------------------------------------------------------------------|
|---------------------------------------------------------------------|

(Back to distortion)
|---------------------------------|
|---------------------------------|
|-8-8-8-8-6-6-6-6-4-4-4-4-3-3-3-3-|
|-x-x-x-x-x-x-x-x-x-x-x-x-x-x-x-x-|
|-6-6-6-6-4-4-4-4-2-2-2-2-1-1-1-1-|
|---------------------------------|
(Listen to the song for strumming)

Chorus

Ending:
|-----------------6-------------9--|
|---6---7---6---7---7---6---7---6--|
|-6---6---6---6-------6---6---6-6--|
|----------------------------------|
|----------------------------------|
|----------------------------------|



<<<<Guitar Two:

Verse:
|----------------------------------------------------------------------|
|----------------------------------------------------------------------|
|----------------------------------------------------------------------|
|-4-4-4---------------3-3-3-6-6-6-6-6-----------------4-4-4-4-4-4-4-4--|
|-4-4-4-4-4-4-4-4-4-4-1-1-1-4-4-4-4-4-1-1-1-1-1-1-1-1-2-2-2-2-2-2-2-2--|
|-4-4-4-4-4-4-4-4-4-4-----------------1-1-1-1-1-1-1-1------------------|
        PM...........................................................

|---------------------------------------------------------------------|
|---------------------------------------------------------------------|
|---------------------------------------------------------------------|
|-----------------3-3-3---------------------------3-3-3-4-4-4-4-4-----|
|-4-4-4-4-4-4-4-4-1-1-1-3-3-3-3-3-1-1-1-1-1-1-1-1-1-1-1-2-2-2-2-2-----|
|-4-4-4-4-4-4-4-4-------3-3-3-3-3-1-1-1-1-1-1-1-1---------------------|
PM...............................................................

Pre-Chorus
|---------------------------------|
|---------------------------------|
|-4-------3------6----------------|
|-4-------3------6----------------|
|-2-(x16)-1-(x8)-4-(x8)-----------|
|---------------------------------|

Chorus: Same as Guitar One
Verse
Pre-Chorus
Chorus

Breakdown: (It comes in at the end, listen to the song for strumming in both 
parts.)
|---------------------------------------------------------------------|
|---------------------------------------------------------------------|
|11-----10-10-10-10---------------------------------------------------|
|-x------x--x--x--x---------------------------------------------------|
|-9------8--8--8--8---------------------------------------------------|
|---------------------------------------------------------------------|

|-------------------------------------------------------|x4
|-------------------------------------------------------|
|-16-16-16-16-15-15-15-15-13-13-13-13-11-11-11-11-------|
|--x--x--x--x--x--x--x--x--x--x--x--x--x--x--x--x-------|
|-14-14-14-14-13-13-13-13-11-11-11-11--9--9--9--9-------|
|-------------------------------------------------------|
(There’s a slight variation the last time, but it sounds fine this way.)

Chorusx2
(The second time it starts with a slide)
|--------|
|--------|
|--------|
|-----4--|
|-16\\4--|
|-16\\4--|
comments
We did not receive enough feedback on this tab! Please rate:
print report bad tab
1 2 3 4 5
3 comments total.
0 reply
justin43091 wrote on August 23 2006, 01:31 pm

TUNING!?!?!?!?!?

0 reply
justin43091 wrote on August 23 2006, 01:32 pm

gj copying ver 2

0 reply
im_bored wrote on May 27 2007, 04:14 pm

all he did was change the 'verse' for guitar 2 which is now wrong

I want to post or [tab]
guest
You may want to rate the tab now too:
select rating
Please do not post tabs as comments. Select "correction" instead!