Oops, an error
Loading. Please wait.

Tell All Your Friends Tab

ver2
ver2

Album

More versions @911Tabs.com
12,584 views 6 this week
no commentswrite comment
1 2 3 4 5
excellent!
x 7
add to favorites launch autoscroll
font size
0
reset
Autoscroll
+/-
esc
set tempo
stop
Contributor
WARNING: You are trying to view
                                    content from Ultimate-Guitar.com
                                    in an unauthorized application,
                                    which is prohibited.

                                    Please use an official Ultimate
                                    Guitar Tabs application for iPhone,
                                    iPad or Android to access legitimate
                                    chords, guitar, bass, and drum tabs
                                    from Ultimate-Guitar.com database.

                                    Type "ultimate guitar tabs" in Apple
                                    App Store's or Android Market's
                                    search to find the application.
1. You Know How I Do

Intro/Verse:
e|-----------------------------------------|
B|---0-0-0-0-0-0-0-0-0-0-0-0-0-0-0---------|
G|---4-4-4-4-4-4-4-4-6-6-6-8-8-8-8---------|
D|-----------------------------------------|
A|-----------------------------------------|
E|-----------------------------------------|

Chorus:
e|--------------------------------------|
B|--------------------------------------|
G|-4444444444444444---------------------|
D|-44444444444444442222222222222222-----|
A|-22222222222222222222222222222222-----|
E|-----------------0000000000000000-----|

Bridge:
e|-----------------------------------|
B|-----------------------------------|
G|---4-4-4-4-4-4-2-2-2-2-2-4---------|
D|---4-4-4-4-4-4-2-2-2-2-2-4-2~------|
A|---2-2-2-2-2-2-0-0-0-0-0-2-2~------|
E|---------------------------0~------|

Bass Solo:
e|-------------------------------------------------|
B|-------------------------------------------------|
G|-------------------------------------------------|
D|-------------------------------------------------|
A|--------000000022444444422222440000000000000-----|
E|-000000--------------------------------------420-|

Outro:
e|----------------------------------------------------------------|
B|----------------------------------------------------------------|
G|--------------------------------66666666444444442222222222222222|
D|2222222222222222777777777777777766666666444444442222222222222222|
A|2222222222222222777777777777777744444444222222220000000000000000|
E|00000000000000005555555555555555--------------------------------|

2. Bike Scene

Intro
e|-------------------------------------------------|
B|-------------------------------------------------|
G|-55555--555555/1212121212--1212121212-10---------|
D|-55555--555555/1212121212--1212121212-10---------|
A|-33333--333333/1010101010--1010101010-8----------|
E|-------------------------------------------------|

Verse G1
e|-------------------------------------------------|
B|-------------------------------------------------|
G|-------------------------------------------------|
D|-7777777777777777-55555555-33333333--------------|
A|-7777777777777777-55555555-33333333--------------|
E|-5555555555555555-33333333-11111111--------------|
PM **************** ******** ********

Guitar 2
e|-------------------------------------------------|
B|-------------------------------------------------|
G|---5-4--------------5-4--------------------------|
D|--5----------------5-----------------------------|
A|-0-----------------------------------------------|
E|------------------3------------------------------|

Chorus
E|-------------------------------------------------|
B|-------------------------------------------------|
G|-55555555/77777777/99999999-10101010101010109----|
D|-55555555/77777777/99999999-10101010101010109----|
A|-33333333/55555555/77777777/8-8-8-8-8-8-8-8-7----|
E|-------------------------------------------------|

E|-------------------------------------------------|
B|-------------------------------------------------|
G|-------------------------------------------------|
D|-77777777555555553333333333333-------------------|
A|-77777777555555553333333333333(ring out chord)---|
E|-55555555333333331111111111111-------------------|

2nd Verse
E|-------------------------------------------------|
B|-------------------------------------------------|
G|-55555xxxx5555555/1212121212xxxx12121210101010---|
D|-55555xxxx5555555/1212121212xxxx12121210101010---|
A|-33333xxxx3333333/1010101010xxxx1010108-8-8-8----|
E|-------------------------------------------------|

E|-------------------------------------------------|
B|-------------------------------------------------|
G|-99999xxxx99999/101010-121097/9/1097-------------|
D|-99999xxxx99999/101010-x-x-xx/x/x-xx-------------|
A|-77777xxxx77777/8-8-8--108-75/7/8-75-------------|
E|-------------------------------------------------|

Bridge
E|-------------------------------------------------|
B|-------------------------------------------------|
G|----5-4--------5-4---------5-4--------5-4--------|
D|--5-----5-----5----5-----5-----5----5----5-------|
A|-3-3---------3-3--------0-0-----0--0-0----0------|
E|-------------------------------------------------|

E|---------------------------------------8---------|
B|-------------------------------------6-----------|
G|---10-9-12~----12-10-9-10-9h10-9----5-5----------| 2 Times
D|-------------------------------------------------|
A|-------------------------------------------------|
E|-------------------------------------------------|

E|-------------------------------------------------|
B|-------------------------------------------------|
G|-(5)-4-5-4-5-45-4-5-4-5-45-4-5-4-5-45-4/77777-5--|
D|-------------------------------------------------| 2 Times
A|-------------------------------------------------|
E|-------------------------------------------------|

E|-------------------------------------------------|
B|-------------------------------------------------|
G|-12-10-9-10-9h10-5------12-10-9-10-9h10-5--------|
D|-------------------------------------------------|
A|-------------------------------------------------|
E|-------------------------------------------------|

E|-------------------------------------------------|
B|-------------------------------------------------|
G|-12-10-5-----7-9-10/12---------------------------|
D|-------------------------------------------------|
A|-------------------------------------------------|
E|-------------------------------------------------|

E|-------------------------------------------------|
B|-------------------------------------------------|
G|-55555555555555555555555555555555----------------|
D|-55555555555555555555555555555555----------------|
A|-33333333333333333333333333333333----------------|
E|-------------------------------------------------|

E|-------------------------------------------------|
B|-------------------------------------------------|
G|-------------------------------------------------|
D|-77777777777777777777777777777777----------------|
A|-77777777777777777777777777777777----------------|
E|-55555555555555555555555555555555----------------|

Outro:

E|-------------------------------------------------|
B|-------------------------------------------------|
G|-5---5---5---5---5-------5---5---5---5---5-------|
D|-5---5---5---5---5-------5---5---5---5---5-------|
A|-3---3---3---3---3-------3---3---3---3---3-------|
E|-------------------------------------------------|

3.Cute Without The E

Intro:
e|--------------------------------|
B|--0---0-------0-----------------|
G|--4---4---4---4-----------------|
D|--2---2---2---1-----------------|
A|--4---0---2---2-----------------|
E|--------------------------------|

Verse: Guitar 1
e|-----------------------------------------------------------------|
B|-----------------------------------------------------------------|
G|---------4-4---4---------4-4---4---------4-4---4-----------------|
D|-----2---------------2---------------2---------------1---2-1---1-|
A|-4-4---4-----4---0-0---0-----0---2-2---2-----2---2-2---2-----2---|
E|-----------------------------------------------------------------|
PM * * * *     *   * * * *     *   * * * *     *

E------------------------------------------------------------------|
B|-----------------------------------------------------------------|
G|--66666666--22222222--44444444--44444444-------------------------|
D|--66666666--22222222--44444444--44444444-------------------------|
A|--44444444--00000000--22222222--22222222-------------------------|
E|-----------------------------------------------------------------|
PM  ********  ********  ********  ********

Chorus:
e|--------------------------------------------|
B|--------------------------------------------|
G|--66666666--44444444--99999999--22222222----|
D|--66666666--44444444--99999999--22222222----|
A|--44444444--22222222--77777777--00000000----|
E|--------------------------------------------|

Bridge:
e|----4~--4-5-4h5p4-4---------|
B|---5---5--------------------|
G|--4---4---------------------|
D|----------------------------|
A|----------------------------|
E|----------------------------|

clean
e|------------------------|
B|------------------------|
G|-6--4--9--2-------------|
D|-6--4--9--2-------------|
A|-4--2--7--0-------------|
E|------------------------|

distortion   1, 2, 3     P.M. 4
e|----------|-------|-------------|
B|----------|-------|-------------|
G|--6--2--4-|-------|444444444444-|
D|--6--2--4-|-1h2p1-|444444444444-|
A|--4--0--2-|2------|222222222222-|
E|----------|-------|-------------|

Outro:
e|-----------------------------------------|----------------|
B|-----------------------------------------|----------------|
G|--66666666--22222222--44444444--44444444-|-6-2-4~---------|
D|--66666666--22222222—-44444444--44444444-|-6-2-4~---------|
A|--44444444--00000000--22222222--22222222-|-4-0-2~---------|
E|-----------------------------------------|----------------|

4. Theres No I In Team

Intro/Verse (palm mute)
e|---------------------------------------|
B|---------------------------------------|
G|-7-6---7-6---7-6---7-6---7-6-7-6-------|
D|-----7-----7-----7-----7---------------|
A|---------------------------------------|
E|---------------------------------------|

Guitar 2 comes in:
e|-------------7----------9----------9----9-----9-------|
B|----------------0~---------0~-------------------------|
G|-4~-------6----------7----------7-----7----7----------|
D|------------------------------------------------------|
A|------------------------------------------------------|
E|------------------------------------------------------|

Chorus:
e|--------------------------------------------|
B|--------------------------------------------|
G|-4444444/6----------------------------------|
D|-4444444/6--7777777/9--5555555555555555-----|
A|-2222222/4--7777777/9--5555555555555555-----|
E|------------5555555/7--3333333333333333-----|

Bridge:
e|-------------------------|
B|-------------------------|
G|-------------------------|
D|-0000000000000-----------|
A|-0000000000000-----------|
E|-0000000000000-----------|
PM *************

5. Great Romances Of The 20th Century

Intro: (3 times)
------------------------------------------------------------------------|
----------------------------4----------------------------4--------------|
--------4---4-----------4-----4---4-----4---4---------------------4-----|
------4---4---4---4---4---4-----4-----4---4---4---4----4---4----4---4---|
----2-----------2-------------------------------------------------------|
E ------------------0---------------2-----------2----4--------0---------|

Intro (continued): (once)
------------------------------------------------------------------------|
----------------------------4-------------------------------------------|
--------4---4-----------4-----4---4-----4---4---------------------------|
------4---4---4---4---4---4-----4-----4---4---4------6-6-6--2-2-2-------|
----2-----------2------------------------------------6-6-6--2-2-2-------|
E ------------------0---------------2-----------2----4-4-4--0-0-0-------|

Guitar 2 can play this over the top of intro
---------------------------------------------------|
----7---5---4--2------------5----4---2-------------|
-----------------------------------------4---------|
---------------------------------------------------|
---------------------------------------------------|
E -------------------------------------------------|

Verse 1: (play 3 times)
September never stays this cold...
-------------------------------------------------------|
-------------------------------------------------------|
---88888888----44444444----88888888----6666-11111111---|
---xxxxxxxx----xxxxxxxx----xxxxxxxx----xxxx-x-x-x-x----|
---66666666----22222222----66666666----4444-9-9-9-9----|
E -----------------------------------------------------|

Verse 1 (continued): (play once)
-----------------------------------------------------------|
-----------------------------------------------------------|
---88888888----44444444----88888888----66666666------------|
---xxxxxxxx----xxxxxxxx----xxxxxxxx----xxxxxxxx------------|
---66666666----22222222----66666666----44444444------------|
E ---------------------------------------------------------|

Breakdown (play once)
					  This Won't
----------------------------------------------------|
----------------------4-----------------------------|
---------4--------------4--------4---------4-3------|
-------4---4--------4-----4----4---4-------4-3------|
-----------------------------2-------2—----2-1------|
E ---4-------4----0---------------------2-----------|

Verse 2: (play twice)
mean a thing tomorrow...
-------------------------------------|
-------------------------------------|
----------------------4444------4-3--|
--------6666---2222---4444---44-4-3--|
--------6666---2222---2222---44-2-1--|
E ------4444---0000----------22------|

So please, please, I'm running out of sympathy...
-------------------------------------|
-------------------------------------|
----------------------4444-----------|
--------6666---2222---4444---4444----|
--------6666---2222---2222---4444----|
E ------4444---0000----------2222----|

Interlude: Guitar 1
She says, c'mon c'mon...
----------------------------------|
----------------------------------|
----------------------------------|
----6-6----4-4----2-2----2-2------|
----6-6----4-4----2-2----2-2------|
E --4-4----2-2----0-0----0-0------|
    * *    * *    * *    * *

--------------------------------|
--------------------------------|
--------------------------------|
------6666--4444—-22222222------|
------6666—-4444—-22222222------|
E ----4444--2222--00000000------|
      ****  ****  ********

Interlude: Guitar 2 (four times)

e-11-11-11-11-11-11-11-11-9-9-9-9-7-7-7-7--------|
b---7--7--7--7--7--7--7--7-7-7-7-7-7-7-7-7-------|
g------------------------------------------------|

Verse 3: Guitar 1 (4 times)
Always come close, but never come easy... (singing)
----------------------------------------|
----------------------------------------|
------------------44-66-88-66-8-6-------|
------6666--4444--xx-xx-xx-xx-x-x-------|
------6666—-4444--22-44-66-44-6-4-------|
E ----4444--2222------------------------|

Guitar 2 (palm mute part first and third times only)
----------------------------------------|
----------------------------------------|
----------------------------------------|
------6666--4444--22-22-22-22-2222------|
------6666—-4444--22-22-22-22-2222------|
E ----4444--2222--00-00-00-00-0000------|
                  ** ** ** ** ****

Bridge: Guitar 1
Always come close, but never come easy... (spoken)
First 3 Times	Last Time
--------------|-----------------------------|
--------------|-----------------------------|
--------------|-----------------------------|
----2~----9~--|-2~---9999999999999999-------|
----2~----9~--|-2~---9999999999999999-------|
E --0~----7~--|-0~---7777777777777777-------|
                     ****************
Guitar 2
---------------------------------------------------------|
------------------------------------------------5--4—----|
----4--3---—---4--3—-4~---4--3-------4--3--4~---------4--|
----------4~--------------------4~-----------------------|
---------------------------------------------------------|
E -------------------------------------------------------|

Verse 4: Guitar 1
I never said I'd take this lying down...
----------------------------------------------------|
----------------------------------------------------|
----------------------------------------------------|
----666---444---666---444---66---44---22222222------|
----666---444---666---444---66---44---22222222------|
E --444---222---444---222---44---22---00000000------|

Verse 4: Guitar 2
---------------------------------------------------------------------------|
---------------------------------------------------------------------------|
---121212---101010--121212---101010--121212---101010-1212---1010—88888888--|
---x-x-x----x-x-x---x-x-x----x-x-x---x-x-x----x-x-x—-x-x----x-x--xxxxxxxx--|
---101010---8-8-8---101010---8-8-8---101010---8-8-8--1010---8-8--66666666--|
E -------------------------------------------------------------------------|

Outro:
Guitar 1 twice
Then what's the point
---------------|
---------------|
---------------|
----2~---------|
----2~---------|
E --0~---------|

Guitar 2
Listen closely to this bit. (-6x8---| keeps going for ages after verse 4, it doesn't
stop. (-4x6--), (-2x4---------------| comes in after he says (I'm in your room). Then repeat the
outro as tabbed below. You should play it 3 more times.
------------------------------------------------|
------------------------------------------------|
----8888888888888888-66666666-44444444----------|
----xxxxxxxxxxxxxxxx-xxxxxxxx-xxxxxxxx----------|
----6666666666666666-44444444-22222222----------|
E ----------------------------------------------|

End
---------------------------|
---------------------------|
------16-15-16-15-16-15-11-|
------x--x--x--x--x--x--x--|
------14-13-14-13-14-13-9--|
E -------------------------|

6. Ghost Man On Third

Intro/Verse: Guitar One
e|------2-------2-------2-------2-------0-------0-----------------|(x4)
B|------------------------------------------------------3-------0-|
G|--0-------0-------0-------0-------------------------------------|
D|2---2---2---2---0---0---0---0-----2-------2-------2-------2-----|
A|--------------------------------3---3---3---3---3---3---3---3---|
E|----------------------------------------------------------------|

Pre Chorus:  Both Guitars
e|2---2---0---0-0-0-0-0-0---| (x2)
B|0---3---3---3-3-3-3-3-3---|
G|0---2---0---0-0-0-0-0-0---|
D|2---0---2---2-2-2-2-2-2---|
A|2-------3---3-3-3-3-3-3---|
E|--------------------------|

Chorus: Guitar One
e|2-2-2-2-2-2-2-2--2-2-2-2-2-2-2-2--0-0-0-0-0-0-0-0-0-0-0-0-0-0-0-0--|
B|3-3-3-3-3-3-3-3--0-0-0-0-0-0-0-0--3-3-3-3-3-3-3-3-3-3-3-3-3-3-3-3--|
G|2-2-2-2-2-2-2-2--0-0-0-0-0-0-0-0--0-0-0-0-0-0-0-0-0-0-0-0-0-0-0-0--|
D|0-0-0-0-0-0-0-0--2-2-2-2-2-2-2-2--2-2-2-2-2-2-2-2-2-2-2-2-2-2-2-2--|
A|-----------------2-2-2-2-2-2-2-2--3-3-3-3-3-3-3-3-3-3-3-3-3-3-3-3--|
E|-------------------------------------------------------------------|

Riff 1:
e|----------10------------|
B|----------------12------|
G|-12-11-12----12---------|
D|------------------------|
A|------------------------|
E|------------------------|

Riff 2:
e|-----------------|
B|-----------------|
G|5p4--------7-----|
D|-----5-4h5-------|
A|-----------------|
E|-----------------|

Verse 2:
e|2-2-2-2-2-2-2-2--2-2-2-2-2-2-2-2--0-0-0-0-0-0-0-0-0-0-0-0-0-0-0-0---|
B|0-0-0-0-0-0-0-0--3-3-3-3-3-3-3-3--3-3-3-3-3-3-3-3-3-3-3-3-3-3-3-3---|
G|0-0-0-0-0-0-0-0--2-2-2-2-2-2-2-2--0-0-0-0-0-0-0-0-0-0-0-0-0-0-0-0---|
D|2-2-2-2-2-2-2-2--0-0-0-0-0-0-0-0--2-2-2-2-2-2-2-2-2-2-2-2-2-2-2-2---|
A|2-2-2-2-2-2-2-2-------------------3-3-3-3-3-3-3-3-3-3-3-3-3-3-3-3---|
E|--------------------------------------------------------------------|

Bridge:
e|-2-2-2-2-2-2-2----2-2-2-2-2-2-2—---0-0-0-0-0-0-0----2-2-2-2-2-2-2-----|
B|-0-0-0-0-0-0-0----3-3-3-3-3-3-3----3-3-3-3-3-3-3----3-3-3-3-3-3-3-----|
G|-0-0-0-0-0-0-0----2-2-2-2-2-2-2----0-0-0-0-0-0-0----2-2-2-2-2-2-2-----|
D|-2-2-2-2-2-2-2----0-0-0-0-0-0-0----2-2-2-2-2-2-2----0-0-0-0-0-0-0-----|
A|-2-2-2-2-2-2-2---------------------3-3-3-3-3-3-3----------------------|
E|----------------------------------------------------------------------|

Outro:
e|-2-2-2-2-2-2-2-2-2-2-2-2-2-2—0-0-0-0-0-0-0-2-2-2-2-2-2-2-----|(x3)
B|-0-0-0-0-0-0-0-3-3-3-3-3-3-3-3-3-3-3-3-3-3-3-3-3-3-3-3-3-----|
G|-0-0-0-0-0-0-0-2-2-2-2-2-2-2-0-0-0-0-0-0-0-2-2-2-2-2-2-2-----|
D|-2-2-2-2-2-2-2-0-0-0-0-0-0-0-2-2-2-2-2-2-2-0-0-0-0-0-0-0-----|
A|-2-2-2-2-2-2-2---------------3-3-3-3-3-3-3-------------------|
E|-------------------------------------------------------------|

7.Timberwolves In New Jersey

Intro:
--00-00-00-00-0-0--00-00-00-00-0-0--00-00-00-00-0-0--------------------|
--11-11-11-11-1-1--33-33-33-33-3-3--11-11-11-11-1-1--00-00-00-00-0-0---|
--00-00-00-00-0-0--00-00-00-00-0-0--00-00-00-00-0-0--11-11-11-11-1-1---|
--22-22-22-22-2-2--44-44-44-44-4-4--22-22-22-22-2-2--00-00-00-00-0-0---|
--00-00-00-00-0-0--55-55-55-55-5-5--33-33-33-33-3-3--22-22-22-22-2-2---|
E ---------------------------------------------------00-00-00-00-0-0---|

Verse:
-------------------------------------------------------------------------|
-------------------------------------------------------------------------|
--------------------------------------22-22-22-22-2-2--44-44-44-44-4-4---|
----33-33-33-33-3-3--55-55-55-55-5-5--22-22-22-22-2-2--44-44-44-44-4-4---|
----33-33-33-33-3-3--55-55-55-55-5-5--00-00-00-00-0-0--22-22-22-22-2-2---|
E --11-11-11-11-1-1--33-33-33-33-3-3-------------------------------------|

Chorus:
----------------------------------------------------|
----------------------------------------------------|
----22222222---55555555-----------------------------|
----22222222---55555555---33333333---55555555-------|
----00000000---33333333---33333333---55555555-------|
E ------------------------11111111---33333333-------|

------------------------------------------------------|
------------------------------------------------------|
----22222222---55555555-------------------------------|
----22222222---55555555---33333333---55555-77777------|
----00000000---33333333---33333333---55555-77777------|
E ------------------------11111111---33333-55555------|
                                     ****  ****

Interlude:
-----------------------------------------0----------|
-----------0---------0---------0-------1---1--------|
---------5---5-----5---5-----5---5------------------|
----------------------------------------------------|
-----0----------3-----------------------------------|
E ------------------------3---------1---------------|

Guitar 2 (P.M.)
---------------------------------------------|
---------------------------------------------|
----22222222-5555555-------------------------|
----22222222-5555555-55555555-33333333-------|
----00000000-3333333-55555555-33333333-------|
E -------------------33333333-11111111-------|

Then... Open
--------------------------------------------------|
--------------------------------------------------|
----22222222---55555555---------------------------|
----22222222---55555555---55555555---33333333-----|
----00000000---33333333---55555555---33333333-----|
E ------------------------33333333---11111111-----|

Ending (Palm muted)
-------------------------------------------------------------------------|
-------------------------------------------------------------------------|
--------------------------------------22-22-22-22-2-2--44-44-44-44-4-4---|
----33-33-33-33-3-3--55-55-55-55-5-5--22-22-22-22-2-2--44-44-44-44-4-4---|
----33-33-33-33-3-3--55-55-55-55-5-5--00-00-00-00-0-0--22-22-22-22-2-2---|
E --11-11-11-11-1-1--33-33-33-33-3-3-------------------------------------|

8.The Blue Channel

Intro:

e|----0--1-0-----------------------------0---------|
b|---3--3--------3-5--3--------3-1-1-------2~------|
g|--2--2--------5----5-------3----3-----2------2~--|
d|-0-----------5------------3-3--------2-----------|
a|------------3-----3------1----------0------------|
e|-------------------------------------------------|

e|----0-1--0--------------------0-----------|
b|---3----3-----3-5--3----1--3---1-----3-2--|
g|--2----------5----5-------3-3-------2-----|
d|-0-----0----5----5----3------------2------|
a|-----------3---------1------------0-------|
e|------------------------------------------|

Verse:

E|--------------------------------------------|
B|--------------------------------------------|
G|---7-7-7-7-7-5-5-5-5-5-3-3-3-3-3-2-2-2-2-2--|
D|---7-7-7-7-7-5-5-5-5-5-3-3-3-3-3-2-2-2-2-2--| x2
A|---5-5-5-5-5-3-3-3-3-3-1-1-1-1-1-0-0-0-0-0--|
E|--------------------------------------------|

Chorus
			1st and 3rd 		2nd 	     Last
E|-------------------|-----------------|------------------|---|
B|-------------------|-----------------|------------------|---|
G|---7-7/9-9/5-5-5-5-|-----------------|------------------|---|
D|---x-x/x-x/x-x-x-x-|-7-7-7-7-7-7-7-7-|-77-77-77-77-7777-|-7-|
A|---5-5/7-7/3-3-3-3-|-7-7-7-7-7-7-7-7-|-77-77-77-77-7777-|-7-|
E|-------------------|-5-5-5-5-5-5-5-5-|-55-55-55-55-5555-|-5-|
                       * * * * * * * *

Bridge Guitar 2:

E|------------------------------------------|
B|------------------------------------------|
G|---7-7-7-7-7-x-x-7-7-7-7-7-x-x-7-7-7-7-7--|
D|---7-7-7-7-7-x-x-7-7-7-7-7-x-x-7-7-7-7-7--|
A|---5-5-5-5-5-x-x-5-5-5-5-5-x-x-5-5-5-5-5--|
E|------------------------------------------|

E|------------------------------------------|
B|------------------------------------------|
G|---5-5-5-5-5-x-x-5-5-5-5-5-x-x-5-5-5-5-5--|
D|---5-5-5-5-5-x-x-5-5-5-5-5-x-x-5-5-5-5-5--|
A|---3-3-3-3-3-x-x-3-3-3-3-3-x-x-3-3-3-3-3--|
E|------------------------------------------|

E|------------------------------------------|
B|---3-3-3-3-3-x-x-3-3-3-3-3-x-x-3-3-3-3-3--|
G|---3-3-3-3-3-x-x-3-3-3-3-3-x-x-3-3-3-3-3--|
D|---3-3-3-3-3-x-x-3-3-3-3-3-x-x-3-3-3-3-3--|
A|---1-1-1-1-1-x-x-1-1-1-1-1-x-x-1-1-1-1-1--|
E|------------------------------------------|

E|------------------------------------------|
B|---2-2-2-2-2-x-x-2-2-2-2-2-x-x-2-2-2-2-2--|
G|---2-2-2-2-2-x-x-2-2-2-2-2-x-x-2-2-2-2-2--|
D|---2-2-2-2-2-x-x-2-2-2-2-2-x-x-2-2-2-2-2--|
A|---0-0-0-0-0-x-x-0-0-0-0-0-x-x-0-0-0-0-0--|
E|------------------------------------------|

Outro:

E|----------------------------|
B|---7-7-7-7-7-----7-7-7-7-7--|
G|---7-7-7-7-7-----7-7-7-7-7--|
D|---7-7-7-7-7-----7-7-7-7-7--| x2
A|---5-5-5-5-5-----5-5-5-5-5--|
E|----------------------------|

9.Your So Last Summer

Intro: palm mute
 e|---------------------------------------------------------------------|
 B|---------------------------------------------------------------------|
 G|--666/7777777777777—-666/777777777777—-666/777777777—-666/777777777--|
 D|--666/7777777777777--666/777777777777--666/777777777--666/777777777--|
 A|--444/5555555555550--444/555555555550--444/555555550--444/555555550--|
 E|---------------------------------------------------------------------|

Verse: Guitar One: Palm Mute
 e|--------------------------------------------------------------------------|
 B|--------------------------------------------------------------------------|
 G|--666/777777777777—-666/77777777777--4444444444444444---------------------|
 D|--666/777777777777--666/77777777777--4444444444444444-5555555555555555----|
 A|--444/555555555555--444/55555555555--2222222222222222-5555555555555555----|
 E|------------------------------------------------------3333333333333333----|

Verse: Guitar Two: open
 e|--------------|---------10--|
 B|--10--7---7---|---10--9-----|
 G|----7---9-----|-----7-------|
 D|--------------|-------------|
 A|--------------|-------------|
 E|--------------|-------------|

Chorus: open
 e|---------------------------------------|
 B|---------------------------------------|
 G|--77777777----------44444444-----------|
 D|--77777777-77777777-44444444-55555555--|
 A|--55555555-77777777-22222222-55555555--|
 E|-----------55555555----------33333333--|

Bridge: Guitar One:
 e|----------------------------------|---------------------------------|
 B|----------------------------------|---------------------------------|
 G|--666777777777777--66677777777777-|----------------44444-44444-444--|
 D|--666777777777777--66677777777777-|44444-44444-444-44444-44444-444--|
 A|--444000555555555--44400055555555-|44444-44444-444-22222-22222-222--|
 E|----------------------------------|22222-22222-222------------------|
 	Palm Mute 				Open

Bridge 2: Guitar One: Open
 e|---------------------------------------|
 B|---------------------------------------|
 G|--77777777-----------------------------|
 D|--77777777-77777777-99999999-55555555--|
 A|--55555555-77777777-99999999-55555555--|
 E|-----------55555555-77777777-33333333--|

Bridge 2: Guitar Two: open
 e|-------------------------------------------|
 B|-------------------------------------------|
 G|--141414141414-1212/11/9-77777777-99999999-|
 D|---x-x-x-x-x-x-x-x--x—-x-xxxxxxxx-xxxxxxxx-|
 A|--121212121212-1010/9-/7-55555555-77777777-|
 E|-------------------------------------------|

Outro: Guitar One: palm mute
 e|---------------------------------------|
 B|---------------------------------------|
 G|--77777777-----------------------------|
 D|--77777777-77777777-99999999-55555555--|
 A|--55555555-77777777-99999999-55555555--|
 E|-----------55555555-77777777-33333333--|

Guitar 2 open
 e|-5---5---2-0---0----|
 B|---3---3-----0------|
 G|--------------------|
 D|--------------------|
 A|--------------------|
 E|--------------------|

End On: Guitar 1 Open
 e|--------------------|
 B|--------------------|
 G|----7~--------------|
 D|----7~--------------|
 A|----5~--------------|
 E|--------------------|
Guitar 2 open
 e|--------------------|
 B|----3~--------------|
 G|--------------------|
 D|--------------------|
 A|--------------------|
 E|--------------------|

10.Head Club

Intro:
E------------------------------|
B------------------------------|
G—545454-545454-545454-545454--|
D—555555-555555-555555-555555--|
A—323232-323232-323232-323232--|
E------------------------------|

Verse:
E---------------------------------------|
B---------------------------------------|
G--4444444-7777777----------------------|
D—-4444444-7777777-55555555555555-------|
A--2222222-5555555-55555555555555-------|
E------------------33333333333333-------|

Pre-chorus:
E---------------|
B---------------|
G---------------|
D--2222222------|
A--2222222------|
E--0000000------|
P.m*******

Chorus:
E---------------------------------------------|
B---------------------------------------------|
G-------------555555555-----------------------|
D---222222222-555555555-555555555-444444444---|  (4x)
A---222222222-333333333-555555555-444444444---|
E---000000000-----------333333333-222222222---|

Bridge: Palm Mute
E----------------------------------------|
B----------------------------------------|
G---------------------5555555555555555---|
D---55555555-22222222-5555555555555555---|
A---55555555-22222222-3333333333333333---|
E---33333333-00000000--------------------|

Outro: Open
E----------------------------------------|
B----------------------------------------|
G---------------------5555555555555555---|
D---55555555-22222222-5555555555555555---|
A---55555555-22222222-3333333333333333---|
E---33333333-00000000--------------------|

End:
E---------------------------------|
B---------------------------------|
G---------------------------------|
D---5------5------5------5------5-|
A---5------5------5------5------5-|
E---3------3------3------3------3-|
comments
print report bad tab
I want to post or [tab]
guest
You may want to rate the tab now too:
select rating
Please do not post tabs as comments. Select "correction" instead!