Oops, an error
Loading. Please wait.

Innerspeaker Tab

10,696 views 64 this week
13 commentsread comments
1 2 3 4 5
excellent!
x 24
add to favorites launch autoscroll
font size
0
reset
Autoscroll
+/-
esc
set tempo
stop
Contributor
Difficulty
intermediate
WARNING: You are trying to view
                                    content from Ultimate-Guitar.com
                                    in an unauthorized application,
                                    which is prohibited.

                                    Please use an official Ultimate
                                    Guitar Tabs application for iPhone,
                                    iPad or Android to access legitimate
                                    chords, guitar, bass, and drum tabs
                                    from Ultimate-Guitar.com database.

                                    Type "ultimate guitar tabs" in Apple
                                    App Store's or Android Market's
                                    search to find the application.
                           Innerspeaker by Tame Impala
                    Released in 2010, written by Kevin Parker

This is my favourite album of all-time, by my favourite band of all-time. All of these
tabs are my own work, and have been thoroughly checked for accuracy and completeness.
Every single sound on the album made by the guitars and synths (and even a bit of bass
too) is here. I made sure to include everything you hear on the album in this tab.

I've been working on this for a long, long time, so I hope you enjoy playing the songs
and be sure to support Tame Impala in any way possible. They more than deserve it!

Tracklist:
01. It Is Not Meant to Be
02. Desire Be, Desire Go
03. Alter Ego
04. Lucidity
05. Why Won't You Make Up Your Mind?
06. Solitude Is Bliss
07. Jeremy's Storm
08. Expectation
09. The Bold Arrow of Time
10. Runway, Houses, City, Clouds
11. I Don't Really Mind

To quickly find a song you are looking for, just press 'Ctrl F' and type the name of
the song. Now without further ado...


--------------------------------------------------------------------------------------
                                       Track 01
                                 It Is Not Meant to Be
--------------------------------------------------------------------------------------

Intro:
Guitar 1:
e|-----------------------------------------------------------------| \
B|-3---3---3---3---5---5---5---5---3---3---3---3---3---3---3---3---|  \
G|---5---5---5---5---5---5---5---5---3---3---3---3---3---3---3---3-|   \
D|-----------------------------------------------------------------|    |
A|-----------------------------------------------------------------|    |
E|-----------------------------------------------------------------|    |
                                                                        | x4
e|-----------------------------------------------------------------|    |
B|-3---3---3---3---5---5---6---6---3---3---3---3---3---3---3---3---|    |
G|---5---5---5---5---5---5---5---5---3---3---3---3---3---3---3---3-|    |
D|-----------------------------------------------------------------|   /
A|-----------------------------------------------------------------|  /
E|-----------------------------------------------------------------| /

Bass:
G|----------------------12--------------12------------------------------------|
D|--------------------------------12----------15--14--12--10--14--12-10-------| x8
A|-10--------12---13----------------------------------------------------13-12-|
E|----------------------------------------------------------------------------|

Guitar 2:
After the 2nd repeat, the second guitar plays this over the top;
the strumming pattern is included above the tab (D means down and U means up):
   D  D U  D U  D U   D  D U  D U  D U   D  D U  D U  D U   D  D U  D U  D U  D U  D
e|-3--3-3--3-3--3-3---7--7-7--7-7--7-7---3--3-3--3-3--3-3---5--5-5--5-5--5-5--5-5--5-|
B|-3--3-3--3-3--3-3---5--5-5--5-5--5-5---3--3-3--3-3--3-3---3--3-3--3-3--3-3--3-3--3-|
G|-5--5-5--5-5--5-5---5--5-5--5-5--5-5---5--5-5--5-5--5-5---3--3-3--3-3--3-3--3-3--3-| x4
D|-3--3-3--3-3--3-3---5--5-5--5-5--5-5---5--5-5--5-5--5-5---3--3-3--3-3--3-3--3-3--3-|
A|-5--5-5--5-5--5-5----------------------3--3-3--3-3--3-3----------------------------|
E|-3--3-3--3-3--3-3------------------------------------------------------------------|

Verse 1:
Guitar 1:
"I wanted her,
I wanted her"
e|---------|
B|---------|
G|---------| x4
D|---------|
A|------5--|
E|-5-------|

Guitar 1:
"But she doesn't like the life that I lead,
she doesn't like the life that I lead"
e|-5----5--|
B|-5----7--|
G|-5----7--| x4
D|-7----7--|
A|-7----5--|
E|-5-------|

Guitar 1:
"doesn't like sand stuck on her feet,
or sitting around smoking weed,
I must seem more like a friend in need, and I..."
e|-5--5--5-5--5--5--|
B|-5--5--5-5--7--7--|
G|-5--5--5-5--7--7--| x6
D|-7--7--7-7--7--7--|
A|-7--7--7-7--5--5--|
E|-5--5--5-5--------|

Pre-chorus:
Guitar 1:
"...boast that it is meant to be, but in all hone-"
e|------------------|
B|------------------|
G|---------7--7--7--|
D|------5-----------|
A|-5----------------|
E|------------------|

Chorus 1:
Guitar 1 and 2:
"-sty, I don't have a hope in hell, I'm hap-"
e|------------------------------------------------------|
B|-1--1--3--3-3--1--1--3--3-3--3--3--0--0--1--1--1--1-1-|
G|-2--2--4--4-4--2--2--4--4-4--2--2--0--0--2--2--2--2-2-|
D|-3--3--5--5-5--3--3--5--5-5--4--4--2--2--3--3--3--3-3-|
A|-3--3--5--5-5--3--3--5--5-5--0--0--2--2--3--3--3--3-3-|
E|------------------------------------------------------|

"-py just to watch her move, and in all hone-"
e|----------------------------------------------------------|
B|-1--1--3--3-3--1--1--3--3-3--1--1--3--3-3--5--5-5---3--3--|
G|-2--2--4--4-4--2--2--4--4-4--2--2--4--4-4--5--5-5---4--4--|
D|-3--3--5--5-5--3--3--5--5-5--3--3--5--5-5--7--7-7---5--5--|
A|-3--3--5--5-5--3--3--5--5-5--3--3--5--5-5--7--7-7---5--5--|
E|----------------------------------------------------------|

"-sty, I don't have a hope in hell, I'm hap-"
e|------------------------------------------------------|
B|-1--1--3--3-3--1--1--3--3-3--3--3--0--0--1--1--1--1-1-|
G|-2--2--4--4-4--2--2--4--4-4--2--2--0--0--2--2--2--2-2-|
D|-3--3--5--5-5--3--3--5--5-5--4--4--2--2--3--3--3--3-3-|
A|-3--3--5--5-5--3--3--5--5-5--0--0--2--2--3--3--3--3-3-|
E|------------------------------------------------------|

"-py just to watch her move, and..."
e|---------------------------------------------------------|
B|-1--1--3--3-3--1--1--3--3-3--1--1--3--3-3--1--1--3--3-3--|
G|-2--2--4--4-4--2--2--4--4-4--2--2--4--4-4--2--2--4--4-4--|
D|-3--3--5--5-5--3--3--5--5-5--3--3--5--5-5--3--3--5--5-5--|
A|-3--3--5--5-5--3--3--5--5-5--3--3--5--5-5--3--3--5--5-5--|
E|---------------------------------------------------------|

Verse 2:
Guitar 1:
"...she doesn't like the friends that I make,
doesn't make friends for friendship's sake"
e|-5----5--|
B|-5----7--|
G|-5----7--| x4
D|-7----7--|
A|-7----5--|
E|-5-------|

Guitar 2:
A second plays lead quietly in the background like this:
e|--------------------------------------------------------------|
B|---------------5-7--8-7h8-7-----------------------------------|
G|----5--7---5-7-----------------------5-7-7b9-7b9-7----7b9-7b9-|
D|-7----------------------------7--5-7--------------------------|
A|--------------------------------------------------------------|
E|--------------------------------------------------------------|

Guitar 1:
"she just gets bored..."
e|------3----|
B|------5----|
G|------4----|
D|------5----|
A|------3----|
E|-5---------|

Guitar 1:
"...sitting by the lake,
her soul won't surface
and her heart won't ache"
e|-5----5--|
B|-5----7--|
G|-5----7--| x3
D|-7----7--|
A|-7----5--|
E|-5-------|

e|------------------------------------------------------------|
B|--------5--8-b10----------5.--------------------------------|
G|--5--7---------------5/7-----5.--4~~~-------------5.--7b9---|
D|--------------------------------------7----5--7.------------|
A|----------------------------------------7-------------------|
E|------------------------------------------------------------|

Pre-chorus:
Guitar 2:
"and I boast that it is meant to be, but in all hone-"
e|------------------------|
B|------------------------|
G|-0----------------------|
D|--------7------5-5-7-5--|
A|------5------5----------|
E|------------------------|

Guitar 1:
e|------------------------|
B|------------------------|
G|------7----7----7----7--|
D|------------------------|
A|------5--5----5----5----|
E|------------------------|

Chorus 2:
Guitar 1 and 2:
"-sty, I don't have a hope in hell, I'm hap-"
e|------------------------------------------------------|
B|-1--1--3--3-3--1--1--3--3-3--3--3--0--0--1--1--1--1-1-|
G|-2--2--4--4-4--2--2--4--4-4--2--2--0--0--2--2--2--2-2-|
D|-3--3--5--5-5--3--3--5--5-5--4--4--2--2--3--3--3--3-3-|
A|-3--3--5--5-5--3--3--5--5-5--0--0--2--2--3--3--3--3-3-|
E|------------------------------------------------------|

"-py just to watch her move"
e|--------------------------------------------------------------|
B|-1--1--3--3-3--1--1--3--3-3--1--1--3--3-3--5--5-5---3--3-3-3--|
G|-2--2--4--4-4--2--2--4--4-4--2--2--4--4-4--5--5-5---4--4-4-4--|
D|-3--3--5--5-5--3--3--5--5-5--3--3--5--5-5--7--7-7---5--5-5-5--|
A|-3--3--5--5-5--3--3--5--5-5--3--3--5--5-5--7--7-7---5--5-5-5--|
E|--------------------------------------------------------------|

Solo:
One guitar plays this progression while the other plays the solo:
Guitar 1:
e|------------------------------------------------------|
B|-1--1--3--3-3--1--1--3--3-3--3--3--0--0--1--1--1--1-1-|
G|-2--2--4--4-4--2--2--4--4-4--2--2--0--0--2--2--2--2-2-|
D|-3--3--5--5-5--3--3--5--5-5--4--4--2--2--3--3--3--3-3-|
A|-3--3--5--5-5--3--3--5--5-5--0--0--2--2--3--3--3--3-3-|
E|------------------------------------------------------|

e|--------------------------------------------------------|
B|-1--1--3--3-3--1--1--3--3-3--5--5--3--3-3--1--1--1--1-1-|
G|-2--2--4--4-4--2--2--4--4-4--5--5--4--4-4--2--2--2--2-2-|
D|-3--3--5--5-5--3--3--5--5-5--7--7--5--5-5--3--3--3--3-3-|
A|-3--3--5--5-5--3--3--5--5-5--7--7--5--5-5--3--3--3--3-3-|
E|--------------------------------------------------------|

Guitar 2:
e|----------------------------------------------|
B|----------------------------------------------|
G|-9-\2--4---7\5--2/4---7\5--2/4-------0h2-2--2-|
D|--------------------------------5\3-----------|
A|----------------------------------------------|
E|----------------------------------------------|

e|----------------------------------------------|
B|----------------------------------------------|
G|-2--2/4-4--4/5--2\4---4/5--2-------------2----|
D|------------------------------5--5\3--3-----3-|
A|----------------------------------------------|
E|----------------------------------------------|

Pre-chorus:
Guitar 1:
e|-----------------|
B|-0---------------|
G|-0---------------|
D|-2---------------|
A|-2---------------|
E|-----------------|

Guitar 2:
e|-----------------|
B|---------------3-|
G|-----0h2-1---2---|
D|-2---------------|
A|-----------------|
E|-----------------|

Guitar 2:
"And I thought they could cure his disease, but in all hone-"
e|-----1-----------1---|
B|-----3---------3-----|
G|-----2------2--------|
D|-----0----0----------|
A|---------------------|
E|---------------------|

Chorus 3:
Guitar 1:
"-sty, he didn't have a hope in hell, now we'll..."
e|------------------------------------------------|
B|-1-----3-----1-----3-----3-----0-----1----------|
G|-2-----4-----2-----4-----2-----0-----2----------|
D|-3-----5-----3-----5-----4-----2-----3----------|
A|-3-----5-----3-----5-----0-----2-----3----------|
E|------------------------------------------------|

"...never see him move"
e|-------------------------------------------------|
B|-1-----3-----1-----3-----1-----3-----1-----3-----|
G|-2-----4-----2-----4-----2-----4-----2-----4-----|
D|-3-----5-----3-----5-----3-----5-----3-----5-----|
A|-3-----5-----3-----5-----3-----5-----3-----5-----|
E|-------------------------------------------------|

Guitar 2:
A sitar plays one note just after the word "him".
It can be played on guitar as well:
e|-------|
B|-3-----|
G|-------|
D|-------|
A|-------|
E|-------|

Outro:
Guitar 1 - there's a couple of variations in the outro, which I will tab here:
e|-----------------------------------------------------------------|
B|-3---3---3---3---5---5---5---5---3---3---3---3---3---3---3---3---|
G|---5---5---5---5---5---5---5---5---3---3---3---3---3---3---3---3-|
D|-----------------------------------------------------------------|
A|-----------------------------------------------------------------|
E|-----------------------------------------------------------------|

e|-----------------------------------------------------------------|
B|-3---3---3---3---5---5---6---6---3---3---3---3---3---3---3---3---|
G|---5---5---5---5---5---5---5---5---3---3---3---3---3---3---3---3-|
D|-----------------------------------------------------------------|
A|-----------------------------------------------------------------|
E|-----------------------------------------------------------------|

e|-----------------------------------------------------------------|
B|-3---3---3---3---5---5---5---5---3---3---3---3---3---3---3---3---|
G|---5---5---5---5---5---5---5---5---3---3---3---3---3---3---3---3-|
D|-----------------------------------------------------------------|
A|-----------------------------------------------------------------|
E|-----------------------------------------------------------------|

e|-------------------------------------------------5---5---3-------|
B|-3---3---3---3---5---5---6---6---3---3---3---3---------------5---|
G|---5---5---5---5---5---5---5---5---3---3---3---3---3---3---3---3-|
D|-----------------------------------------------------------------|
A|-----------------------------------------------------------------|
E|-----------------------------------------------------------------|

e|-----------------------------------------------------------------|
B|-3---3---3---3---5---5---5---5---5---5---5---5---5-\3----3---3---|
G|---5---5---5---5---5---5---5---5---5---5---5---5-------3---3---3-|
D|-----------------------------------------------------------------|
A|-----------------------------------------------------------------|
E|-----------------------------------------------------------------|

e|-----------------------------------------------------------------|
B|-3---3---3---3---5---5---6---6---3---3---3---3---3---3---3---3---|
G|---5---5---5---5---5---5---5---5---3---3---3---3---3---3---3---3-|
D|-----------------------------------------------------------------|
A|-----------------------------------------------------------------|
E|-----------------------------------------------------------------|

e|-----------------------------------------------------------------|
B|-3---3---3---3---5---5---5---5---3---3---3---3---3---3---3---3---|
G|---5---5---5---5---5---5---5---5---3---3---3---3---3---3---3---3-|
D|-----------------------------------------------------------------|
A|-----------------------------------------------------------------|
E|-----------------------------------------------------------------|

Bass
G|----------------------12--------------12------------------------------------|
D|--------------------------------12----------15--14--12--10--14--12-10-------| x7
A|-10--------12---13----------------------------------------------------13-12-|
E|----------------------------------------------------------------------------|

Guitar 2:
   D  D U  D U  D U   D  D U  D U  D U   D  D U  D U  D U   D  D U  D U  D U  D U  D
e|-3--3-3--3-3--3-3---7--7-7--7-7--7-7---3--3-3--3-3--3-3---5--5-5--5-5--5-5--5-5--5-|
B|-3--3-3--3-3--3-3---5--5-5--5-5--5-5---3--3-3--3-3--3-3---3--3-3--3-3--3-3--3-3--3-|
G|-5--5-5--5-5--5-5---5--5-5--5-5--5-5---5--5-5--5-5--5-5---3--3-3--3-3--3-3--3-3--3-| x7
D|-3--3-3--3-3--3-3---5--5-5--5-5--5-5---5--5-5--5-5--5-5---3--3-3--3-3--3-3--3-3--3-|
A|-5--5-5--5-5--5-5----------------------3--3-3--3-3--3-3----------------------------|
E|-3--3-3--3-3--3-3------------------------------------------------------------------|

Guitar 1:
End on:
e|-3-----|
B|-3-----|
G|-3-----|
D|-5-----|
A|-5-----|
E|-3-----|


************************************

| /   slide up
| \   slide down
| D   downstroke
| U   upstroke
| h   hammer-on
| p   pull-off
| ~   vibrato
| +   harmonic
| x   Mute note
| b   Bend
| pb  Pre-bend
| br  Bend release
| pbr Pre-bend release
| brb Bend release bend

************************************

--------------------------------------------------------------------------------------
                                       Track 02
                                 Desire Be, Desire Go
--------------------------------------------------------------------------------------

Fuzzy intro part:
Guitar 1:         Guitar 2:
e|----------------|----------------|
B|-3--------------|----------------|
G|-5b7------------|----------------|
D|----------------|------12~~~~----|
A|----------------|----------------|
E|----------------|----------------|

Verse:
"Feel it come, I-I don't know
How long it's, go-o-onna
Stay with me, whoa-oa, I let
Desire be, de-esire go,
Ooh"
e|-6--8--6--6/8-6/8-6--4--|
B|-6--8--8--6/8-6/8-8--6--|
G|-6--8--8--6/8-6/8-8--5--| x6
D|-4--6--8--4/6-4/6-8--6--|
A|-------6----------6--4--|
E|------------------------|

Pre-chorus:
"Dare I face the real world"
e|-6--8--6--6/8-6/8-6--4--6--|
B|-6--8--8--6/8-6/8-8--6--6--|
G|-6--8--8--6/8-6/8-8--5--7--|
D|-4--6--8--4/6-4/6-8--6--8--|
A|-------6----------6--4--8--|
E|------------------------6--|

Chorus:
"Everyday, back and forth, what's it for?
What's it for? Back and forth, everyday,
Everyday, back and forth, what's it for?
I don't know, I'll get out won't have to..."
e|------------------|
B|------------------|
G|------------------| x4
D|-5---7---8---10---|
A|-5---7---8---10---|
E|-3---5---6----8---|

"...che..."
e|------|
B|------|
G|------|
D|-6----|
A|-6----|
E|-4----|

Verse:
"...eck my watch, I-I don't have
The verve to be-elong to
This dead side, whoa-oa, why I
Ever tried, I-I don't know
Ooh"
e|-6--8--6--6/8-6/8-6--4--|
B|-6--8--8--6/8-6/8-8--6--|
G|-6--8--8--6/8-6/8-8--5--| x6
D|-4--6--8--4/6-4/6-8--6--|
A|-------6----------6--4--|
E|------------------------|

Pre-chorus:
"Dare I face the real world"
e|-6--8--6--6/8-6/8-6--4--6--|
B|-6--8--8--6/8-6/8-8--6--6--|
G|-6--8--8--6/8-6/8-8--5--7--|
D|-4--6--8--4/6-4/6-8--6--8--|
A|-------6----------6--4--8--|
E|------------------------6--|

Chorus:
"Everyday, back and forth, what's it for?
What's it for? Back and forth, everyday,
Everyday, back and forth, what's it for?
I don't know, I forget, try to let..."
e|------------------|
B|------------------|
G|------------------| x4
D|-5---7---8---10---|
A|-5---7---8---10---|
E|-3---5---6----8---|

"...de-e..."
e|------|
B|------|
G|------|
D|-6----|
A|-6----|
E|-4----|

"...esire be, de-esire go"
e|-6--8--6--6/8-6/8-6--4--|
B|-6--8--8--6/8-6/8-8--6--|
G|-6--8--8--6/8-6/8-8--5--|
D|-4--6--8--4/6-4/6-8--6--|
A|-------6----------6--4--|
E|------------------------|

Pre-solo riff:
e|----------------------------------------------------------|
B|----------------------------------------------------------|
G|----------------------------------------------------8-----|
D|----------------------------------------------------8-----|
A|-6/8-8--8-8--6/8-8--8-8--9\8-8-9\8-8-8\6-6/8-8--8-8-8-----|
E|----------------------------------------------------------|

Guitar solo:
e|-----------------------------------------------------|
B|-6---6b7-4---4---------------------------------------|
G|-----------7---5-------5h7-8~~~-------5h7-8~~~-------|
D|-----------------------------------------------------|
A|-----------------------------------------------------|
E|-----------------------------------------------------|

This part is actually whammy bar vibrato, going from the 4th fret to the 3rd fret and
back and forth. I'm not sure how to tab whammy stuff, so this is how to do it without
a whammy bar. It's a bit confusing to read, but it's just hammering on and pulling off:
e|----------------------------------------------------------|
B|----------------------------------------------------------|
G|----------------------------------------------------------|
D|-4--p3h4p3h4p3h4p3h4p3h4p3h4p3h4p3h4p3h4p3h4p3h4p3h4------|
A|----------------------------------------------------------|
E|----------------------------------------------------------|

e|----------------------------------------------------------|
B|----------------------------------------------------------|
G|----------------------------------------------------------|
D|-/8\4-----------------------------------------------------|
A|--------/8~~~---------------------------------------------|
E|----------------------------------------------------------|

e|-------------------------------------------------------------|
B|-------------------------------------------------------------|
G|-------------------------------------------------------------|
D|-------------------------------------------------------------|
A|-8--6-5-5-6--8--6-5-6/8-6--9---8--6-5-5-6--8--6-5-6/8-6--9---|
E|-------------------------------------------------------------|

e|----------------------------------------------------------------------|
B|----------------------------------------------------------------------|
G|-6h8-8-6h8-8-6h8-6h8-6----6-8-8b10-8b11r8--6--8-6-6h8-6-6h8-6-6h8-6---|
D|-----------------------8----------------------------------------------|
A|----------------------------------------------------------------------|
E|----------------------------------------------------------------------|

e|-------------------------------------------------------|
B|----------7---6----------------------------------------|
G|-----6h8--------5-------------6--\5--\3--6\5-6\5-3--1--|
D|-6h8---------------------------------------------------|
A|-------------------------------------------------------|
E|-------------------------------------------------------|

Verse chords again:
e|-6--8--6--6/8-6/8-6--4--|
B|-6--8--8--6/8-6/8-8--6--|
G|-6--8--8--6/8-6/8-8--5--| x4
D|-4--6--8--4/6-4/6-8--6--|
A|-------6----------6--4--|
E|------------------------|

Bridge:
"Feel,
Feel it come,
Feel it come,
Ah..."
e|-------------------------------------------------|
B|-------------------------------------------------|
G|-------------------------------------------------| x4 (slightly palm muted)
D|-------------------------------------------------|
A|-9--9h11-9h11-9-----9h11-11-9-11p9----------9h11-|
E|----------------11-----------------11--9h11------|

Verse:
"Feel it come, I-I don't know
How long it's, go-o-onna
Stay with me, whoa-oa, I let
Desire be, de-esire go"
e|-6--8--6--6/8-6/8-6--4--|
B|-6--8--8--6/8-6/8-8--6--|
G|-6--8--8--6/8-6/8-8--5--| x4
D|-4--6--8--4/6-4/6-8--6--|
A|-------6----------6--4--|
E|------------------------|

Fade out.


************************************

| /   slide up
| \   slide down
| h   hammer-on
| p   pull-off
| ~   vibrato
| +   harmonic
| x   Mute note
| b   Bend
| pb  Pre-bend
| br  Bend release
| pbr Pre-bend release
| brb Bend release bend

************************************

--------------------------------------------------------------------------------------
                                       Track 03
                                       Alter Ego
--------------------------------------------------------------------------------------

Guitar 1 - Rhythm
Guitar 2 - Synthy lead guitar

Intro:
Synth:
This is too fast to play on a guitar (unless you're a really fast player), and wasn't
intended to be played on a guitar, but I've included it anyway. Try to play it with
legato (e.g. slides, hammer-ons, pull-offs etc.):
e|-15-13-12-------------------------------------------------------------------------|
B|----------15-13-12----------------------------------------------------------------|
G|-------------------14-12--------------------------------12------------------------|
D|-------------------------15-14-12--------------12-14-15--------12--14-------------|
A|----------------------------------15-14-12~~~~~-------------------------15-14-12--|
E|----------------------------------------------------------------------------------|

Guitar 1 - play this progression 7 times:
e|-------------------------------------------------------------------|
B|-1--1-1--1--1.-1--1-1--1-1--1--1.-1--1-1--1-1--1--1-1--0--0--0-0-0-|
G|-2--2-2--2--2.-2--2-2--2-2--2--2.-2--2-2--2-2--2--2-2--0--0--0-0-0-| x7
D|-3--3-3--3--3.-3--3-3--3-3--3--3.-3--3-3--3-3--3--3-3--2--2--2-2-2-|
A|-3--3-3--3--3.-3--3-3--3-3--3--3.-3--3-3--3-3--3--3-3--2--2--2-2-2-|
E|-------------------------------------------------------------------|

Guitar 1 - and then play this:
e|-------------------------------------------------------|
B|-1--1-1--1--1.-1--1-1--1-1--1--1.-1--1-1--1-1--1--1-1--|
G|-2--2-2--2--2.-2--2-2--2-2--2--2.-2--2-2--2-2--2--2-2--|
D|-3--3-3--3--3.-3--3-3--3-3--3--3.-3--3-3--3-3--3--3-3--|
A|-3--3-3--3--3.-3--3-3--3-3--3--3.-3--3-3--3-3--3--3-3--|
E|-------------------------------------------------------|

Guitar 1:
e|-0--0-0--5--5-5--3--3-3--3--3-3--3--3-3--3--3-3--3--3-3--3--3-3--3--3-3--3--3-3--|
B|-0--0-0--5--5-5--3--3-3--3--3-3--3--3-3--3--3-3--3--3-3--3--3-3--3--3-3--3--3-3--|
G|-1--1-1--6--6-6--4--4-4--4--4-4--4--4-4--4--4-4--4--4-4--4--4-4--5--5-5--5--5-5--|
D|-2--2-2--7--7-7--5--5-5--5--5-5--5--5-5--5--5-5--5--5-5--5--5-5--3--3-3--3--3-3--|
A|-2--2-2--7--7-7--5--5-5--5--5-5--5--5-5--5--5-5--5--5-5--5--5-5--5--5-5--5--5-5--|
E|-0--0-0--5--5-5--3--3-3--3--3-3--3--3-3--3--3-3--3--3-3--3--3-3--3--3-3--3--3-3--|

Guitar 2 - comes in on the fourth repeat of the above chords,
plays throughout the entire chord progression above:
e|-----------------------------|-------3--5b7r5--3-----------|
B|-5~~~~~~~~~~~~~~~~~~~~~~~~~~~|-3--5---------------5--3--5~~|
G|-----------------------------|-----------------------------|
D|-----------------------------|-----------------------------|
A|-----------------------------|-----------------------------|
E|-----------------------------|-----------------------------|

e|-----------------------------|-------3--5b7r5--3-----------|
B|~~~~~~~~~~~~~~~~~~~~~~~~~~~~~|-3--5---------------5--3--5~~|
G|-----------------------------|-----------------------------|
D|-----------------------------|-----------------------------|
A|-----------------------------|-----------------------------|
E|-----------------------------|-----------------------------|

e|-----------------------------|-------3--5b7r5--3-----------|
B|~~~~~~~~~~~~~~~~~8\5~~~~~~~~~|-3--5---------------5--3--6~~|
G|-----------------------------|-----------------------------|
D|-----------------------------|-----------------------------|
A|-----------------------------|-----------------------------|
E|-----------------------------|-----------------------------|

e|-----------------------------|-------3--5b7r5--3-------------|
B|~~~~~~~~~~~5~~~~~~~~~~~~~~~~~|-3--5---------------5--3--3h5~~|
G|-----------------------------|-------------------------------|
D|-----------------------------|-------------------------------|
A|-----------------------------|-------------------------------|
E|-----------------------------|-------------------------------|

e|-----------3/5---------------|-------3-----------------------|
B|~~~~~~~~~5~----5~~~~~~~~~~~~~|-3--5-----5.--5---5/7--5/7--5~~|
G|-----------------------------|-------------------------------|
D|-----------------------------|-------------------------------|
A|-----------------------------|-------------------------------|
E|-----------------------------|-------------------------------|

e|-----------------------------|-----------------------------|
B|~~~~~~~~~~~3~~~~~~~~~~~~~~1~~|~~~~~~~~~~~0~~~~~~~~~~~~~~~~~|
G|-----------------------------|-----------------------------|
D|-----------------------------|-----------------------------|
A|-----------------------------|-----------------------------|
E|-----------------------------|-----------------------------|

Verse:
Guitar 1:
"Said the voice from afar: 'Don't you know it doesn't have to
Be so hard? Waiting for everyone else a-"
e|-3-------------------------------------------------2-----------|
B|-5---------------------------------5---------------3-----------|
G|-4---------------------------------4---------------X-----------| x2
D|-5---------------------------------4---------------4-----------|
A|-3---------------------------------2---------------2-----------|
E|---------------------------------------------------------------|

Guitar 1:
"-round to agree, might take too long,
Might take too long'"
When it won't be so..."
e|-3--3-3--3--3-3--3-3--3-3--3--3-3------------------2--2--2-2-2-|
B|-5--5-5--5--5-5--5-5--5-5--5--5-5--5-5--5--5--5-5--3--3--3-3-3-|
G|-4--4-4--4--4-4--4-4--4-4--4--4-4--4-4--4--4--4-4--X--X--X-X-X-| x3
D|-5--5-5--5--5-5--5-5--5-5--5--5-5--4-4--4--4--4-4--4--4--4-4-4-|
A|-3--3-3--3--3-3--3-3--3-3--3--3-3--2-2--2--2--2-2--2--2--2-2-2-|
E|---------------------------------------------------------------|

Guitar 2:
e|----------------------|
B|-3\1------8\5---7\5---|
G|----------------------| x2
D|----------------------|
A|----------------------|
E|----------------------|

Guitar 2:
e|---------------------------------|
B|-3\1----0---/8-5---7\5-5---5-3---|
G|-------------------------------2-|
D|---------------------------------|
A|---------------------------------|
E|---------------------------------|

Pre-chorus:
Guitar 1:
"...hard,
It won't be so hard"
e|-0--0-0--0--0-0--0--0-0--0--0-0--3--3-3--3--3-3--3--3-3--3--3-3--|
B|-3--3-3--3--3-3--3--3-3--3--3-3--3--3-3--3--3-3--3--3-3--3--3-3--|
G|-2--2-2--2--2-2--2--2-2--2--2-2--3--3-3--3--3-3--3--3-3--3--3-3--|
D|-3--3-3--3--3-3--3--3-3--3--3-3--5--5-5--5--5-5--5--5-5--5--5-5--|
A|-0--0-0--0--0-0--0--0-0--0--0-0--5--5-5--5--5-5--5--5-5--5--5-5--|
E|---------------------------------3--3-3--3--3-3--3--3-3--3--3-3--|

Guitar 2:
e|------------------|
B|-----5-6----------|
G|-2-3-----3---5-2--|
D|------------------|
A|------------------|
E|------------------|

Guitar 1:
"Well it's true, yes, but you won't get far telling me that you..."
e|-0--0-0--0--0-0--0--0-0--0--0-0--0--0-0--0--0-0--0---------------|
B|-1--1-1--1--1-1--1--1-1--1--1-1--1--1-1--1--1-1--1---------------|
G|-2--2-2--2--2-2--2--2-2--2--2-2--2--2-2--2--2-2--2---------------|
D|-2--2-2--2--2-2--2--2-2--2--2-2--2--2-2--2--2-2--2---------------|
A|-0--0-0--0--0-0--0--0-0--0--0-0--0--0-0--0--0-0--0---------------|
E|-----------------------------------------------------------------|

Guitar 2:
e|---------------------|
B|-1----3----5----6----|
G|---------------------|
D|---------------------|
A|---------------------|
E|---------------------|

Chorus:
Guitar 1:
"...are all you're meant to
Be, when the one from my
Dream is sitting right next to
Me and I don't know what to..."
e|-------------------------------------------------------------------|
B|-1--1-1--1--1.-1--1-1--1-1--1--1.-1--1-1--1-1--1--1-1--0--0--0-0-0-|
G|-2--2-2--2--2.-2--2-2--2-2--2--2.-2--2-2--2-2--2--2-2--0--0--0-0-0-| x4
D|-3--3-3--3--3.-3--3-3--3-3--3--3.-3--3-3--3-3--3--3-3--2--2--2-2-2-|
A|-3--3-3--3--3.-3--3-3--3-3--3--3.-3--3-3--3-3--3--3-3--2--2--2-2-2-|
E|-------------------------------------------------------------------|

Guitar 1:
"...do"
e|-------------------------------------------------------|
B|-1--1-1--1--1.-1--1-1--1-1--1--1.-1--1-1--1-1--1--1-1--|
G|-2--2-2--2--2.-2--2-2--2-2--2--2.-2--2-2--2-2--2--2-2--|
D|-3--3-3--3--3.-3--3-3--3-3--3--3.-3--3-3--3-3--3--3-3--|
A|-3--3-3--3--3.-3--3-3--3-3--3--3.-3--3-3--3-3--3--3-3--|
E|-------------------------------------------------------|

Guitar 1:
"Oh, alter ego,
Get..."
e|-0--0-0--5--5-5--3--3-3--3--3-3--3--3-3--3--3-3--3--3-3--3--3-3--3--3-3--3--3-3--|
B|-0--0-0--5--5-5--3--3-3--3--3-3--3--3-3--3--3-3--3--3-3--3--3-3--3--3-3--3--3-3--|
G|-1--1-1--6--6-6--4--4-4--4--4-4--4--4-4--4--4-4--4--4-4--4--4-4--5--5-5--5--5-5--|
D|-2--2-2--7--7-7--5--5-5--5--5-5--5--5-5--5--5-5--5--5-5--5--5-5--3--3-3--3--3-3--|
A|-2--2-2--7--7-7--5--5-5--5--5-5--5--5-5--5--5-5--5--5-5--5--5-5--5--5-5--5--5-5--|
E|-0--0-0--5--5-5--3--3-3--3--3-3--3--3-3--3--3-3--3--3-3--3--3-3--3--3-3--3--3-3--|

Verse:
Guitar 1:
"...them to love you, while they may depending on your
Words and wealth, the only one who's really judging..."
e|-3-------------------------------------------------2-----------|
B|-5---------------------------------5---------------3-----------|
G|-4---------------------------------4---------------X-----------| x2
D|-5---------------------------------4---------------4-----------|
A|-3---------------------------------2---------------2-----------|
E|---------------------------------------------------------------|

Guitar 1:
"...you is yourself, nobody else,
Nobody else,
If I could part,
It wouldn't be so..."
e|-3--3-3--3--3-3--3-3--3-3--3--3-3------------------2--2--2-2-2-|
B|-5--5-5--5--5-5--5-5--5-5--5--5-5--5-5--5--5--5-5--3--3--3-3-3-|
G|-4--4-4--4--4-4--4-4--4-4--4--4-4--4-4--4--4--4-4--X--X--X-X-X-| x5
D|-5--5-5--5--5-5--5-5--5-5--5--5-5--4-4--4--4--4-4--4--4--4-4-4-|
A|-3--3-3--3--3-3--3-3--3-3--3--3-3--2-2--2--2--2-2--2--2--2-2-2-|
E|---------------------------------------------------------------|

Guitar 2:
e|----------------------|
B|-3\1------8\5---7\5---|
G|----------------------| x2
D|----------------------|
A|----------------------|
E|----------------------|

Guitar 2:
e|------------------------------------------|
B|-3\1---0h1-0h1-0---/10-5---8\5-5--7\5-5\3-|
G|------------------------------------------|
D|------------------------------------------|
A|------------------------------------------|
E|------------------------------------------|

e|---------------------------------------------------|
B|-3\1-1---1/3-0--/10-10\5-5/8-5--5/10-8\5-5-7--5--3-|
G|---------------------------------------------------|
D|---------------------------------------------------|
A|---------------------------------------------------|
E|---------------------------------------------------|

e|-----------------------------------|
B|-3-\1---0---/8\5-5---7\5-5---5-3---|
G|---------------------------------2-|
D|-----------------------------------|
A|-----------------------------------|
E|-----------------------------------|

Pre-chorus:
Guitar 1:
"...hard,
It won't be so hard"
e|-0--0-0--0--0-0--0--0-0--0--0-0--3--3-3--3--3-3--3--3-3--3--3-3--|
B|-3--3-3--3--3-3--3--3-3--3--3-3--3--3-3--3--3-3--3--3-3--3--3-3--|
G|-2--2-2--2--2-2--2--2-2--2--2-2--3--3-3--3--3-3--3--3-3--3--3-3--|
D|-3--3-3--3--3-3--3--3-3--3--3-3--5--5-5--5--5-5--5--5-5--5--5-5--|
A|-0--0-0--0--0-0--0--0-0--0--0-0--5--5-5--5--5-5--5--5-5--5--5-5--|
E|---------------------------------3--3-3--3--3-3--3--3-3--3--3-3--|

Guitar 2:
e|------------------|
B|-----5-6----------|
G|-2-3-----3---5-2--|
D|------------------|
A|------------------|
E|------------------|

Guitar 1:
"Well it's true, yes, but you won't get far telling me that you..."
e|-0--0-0--0--0-0--0--0-0--0--0-0--0--0-0--0--0-0--0---------------|
B|-1--1-1--1--1-1--1--1-1--1--1-1--1--1-1--1--1-1--1---------------|
G|-2--2-2--2--2-2--2--2-2--2--2-2--2--2-2--2--2-2--2---------------|
D|-2--2-2--2--2-2--2--2-2--2--2-2--2--2-2--2--2-2--2---------------|
A|-0--0-0--0--0-0--0--0-0--0--0-0--0--0-0--0--0-0--0---------------|
E|-----------------------------------------------------------------|

Guitar 2:
e|---------------------|
B|-1----3----5----6----|
G|---------------------|
D|---------------------|
A|---------------------|
E|---------------------|

Guitar 3:
e|---------------------------------|
B|--------1-/5-\3--1-/3-/5---5-/6--|
G|-3-/5----------------------------|
D|---------------------------------|
A|---------------------------------|
E|---------------------------------|

Chorus:
Guitar 1:
"...are all you're meant to
Be, when the one from my
Dream is sitting right next to
Me and I don't know what to..."
e|-------------------------------------------------------------------|
B|-1--1-1--1--1.-1--1-1--1-1--1--1.-1--1-1--1-1--1--1-1--0--0--0-0-0-|
G|-2--2-2--2--2.-2--2-2--2-2--2--2.-2--2-2--2-2--2--2-2--0--0--0-0-0-| x4
D|-3--3-3--3--3.-3--3-3--3-3--3--3.-3--3-3--3-3--3--3-3--2--2--2-2-2-|
A|-3--3-3--3--3.-3--3-3--3-3--3--3.-3--3-3--3-3--3--3-3--2--2--2-2-2-|
E|-------------------------------------------------------------------|

Guitar 1:
"...do"
e|-------------------------------------------------------|
B|-1--1-1--1--1.-1--1-1--1-1--1--1.-1--1-1--1-1--1--1-1--|
G|-2--2-2--2--2.-2--2-2--2-2--2--2.-2--2-2--2-2--2--2-2--|
D|-3--3-3--3--3.-3--3-3--3-3--3--3.-3--3-3--3-3--3--3-3--|
A|-3--3-3--3--3.-3--3-3--3-3--3--3.-3--3-3--3-3--3--3-3--|
E|-------------------------------------------------------|

Guitar 1:
"Oh, alter ego"
e|-0--0-0--5--5-5--3--3-3--3--3-3--3--3-3--3--3-3--3--3-3--3--3-3--3--3-3--3--3-3--|
B|-0--0-0--5--5-5--3--3-3--3--3-3--3--3-3--3--3-3--3--3-3--3--3-3--3--3-3--3--3-3--|
G|-1--1-1--6--6-6--4--4-4--4--4-4--4--4-4--4--4-4--5--5-5--5--5-5--5--5-5--5--5-5--|
D|-2--2-2--7--7-7--5--5-5--5--5-5--5--5-5--5--5-5--3--3-3--3--3-3--3--3-3--3--3-3--|
A|-2--2-2--7--7-7--5--5-5--5--5-5--5--5-5--5--5-5--5--5-5--5--5-5--5--5-5--5--5-5--|
E|-0--0-0--5--5-5--3--3-3--3--3-3--3--3-3--3--3-3--3--3-3--3--3-3--3--3-3--3--3-3--|

Guitar 1 - end with this chord:
e|-3-----|
B|-5-----|
G|-4-----|
D|-5-----|
A|-3-----|
E|-------|


************************************

| /   slide up
| \   slide down
| h   hammer-on
| p   pull-off
| ~   vibrato
| .   staccato (play quickly, then mute) 
| +   harmonic
| x   Mute note
| b   Bend
| pb  Pre-bend
| br  Bend release
| pbr Pre-bend release
| brb Bend release bend

************************************

--------------------------------------------------------------------------------------
                                       Track 04
                                       Lucidity
--------------------------------------------------------------------------------------

Verse:
"I know where you went, but I don't know how you got there,
I know where you went, but I don't know how you got there,
Silver tongue hill where you talk up what I'd play down,
I would speak up, but I wouldn't know what to say"
e|-7-7-7-7-7--7-7--7--7--7-7-7--7-7-7-7-7--7-7--7--7--7-7-7--|
B|-7-7-7-7-7--7-7--7--7--7-7-7--9-9-9-9-9--9-9--9--9--9-9-9--|
G|-7-7-7-7-7--7-7--7--7--7-7-7--9-9-9-9-9--9-9--9--9--9-9-9--| x4
D|-7-7-7-7-7--7-7--7--7--7-7-7--9-9-9-9-9--9-9--9--9--9-9-9--|
A|-7-7-7-7-7--7-7--7--7--7-7-7--7-7-7-7-7--7-7--7--7--7-7-7--|
E|-----------------------------------------------------------|

Fuzz guitar riff:
"To say,
Oh, to say"
e|----------------------------------------------------|
B|----------------------------------------------------|
G|----------------------------------------------------| x4
D|-12-12-11----11-------------------------------------|
A|----------14-----12-12-14--11--12--11-12-14-14-14---|
E|-----------------------------------------------12---|

Verse chords again:
e|-7-7-7-7-7--7-7--7--7--7-7-7--7-7-7-7-7--7-7--7--7--7-7-7--|
B|-7-7-7-7-7--7-7--7--7--7-7-7--9-9-9-9-9--9-9--9--9--9-9-9--|
G|-7-7-7-7-7--7-7--7--7--7-7-7--9-9-9-9-9--9-9--9--9--9-9-9--|
D|-7-7-7-7-7--7-7--7--7--7-7-7--9-9-9-9-9--9-9--9--9--9-9-9--|
A|-7-7-7-7-7--7-7--7--7--7-7-7--7-7-7-7-7--7-7--7--7--7-7-7--|
E|-----------------------------------------------------------|

Chorus:
"Lucidity, come back to me,
Put all five senses back to where they're meant to be,
Ooh, it's hard to tell,
Breaks down, there is a will there is a..."
e|-7----5--5----7----5--5----3----|
B|-7----7--5----7----7--5----3----|
G|-8----6--6----8----6--6----4----| x2
D|-9----7--7----9----7--7----5----|
A|-9----5--7----9----5--7----5----|
E|-7-------5----7-------5----3----|

Short little guitar arpeggio:
"...way"
e|---------------------|
B|----5------------7---|
G|------5-------7----7-|
D|-5--------5/7--------|
A|---------------------|
E|---------------------|

Verse:
"Wandering around like spare time never knew it,
I might suck fizzle or I might just float away"
e|-7-7-7-7-7--7-7--7--7--7-7-7--7-7-7-7-7--7-7--7--7--7-7-7--|
B|-7-7-7-7-7--7-7--7--7--7-7-7--9-9-9-9-9--9-9--9--9--9-9-9--|
G|-7-7-7-7-7--7-7--7--7--7-7-7--9-9-9-9-9--9-9--9--9--9-9-9--| x3
D|-7-7-7-7-7--7-7--7--7--7-7-7--9-9-9-9-9--9-9--9--9--9-9-9--|
A|-7-7-7-7-7--7-7--7--7--7-7-7--7-7-7-7-7--7-7--7--7--7-7-7--|
E|-----------------------------------------------------------|

Guitar solo:
"Float away"
e|-7h9p7---5\2/4---9\7\5--4/5\4-0------------------------------7h9p7---|
B|----------------------------------5-h7p5-----------------------------|
G|-----------------------------------------7--6-7-7\2-2/6--7-----------|
D|---------------------------------------------------------------------|
A|---------------------------------------------------------------------|
E|---------------------------------------------------------------------|

Chorus:
"And we'll go running off tonight,
High above, where we won't even need to reach the sky, my love,
Ooh, there will be a change in the air,
Nobody will be anybody..."
e|-7----5--5----7----5--5----3----|
B|-7----7--5----7----7--5----3----|
G|-8----6--6----8----6--6----4----| x2
D|-9----7--7----9----7--7----5----|
A|-9----5--7----9----5--7----5----|
E|-7-------5----7-------5----3----|

Short little guitar fill:
"...else"
e|-5-/7\5--3/5/7--8/10-/12--14/15/17/19-|
B|--------------------------------------|
G|--------------------------------------|
D|--------------------------------------|
A|--------------------------------------|
E|--------------------------------------|

Fuzz guitar riff:
e|----------------------------------------------------|
B|----------------------------------------------------|
G|----------------------------------------------------| x4
D|-12-12-11----11-------------------------------------|
A|----------14-----12-12-14--11--12--11-12-14-14-14---|
E|-----------------------------------------------12---|

Chorus:
"Lucidity, come back to me,
Put all five senses back to where they're meant to be,
Ooh, where we'll go,
Tip toe, tread boldly right down to the..."
e|-7----5--5----7----5--5----3----|
B|-7----7--5----7----7--5----3----|
G|-8----6--6----8----6--6----4----| x2
D|-9----7--7----9----7--7----5----|
A|-9----5--7----9----5--7----5----|
E|-7-------5----7-------5----3----|

Bridge:
"...lair"
e|---------------------------------|
B|---------------------------------|
G|---------------------------------| x2
D|-4----5--7--9--4----9--7----5----|
A|-4----5--7--9--4----9--7----5----|
E|-2----3--5--7--2----7--5----3----|

e|------|
B|------|
G|------|
D|-4~~~-|
A|------|
E|------|

Crazy outro fuzz guitar solo. It was pretty hard to decipher it under all the fuzz,
but this is what I could make out:
e|----------------------------------------------------14----12--------------|
B|-12-------12--------------------------------------------------------------|
G|-14b16----14b16r14b16~~~---14p13-13~---14b16-11--11----11----11-13--------|
D|-------------------------------------------------------------------14~~~--|
A|--------------------------------------------------------------------------|
E|--------------------------------------------------------------------------|

e|--------------------------------------------------------------------------|
B|--------------------------------------------------------------------------|
G|--------------------------------------------------------------------------|
D|-9-9--9--9--9-9-9--7/9-9-9-9-9--7/9-9--7/9-9------------------------------|
A|--------------------------------------------------------------------------|
E|----------------------------------------------7-7-7-7-7--5/7-7--5/7-7--0--|

Play these chords underneath the solo:
e|-7-7-7-7-7--7-7--7--7--7-7-7--7-7-7-7-7--7-7--7--7--7-7-7--|
B|-7-7-7-7-7--7-7--7--7--7-7-7--9-9-9-9-9--9-9--9--9--9-9-9--|
G|-7-7-7-7-7--7-7--7--7--7-7-7--9-9-9-9-9--9-9--9--9--9-9-9--| x4
D|-7-7-7-7-7--7-7--7--7--7-7-7--9-9-9-9-9--9-9--9--9--9-9-9--|
A|-7-7-7-7-7--7-7--7--7--7-7-7--7-7-7-7-7--7-7--7--7--7-7-7--|
E|-----------------------------------------------------------|

************************************

| /   slide up
| \   slide down
| h   hammer-on
| p   pull-off
| ~   vibrato
| +   harmonic
| x   Mute note
| b   Bend
| pb  Pre-bend
| br  Bend release
| pbr Pre-bend release
| brb Bend release bend

************************************

--------------------------------------------------------------------------------------
                                       Track 05
                           Why Won't You Make Up Your Mind?
--------------------------------------------------------------------------------------

Intro:
This is the main chord
progression that continuously
plays throughout the entire song:
e|-5--6-----0--1-----|
B|-5--6-----0--1-----|
G|-5--7-----0--2-----| x2
D|-7--8-----2--3-----|
A|-7--8-----2--3-----|
E|-5--6-----0--1-----|

Occasionally hit the higher notes
after playing the chords, like this: 
e|-5--6-6----0--1-1----|
B|-5--6---6--0--1---1--|
G|-5--7------0--2------|
D|-7--8------2--3------|
A|-7--8------2--3------|
E|-5--6------0--1------|
It doesn't have to be exact. You can play whatever note or
part of the chord you want and it will sound good.
There's room for improvisation here.

Then a second guitar comes in and plays the same thing:
Guitar 1 and 2:
e|-5--6-----0--1-----|
B|-5--6-----0--1-----|
G|-5--7-----0--2-----| x4
D|-7--8-----2--3-----|
A|-7--8-----2--3-----|
E|-5--6-----0--1-----|

Synth guitar lead then comes in:
Guitar 3:
e|---------5-----8\5----------------------------8\5--------------|
B|---5---6-----------6\3-3--5-------5---5-6---------6\3-3--5-----|
G|-5---7--------------------------5---7--------------------------|
D|---------------------------------------------------------------|
A|---------------------------------------------------------------|
E|---------------------------------------------------------------|

Guitar 1:
e|-5--6-----0--1-----|
B|-5--6-----0--1-----|
G|-5--7-----0--2-----| x2
D|-7--8-----2--3-----|
A|-7--8-----2--3-----|
E|-5--6-----0--1-----|

Verse 1:
There are slight variations and fills played
by the synth guitar, which I will tab.

"Why won't you make up your mind? Give me a sign,
Why won't you make up your mind? Give me a sign,
Am I wasting my time? Living in my head?
You'll be sorry when I make up mine instead"

Synth guitar:
e|---------5-----8\5--------------|---------5-----8\5----------------------|
B|---5---6-----------6\3-3--5-----|---5---6-----------6\3-3--5--5-6-5\3-3--|
G|-5---7--------------------------|-5---7----------------------------------|
D|--------------------------------|----------------------------------------|
A|--------------------------------|----------------------------------------|
E|--------------------------------|----------------------------------------|

e|---------5-----8\5--------------|---------------8\5------------------|
B|---5---6-----------6\3-3--5-----|---5---5-6---------6\3-3--5--6\3-1--|
G|-5---7--------------------------|-5---7------------------------------|
D|--------------------------------|------------------------------------|
A|--------------------------------|------------------------------------|
E|--------------------------------|------------------------------------|

These chords are played behind the synth riff in the verses:
Guitar 1:
e|-5--6-----0--1-----|
B|-5--6-----0--1-----|
G|-5--7-----0--2-----| x4
D|-7--8-----2--3-----|
A|-7--8-----2--3-----|
E|-5--6-----0--1-----|

Fuzzy riff played between the verses:
Guitar 2:
e|------------------------------------------------|
B|------------------------------------------------|
G|------------------------------------------------| x2
D|-2b2.5--0----0-3--5/7-7--2b2.5--3--------7\5-5--|
A|-----------1------------------------0-3---------|
E|----------------------------------1-------------|
The bends are quarter step bends, which is basically bending to halfway between the
two notes, which are E and F in this instance. It's used a lot in blues playing
(listen to the main riff to Spoonful by Cream to get a good example). The bend is
only slight and doesn't have to be exact, so don't over-think it.

A second guitar comes in and harmonises the riff:
Guitar 2:
e|------------------------------------------------|
B|------------------------------------------------|
G|------------------------------------------------| x2
D|-2b2.5--0----0-3--5/7-7--2b2.5--3--------7\5-5--|
A|-----------1------------------------0-3---------|
E|----------------------------------1-------------|

Guitar 3:
e|---------------------------------------------------------|
B|---------------------------------------------------------|
G|-----------7-9-10--12/14-14--------------------14\12-12--| x2
D|-9b9.5--7--------------------9b9.5--10---7-10------------|
A|---------------------------------------8-----------------|
E|---------------------------------------------------------|

If you want to play both the normal and harmonised parts
together, then here they are combined. It's a bit tricky,
but here it is nonetheless:
e|---------------------------------------------------------|
B|-------------5-------------------------------------------|
G|-----------7---10--12/14-14--------------------14\12-12--| x2
D|-9b9.5--7--------------------9b9.5--10-3-7-10------------|
A|-7b7.5--5----5--8--10/12-12--7b7.5---8---------12\10-10--|
E|-----------6---------------------------1-5--8------------|

These chords keep playing very faintly in the background:
Guitar 1:
e|-5--6-----0--1-----|
B|-5--6-----0--1-----|
G|-5--7-----0--2-----| x4
D|-7--8-----2--3-----|
A|-7--8-----2--3-----|
E|-5--6-----0--1-----|

Verse 2:
"Why won't you make up your mind? Give me a sign,
Why won't you make up your mind? Give me a sign"

Synth guitar:
e|---------5-----8\5--------------|
B|---5---6-----------6\3-3--5-----|
G|-5---7--------------------------| x2
D|--------------------------------|
A|--------------------------------|
E|--------------------------------|

Guitar 1:
e|-5--6-----0--1-----|
B|-5--6-----0--1-----|
G|-5--7-----0--2-----| x2
D|-7--8-----2--3-----|
A|-7--8-----2--3-----|
E|-5--6-----0--1-----|

The synth riff stops and the chords play on their own at this bit:
"Am I wasting my time? Living in my head?
You'll be sorry when I make up mine instead"

Guitar 1 and 2:
e|-5--6-----0--1-----|
B|-5--6-----0--1-----|
G|-5--7-----0--2-----| x2
D|-7--8-----2--3-----|
A|-7--8-----2--3-----|
E|-5--6-----0--1-----|

Outro jam:
Synth guitar:
e|---------------------|---------5--8/10-10-10--8\5----------------------|
B|-5---5---5---5---5---|---5---6--------------------6\3-3--5--5-6-5-3-1--|
G|---7---7---7---7---7-|-5---7-------------------------------------------|
D|---------------------|-------------------------------------------------|
A|---------------------|-------------------------------------------------|
E|---------------------|-------------------------------------------------|

e|---------5-----7/8\7-5---------------5--|---------5-7-8-10----------------------|
B|---5---6----------------6\3-3--5-6-8----|---5---6-----------5---5h6-5--3h5-3-1--|
G|-5---7----------------------------------|-5---7---------------------------------|
D|----------------------------------------|---------------------------------------|
A|----------------------------------------|---------------------------------------|
E|----------------------------------------|---------------------------------------|

e|---------------8\5--------------|---------------8\5--------------|
B|---5---5-6---------6\3-3--5-----|---5---5-6---------6\3-3--5-----|
G|-5---7--------------------------|-5---7--------------------------|
D|--------------------------------|--------------------------------|
A|--------------------------------|--------------------------------|
E|--------------------------------|--------------------------------|

e|-------------5-8-8\5------------5-6-5------------------|
B|---5---5-6-8---------6\3-3--5-6-------8-6-5-3-5-6-8-6--|
G|-5---7-------------------------------------------------|
D|-------------------------------------------------------|
A|-------------------------------------------------------|
E|-------------------------------------------------------|

Fuzzy guitar:
e|------------------------------------------------|
B|------------------------------------------------|
G|------------------------------------------------| x5
D|-2b2.5--0----0-3--5/7-7--2b2.5--3--------7\5-5--|
A|-----------1------------------------0-3---------|
E|----------------------------------1-------------|

e|------------------------|
B|-13b15--11p10-11p10~~~~~|
G|------------------------|
D|------------------------|
A|------------------------|
E|------------------------|

e|--------------------------------------------------------------------------|
B|--------------------------------------------------------------------------|
G|-/10---9h10-9--7h9-7--5h7-5--3h5-3--2h3-2--0h2-0----5\4/5-/10--9\7-7/9-7--|
D|--------------------------------------------------3-----------------------|
A|--------------------------------------------------------------------------|
E|--------------------------------------------------------------------------|

e|------------------|
B|-10----------10---|
G|------12b14-------|
D|------------------|
A|------------------|
E|------------------|

The main chords are played very faintly in the background again:
Guitar 1:
e|-5--6-----0--1-----|
B|-5--6-----0--1-----|
G|-5--7-----0--2-----| x8
D|-7--8-----2--3-----|
A|-7--8-----2--3-----|
E|-5--6-----0--1-----|

The ending parts of the fuzzy riff and synth riff were deciphered by increasing the
volume as the song fades out. You can't really hear them unless you turn the volume
up, but that's how the song ends, so I thought I'd include them. Those parts actually
sound really, really awesome, and I wish there was an extended version with them
continuing on rather than fading out.

Have fun with it!


************************************

| /   slide up
| \   slide down
| h   hammer-on
| p   pull-off
| ~   vibrato
| +   harmonic
| x   Mute note
| b   Bend
| pb  Pre-bend
| br  Bend release
| pbr Pre-bend release
| brb Bend release bend

************************************

--------------------------------------------------------------------------------------
                                       Track 06
                                   Solitude Is Bliss
--------------------------------------------------------------------------------------

Intro/main riff:
    D  U   D  U   D   D  U   D  D    D  U   D  U   D   D  U   D   D
e|-10-10--10-10--10--10-10--10--8--------------------------------10--|
B|-10-10--10-10--10--10-10--10--8---10-10--10-10--10--12-12--12--10--|
G|-11-11--11-11--11--11-11--11--9---10-10--10-10--10--12-12--12--11--| x6
D|-12-12--12-12--12--12-12--12--10---8--8---8--8---8--10-10--10--12--|
A|-12-12--12-12--12--12-12--12--10---8--8---8--8---8--10-10--10--12--|
E|-10-10--10-10--10--10-10--10--8--------------------------------10--|

After the first time the intro riff is played this is played
underneath it by a second guitar until the drums kick in:
e|------------------------------------------------------------------|
B|------------------------------------------------------------------|
G|------------------------------------------------------------------|
D|---------------12-------------12-------------12-------------------|
A|------------------------------------------------------------------|
E|------------------------------------------------------------------|

Verse:
"Cracks in the pavement underneath my shoe,
I care less and less about and less about you"
e|-----------------------------|
B|-----------------------------|
G|-----------------------------| x4
D|-----------------------------|
A|-----------------------------|
E|-12-12-12-12-12--14\12-12-12-|

"no one else around to look at me, so I can..."
e|-----------------------------|
B|-----------------------------|
G|-----------------------------| x2
D|-----------------------------|
A|-12-12-12-12-12--14\12-12-12-|
E|-----------------------------|

"...look at my shadow as much as I please, all the..."
e|-----------------------------|
B|-----------------------------|
G|-----------------------------| x2
D|-----------------------------|
A|-----------------------------|
E|-12-12-12-12-12--14\12-12-12-|

Pre-chorus:
"...kicks that I can't compare to, making..."
e|--5--5--5--5-5-5--5-5--5-5--5--|
B|--5--5--5--5-5-5--5-5--5-5--5--|
G|--6--6--6--6-6-6--6-6--6-6--6--|
D|--7--7--7--7-7-7--7-7--7-7--7--|
A|--7--7--7--7-7-7--7-7--7-7--7--|
E|--5--5--5--5-5-5--5-5--5-5--5--|

"...friends like you're all su..."
e|--6--6--6--6-6--|
B|--6--6--6--6-6--|
G|--7--7--7--7-7--|
D|--8--8--8--8-8--|
A|--8--8--8--8-8--|
E|--6--6--6--6-6--|

"...pposed to, but..."
e|--5--5-5-5--5-5--5-5--|
B|--5--5-5-5--5-5--5-5--|
G|--6--6-6-6--6-6--6-6--|
D|--7--7-7-7--7-7--7-7--|
A|--7--7-7-7--7-7--7-7--|
E|--5--5-5-5--5-5--5-5--|

Chorus:
"...you will never come close to how I feel,
you will never come close to how I feel"
   D  U   D  U   D   D  U   D   D   D  U   D  U   D  D  U   D   D
e|-10-10--10-10--10--10-10--10--8--------------------------------10--|
B|-10-10--10-10--10--10-10--10--8---10-10--10-10--10--12-12--12--10--|
G|-11-11--11-11--11--11-11--11--9---10-10--10-10--10--12-12--12--11--| x4
D|-12-12--12-12--12--12-12--12--10---8--8---8--8---8--10-10--10--12--|
A|-12-12--12-12--12--12-12--12--10---8--8---8--8---8--10-10--10--12--|
E|-10-10--10-10--10--10-10--10--8--------------------------------10--|

Verse:
"Space all 'round me where my soul can breathe,
off-guard body that my mind can leave"
e|-----------------------------|
B|-----------------------------|
G|-----------------------------| x4
D|-----------------------------|
A|-----------------------------|
E|-12-12-12-12-12--14\12-12-12-|

A second guitar plays this just after "soul can breathe":
e|----------------|
B|----------------|
G|-------12--14~~~|
D|--/14-----------|
A|----------------|
E|----------------|

"nothing else matters I don't care what I miss"
e|-----------------------------|
B|-----------------------------|
G|-----------------------------| x2
D|-----------------------------|
A|-12-12-12-12-12--14\12-12-12-|
E|-----------------------------|

"company's okay, solitude is bliss"
e|-----------------------------|
B|-----------------------------|
G|-----------------------------| x2
D|-----------------------------|
A|-----------------------------|
E|-12-12-12-12-12--14\12-12-12-|

Another guitar plays this on the words "solitude is bliss"
e|-----------------------------|
B|-----------------------------|
G|-----------------------------|
D|-14.-14.-14-14.-14.-14-------|
A|-----------------------------|
E|-----------------------------|

Pre-chorus:
"there's a party in my head, and..."
e|--5--5--5--5-5-5--5-5--5-5--5--|
B|--5--5--5--5-5-5--5-5--5-5--5--|
G|--6--6--6--6-6-6--6-6--6-6--6--|
D|--7--7--7--7-7-7--7-7--7-7--7--|
A|--7--7--7--7-7-7--7-7--7-7--7--|
E|--5--5--5--5-5-5--5-5--5-5--5--|

"...no one is in..."
e|--6--6--6--6-6--|
B|--6--6--6--6-6--|
G|--7--7--7--7-7--|
D|--8--8--8--8-8--|
A|--8--8--8--8-8--|
E|--6--6--6--6-6--|

"...vited, and..."
e|--5--5-5-5--5-5--5-5--|
B|--5--5-5-5--5-5--5-5--|
G|--6--6-6-6--6-6--6-6--|
D|--7--7-7-7--7-7--7-7--|
A|--7--7-7-7--7-7--7-7--|
E|--5--5-5-5--5-5--5-5--|

Chorus:
"...you will never come close to how I feel,
you will never come close to how I feel"
   D  U   D  U   D   D  U   D   D   D  U   D  U   D  D  U   D   D
e|-10-10--10-10--10--10-10--10--8--------------------------------10--|
B|-10-10--10-10--10--10-10--10--8---10-10--10-10--10--12-12--12--10--|
G|-11-11--11-11--11--11-11--11--9---10-10--10-10--10--12-12--12--11--| x4
D|-12-12--12-12--12--12-12--12--10---8--8---8--8---8--10-10--10--12--|
A|-12-12--12-12--12--12-12--12--10---8--8---8--8---8--10-10--10--12--|
E|-10-10--10-10--10--10-10--10--8--------------------------------10--|

Pre-solo:
e|-----------------------------|
B|-----------------------------|
G|-----------------------------| x4
D|-----------------------------|
A|-----------------------------|
E|-12-12-12-12-12--14\12-12-12-|

A second guitar plays this on the
third repeat of the riff above:
e|----------------|
B|----------------|
G|-------12--14~~~|
D|--/14-----------|
A|----------------|
E|----------------|

Solo:
e|----------------------------------------------------------------------|
B|----------------------------------------------------------------------|
G|-12---12-12---10-12-10----8-10---8-10-8---7-8---7-8-7-5-3h5--5--5p3-1-|
D|-----------------------10---------------8-----------------------------|
A|----------------------------------------------------------------------|
E|----------------------------------------------------------------------|

This is played underneath the solo:
e|--8--8---6---4--4-4--4-4--4-4--|
B|--8--8---6---4--4-4--4-4--4-4--|
G|--9--9---7---5--5-5--5-5--5-5--| x4
D|-10-10---8---6--6-6--6-6--6-6--|
A|-10-10---8---6--6-6--6-6--6-6--|
E|--8--8---6---4--4-4--4-4--4-4--|

"Movement doesn't flow,
quite like it does when I'm alone"
e|-1--1--1-1--1--1-1--1--1--1-1--1--1-1--6--6--6-6--6--6-6--4--4--4-4--4--4-4--|
B|-1--1--1-1--1--1-1--1--1--1-1--1--1-1--6--6--6-6--6--6-6--4--4--4-4--4--4-4--|
G|-2--2--2-2--2--2-2--2--2--2-2--2--2-2--7--7--7-7--7--7-7--5--5--5-5--5--5-5--| x2
D|-3--3--3-3--3--3-3--3--3--3-3--3--3-3--8--8--8-8--8--8-8--6--6--6-6--6--6-6--|
A|-3--3--3-3--3--3-3--3--3--3-3--3--3-3--8--8--8-8--8--8-8--6--6--6-6--6--6-6--|
E|-1--1--1-1--1--1-1--1--1--1-1--1--1-1--6--6--6-6--6--6-6--4--4--4-4--4--4-4--|

A second guitar plays these small fills:
e|---------------------------------------------|
B|---------------------------------------------|
G|-10-\8\5---\3--------------------------------|
D|---------------------------------------------|
A|---------------------------------------------|
E|----------------------8~~~~~-3-/5-/6--/8~~~~~|

                                        "I'll be the one who's free"
e|-1--1--1-1--1--1-1--1--1--1-1--1--1-1--6--6--6-6--6--6-6-----4----|
B|-1--1--1-1--1--1-1--1--1--1-1--1--1-1--6--6--6-6--6--6-6-----4----|
G|-2--2--2-2--2--2-2--2--2--2-2--2--2-2--7--7--7-7--7--7-7-----5----|
D|-3--3--3-3--3--3-3--3--3--3-3--3--3-3--8--8--8-8--8--8-8-----6----|
A|-3--3--3-3--3--3-3--3--3--3-3--3--3-3--8--8--8-8--8--8-8-----6----|
E|-1--1--1-1--1--1-1--1--1--1-1--1--1-1--6--6--6-6--6--6-6-----4----|

"You and all your friends can watch me..."
e|-------------------------------------|
B|-8-----------------------------------|
G|-8-----------------------------------|
D|-8-----------------------------------|
A|-6-----------------------------------|
E|-------------------------------------|

Second bridge:
e|--9---9---9--9--9-7-----------------|
B|--9---9---9--9--9-7---9--9--9-9--9--|
G|-10--10--10-10-10-8---9--9--9-9--9--|
D|-11--11--11-11-11-9---7--7--7-7--7--|
A|-11--11--11-11-11-9---7--7--7-7--7--|
E|--9---9---9--9--9-7-----------------|

                    "...today"
e|--9---9---9--9--9-7-------------------------|
B|--9---9---9--9--9-7---9--9--9-9--11.-11-11--|
G|-10--10--10-10-10-8---9--9--9-9--11.-11-11--|
D|-11--11--11-11-11-9---7--7--7-7---9.--9--9--|
A|-11--11--11-11-11-9---7--7--7-7---9.--9--9--|
E|--9---9---9--9--9-7-------------------------|

e|--9---9---9--9--9-7-----------------|
B|--9---9---9--9--9-7---9--9--9-9--9--|
G|-10--10--10-10-10-8---9--9--9-9--9--|
D|-11--11--11-11-11-9---7--7--7-7--7--|
A|-11--11--11-11-11-9---7--7--7-7--7--|
E|--9---9---9--9--9-7-----------------|

A second guitar plays this riff throughout
the chord progression above:
e|----------------------------------------|
B|----------------------------------------|
G|----------------------------------------| x3
D|---------------9--9--11--11--11-11--11--|
A|----------9h11--------------------------|
E|--9--9--9-------------------------------|

Pre-chorus:
"Don't ask me how you're supposed to, 'cause..."
   D  D  D  D  U         U
e|-5--5--5--5--5---------5------|
B|-5--5--5--5---5---------5-----|
G|-6--6--6--6----6---------6----| arpeggiate the last
D|-7--7--7--7-----7-------------| part of the chord
A|-7--7--7--7------7------------|
E|-5--5--5--5-------5-----------|

"...you will never come close to how I feel,
you will never come close to how I feel,
you will never come close to how I feel,
you will never come close to how I feel"
   D  U   D  U   D   D  U   D   D   D  U   D  U   D  D  U   D   D
e|-10-10--10-10--10--10-10--10--8--------------------------------10--|
B|-10-10--10-10--10--10-10--10--8---10-10--10-10--10--12-12--12--10--|
G|-11-11--11-11--11--11-11--11--9---10-10--10-10--10--12-12--12--11--| x8
D|-12-12--12-12--12--12-12--12--10---8--8---8--8---8--10-10--10--12--|
A|-12-12--12-12--12--12-12--12--10---8--8---8--8---8--10-10--10--12--|
E|-10-10--10-10--10--10-10--10--8--------------------------------10--|

Fade out.


************************************

| /   slide up
| \   slide down
| D   downstroke
| U   upstroke
| h   hammer-on
| p   pull-off
| ~   vibrato
| +   harmonic
| x   Mute note
| b   Bend
| pb  Pre-bend
| br  Bend release
| pbr Pre-bend release
| brb Bend release bend

************************************

--------------------------------------------------------------------------------------
                                       Track 07
                                    Jeremy's Storm
--------------------------------------------------------------------------------------

This song is played in D standard tuning. If you want to sound like the recorded
version then you must tune down, otherwise it will be two semitones wrong. Because
this song uses a lot of open notes and finger picking, there's no way of transposing
this song to E standard, so either tune down or play it in a different key.

Intro/finger-picking section:
Guitar 1:
d|-7-------------------5-----7-------------------5--|
A|-------5----------5--------------5----------5-----|
F|-------------5h7-----------------------5h7--------|
C|----5-----5-------------------5-----5-------------|
G|-0----------------------0--0----------------------|
D|--------------------------------------------------|

d|-4-------------------2-----4-------------------2--|
A|-------2----------2--------------2----------2-----|
F|-------------2h4-----------------------2h4--------|
C|----2-----2-------------------2-----2-------------|
G|-0----------------------0--0----------------------|
D|--------------------------------------------------|

d|-0-----------------------1--------------------|
A|-------1-----------------------1--------------|
F|-------------2-----------------------2--------|
C|----3-----3--------3--------3-----3--------3--|
G|-3--------------3-----3--3--------------3-----|
D|----------------------------------------------|

d|-1---------------------------------------6--|
A|-------1-----3---------------------6--------|
F|-------------------3---------8--------8-----|
C|----3-----------3------6--------6-----------|
G|-1--------1---------------8-----------------|
D|-----------------------6--------------------|

Guitar 1 and 2:
Second guitar comes in:
d|-7-------------------5-----7-------------------5--| \
A|-------5----------5--------------5----------5-----|  \
F|-------------5h7-----------------------5h7--------|   \
C|----5-----5-------------------5-----5-------------|    \
G|-0----------------------0--0----------------------|     \
D|--------------------------------------------------|      \
                                                            |
d|-4-------------------2-----4-------------------2--|       |
A|-------2----------2--------------2----------2-----|       |
F|-------------2h4-----------------------2h4--------|       |
C|----2-----2-------------------2-----2-------------|       |
G|-0----------------------0--0----------------------|       |
D|--------------------------------------------------|       |
                                                            | x3
d|-0-----------------------1--------------------|           |
A|-------1-----------------------1--------------|           |
F|-------------2-----------------------2--------|           |
C|----3-----3--------3--------3-----3--------3--|           |
G|-3--------------3-----3--3--------------3-----|           |
D|----------------------------------------------|           |
                                                            |
d|-1---------------------------------------6--|            /
A|-------1-----3---------------------6--------|           /
F|-------------------3---------8--------8-----|          /
C|----3-----------3------6--------6-----------|         /
G|-1--------1---------------8-----------------|        /
D|-----------------------6--------------------|       /

Guitar 1 and 2:
d|-7-------------------5-----7-------------------5--|
A|-------5----------5--------------5----------5-----|
F|-------------5h7-----------------------5h7--------|
C|----5-----5-------------------5-----5-------------|
G|-0----------------------0--0----------------------|
D|--------------------------------------------------|

d|-4-------------------2-----4-------------------2--|
A|-------2----------2--------------2----------2-----|
F|-------------2h4-----------------------2h4--------|
C|----2-----2-------------------2-----2-------------|
G|-0----------------------0--0----------------------|
D|--------------------------------------------------|

Arpeggio rundown:
Guitar 1:
d|-0---------------------------------------------| \
A|-------1------------------------------------4--|  \
F|-------------2------------------------2--------|   \
C|-------------------3-----2-----3---------------|    |
G|-3--3-----3-----3-----3-----3------3-----3-----|    |
D|-----------------------------------------------|    |
                                                      | x2
d|-0---------------------------------------------|    |
A|-------0------------------------------------4--|    |
F|-------------1------------------------1--------|    |
C|-------------------2-----1-----2---------------|   /
G|-2--2-----2-----2-----2-----2------2-----2-----|  /
D|-----------------------------------------------| /

A second guitar comes in quietly in the background:
Guitar 1:
d|-0---------------------------------------------|
A|-------1------------------------------------4--|
F|-------------2------------------------2--------|
C|-------------------3-----2-----3---------------|
G|-3--3-----3-----3-----3-----3------3-----3-----|
D|-----------------------------------------------|

d|-0---------------------------------------------|
A|-------0------------------------------------4--|
F|-------------1------------------------1--------|
C|-------------------2-----1-----2---------------|
G|-2--2-----2-----2-----2-----2------2-----2-----|
D|-----------------------------------------------|

d|-0---------------------------------------------|
A|-------1------------------------------------4--|
F|-------------2------------------------2--------|
C|-------------------3-----2-----3---------------|
G|-3--3-----3-----3-----3-----3------3-----3-----|
D|-----------------------------------------------|

d|-0-------------------------|
A|-------0-------------------|
F|-------------1-------------|
C|-------------------2-------|
G|-2--2-----2-----2----------|
D|----------------------0----|

Guitar 2 (with fuzz):
d|------------------------------|---------------------------|
A|-4--5/1--1-----------------4--|-5/0--0-----------------4--|
F|------------2-----------2-----|---------1-----------1-----|
C|---------------3--2--3--------|------------2--1--2--------|
G|------------------------------|---------------------------|
D|------------------------------|---------------------------|

d|------------------------------|--------------------|
A|-4--5/1--1-----------------4--|-5/0--0-------------|
F|------------2-----------2-----|---------1----------|
C|---------------3--2--3--------|------------2-------|
G|------------------------------|--------------------|
D|------------------------------|---------------0----|

First rhythm and lead section:
Guitar 1:
d|------------------|
A|------------------|
F|------------------| x8
C|------------------|
G|----7------7------|
D|-0----0-0----0-0--|

Guitar 2:
d|---------------7--|---------------7--|------------------|---------------7--|
A|-------------7----|-------------7----|---------------7--|-------------7----|
F|------------------|------------------|-------------7----|------------------| x2
C|------------------|------------------|------------------|------------------|
G|------------------|------------------|------------------|------------------|
D|------------------|------------------|------------------|------------------|

Guitar 2 makes crazy sound effects in this section, which are mostly untabbable.
Guitar 1:
d|------------------|
A|------------------|
F|------------------| x8
C|------------------|
G|----7------7------|
D|-0----0-0----0-0--|

Guitar 1:
d|-----------------------|
A|-----------------------|
F|-----------------------| x4
C|---------------5/7--5--|
G|----7------7---7/9--7--|
D|-0----0-0----0---------|

Guitar 2 (with fuzz):
d|-----------------------|
A|-----------------------|
F|-----------------------| x4
C|-----------------------|
G|---------------7/9--7--|
D|-----------------------|

Guitar 1:
d|--------------------|
A|--------------------|
F|--------------------| x2
C|---------------5-4--|
G|----7------7---7-6--|
D|-0----0-0----0------|

Guitar 1:
d|------------------------------------------|
A|------------------------------------------|
F|------------------------------------------| x2
C|---------------5/7--5----------------5-4--|
G|----7------7---7/9--7-----7------7---7-6--|
D|-0----0-0----0---------0----0-0----0------|

Guitar 1:
d|------------------|
A|------------------|
F|------------------| x2
C|------------------|
G|----7------7------|
D|-0----0-0----0-0--|

Mini-guitar solo:
Guitar 1:
Quietly in the background:
d|------------------|
A|------------------|
F|------------------| x4
C|------------------|
G|----7------7------|
D|-0----0-0----0-0--|

Guitar 2:
d|---------------7--|---------------7--|------------------|---------------7--|
A|-------------7----|-------------7----|---------------7--|-------------7----|
F|------------------|------------------|-------------7----|------------------|
C|------------------|------------------|------------------|------------------|
G|------------------|------------------|------------------|------------------|
D|------------------|------------------|------------------|------------------|

Guitar 1:
Quietly in the background:
d|------------------|
A|------------------|
F|------------------| x8
C|------------------|
G|----7------7------|
D|-0----0-0----0-0--|

Guitar 2:
d|---------------7--|---------------7--|------------------|---------------7--|
A|-------------7----|-------------7----|---------------7--|-------------7----|
F|------------------|------------------|-------------7----|------------------| x2
C|------------------|------------------|------------------|------------------|
G|------------------|------------------|------------------|------------------|
D|------------------|------------------|------------------|------------------|

Guitar 3:
d|---------14p12----|------------------|-14p12------------|------------------|
A|------------------|------------------|--------14\12-----|---14b15r14-12----|
F|------------------|------------------|------------------|------------------|
C|------------------|------------------|------------------|------------------|
G|------------------|------------------|------------------|------------------|
D|------------------|------------------|------------------|------------------|

d|------------------|------------------|------------------|------------------|
A|------------------|------------------|------------------|------------------|
F|------------------|------------------|------------------|------------------|
C|------------------|-----14\12~~~~~~~~|~~~~~~~~~~~~~~~~~~|-11---------------|
G|------------------|------------------|------------------|-----12/14~~~~~~~-|
D|------------------|------------------|------------------|------------------|

Finger-picking section:
Guitar 1 and 2:
d|-7-------------------5-----7-------------------5--| \
A|-------5----------5--------------5----------5-----|  \
F|-------------5h7-----------------------5h7--------|   \
C|----5-----5-------------------5-----5-------------|    \
G|-0----------------------0--0----------------------|     \
D|--------------------------------------------------|      \
                                                            |
d|-4-------------------2-----4-------------------2--|       |
A|-------2----------2--------------2----------2-----|       |
F|-------------2h4-----------------------2h4--------|       |
C|----2-----2-------------------2-----2-------------|       |
G|-0----------------------0--0----------------------|       |
D|--------------------------------------------------|       |
                                                            | x2
d|-0-----------------------1--------------------|           |
A|-------1-----------------------1--------------|           |
F|-------------2-----------------------2--------|           |
C|----3-----3--------3--------3-----3--------3--|           |
G|-3--------------3-----3--3--------------3-----|           |
D|----------------------------------------------|           |
                                                            |
d|-1---------------------------------------6--|            /
A|-------1-----3---------------------6--------|           /
F|-------------------3---------8--------8-----|          /
C|----3-----------3------6--------6-----------|         /
G|-1--------1---------------8-----------------|        /
D|-----------------------6--------------------|       /

Guitar 1 and 2:
d|-7-------------------5-----7-------------------5--|
A|-------5----------5--------------5----------5-----|
F|-------------5h7-----------------------5h7--------|
C|----5-----5-------------------5-----5-------------|
G|-0----------------------0--0----------------------|
D|--------------------------------------------------|

d|-4-------------------2-----4-------------------2--|
A|-------2----------2--------------2----------2-----|
F|-------------2h4-----------------------2h4--------|
C|----2-----2-------------------2-----2-------------|
G|-0----------------------0--0----------------------|
D|--------------------------------------------------|

Arpeggio rundown:
Guitar 1:
d|-0---------------------------------------------|
A|-------1------------------------------------4--|
F|-------------2------------------------2--------|
C|-------------------3-----2-----3---------------|
G|-3--3-----3-----3-----3-----3------3-----3-----|
D|-----------------------------------------------|

d|-0---------------------------------------------|
A|-------0------------------------------------4--|
F|-------------1------------------------1--------|
C|-------------------2-----1-----2---------------|
G|-2--2-----2-----2-----2-----2------2-----2-----|
D|-----------------------------------------------|

d|-0---------------------------------------------|
A|-------1------------------------------------4--|
F|-------------2------------------------2--------|
C|-------------------3-----2-----3---------------|
G|-3--3-----3-----3-----3-----3------3-----3-----|
D|-----------------------------------------------|

d|-0------------------------------------------|
A|-------0--------------3---------------------|
F|-------------1--------------1------------1--|
C|-------------------2--------------2---------|
G|-2--2-----2-----2-----2--2-----2------2-----|
D|--------------------------------------------|

Guitar 2 (clean):
d|-0-----------------------|-0-----------------------|
A|----1-----------------4--|----0-----------------4--|
F|-------2-----------2-----|-------1-----------1-----|
C|----------3--2--3--------|----------2--1--2--------|
G|-------------------------|-------------------------|
D|-------------------------|-------------------------|

d|-0-----------------------|-0-----------------------|
A|----1-----------------4--|----0--------3-----------|
F|-------2-----------2-----|-------1--------1-----1--|
C|----------3--2--3--------|----------2--------2-----|
G|-------------------------|-------------------------|
D|-------------------------|-------------------------|

Guitar 1:
d|-0---------------------------------------------|
A|-------1------------------------------------4--|
F|-------------2------------------------2--------|
C|-------------------3-----2-----3---------------|
G|-3--3-----3-----3-----3-----3------3-----3-----|
D|-----------------------------------------------|

d|-0---------------------------------------------|
A|-------0------------------------------------4--|
F|-------------1------------------------1--------|
C|-------------------2-----1-----2---------------|
G|-2--2-----2-----2-----2-----2------2-----2-----|
D|-----------------------------------------------|

d|-0---------------------------------------------|
A|-------1------------------------------------4--|
F|-------------2------------------------2--------|
C|-------------------3-----2-----3---------------|
G|-3--3-----3-----3-----3-----3------3-----3-----|
D|-----------------------------------------------|

d|-0-------------------------|
A|-------0-------------------|
F|-------------1-------------|
C|-------------------2-------|
G|-2--2-----2-----2----------|
D|----------------------0----|

Guitar 2 (with fuzz):
d|------------------------------|---------------------------|
A|-4--5/1--1-----------------4--|-5/0--0-----------------4--|
F|------------2-----------2-----|---------1-----------1-----|
C|---------------3--2--3--------|------------2--1--2--------|
G|------------------------------|---------------------------|
D|------------------------------|---------------------------|

d|------------------------------|---------------------------|
A|-4--5/1--1-----------------4--|-5/0--0--------------------|
F|------------2-----------2-----|---------1-----------1-----|
C|---------------3--2--3--------|------------2--1--2--------|
G|------------------------------|---------------------------|
D|------------------------------|------------------------0--|

Second rhythm and lead section:
There are more crazy sound effects in this section made by guitar 2
that are untabbable:
Guitar 1:
d|------------------|
A|------------------|
F|------------------| x8
C|------------------|
G|----7------7------|
D|-0----0-0----0-0--|

Guitar 2:
d|------------------|------------------|------------------|------------------|
A|-12~~~~~~~~~~~~~~~|------------------|------------------|------------------|
F|-14b16~~~~~~~~~~~~|------------------|------------------|------------------|
C|------------------|------------------|------------------|------------------|
G|------------------|------------------|------------------|------------------|
D|------------------|------------------|------------------|------------------|

d|------------------------------|------------------|--------------|--------------|
A|------------------------------|------------------|--------------|--------------|
F|--------12-14b16-14b16-14b16~~|-14b16--12h14-12--|--------------|--------------|
C|-----14-----------------------|------------------|--------------|--------------|
G|------------------------------|------------------|--------------|--------------|
D|-12---------------------------|------------------|--------------|--------------|

Guitar 1:
d|-----------------------|
A|-----------------------|
F|-----------------------| x4
C|---------------5/7--5--|
G|----7------7---7/9--7--|
D|-0----0-0----0---------|

Guitar 1:
d|--------------------|
A|--------------------|
F|--------------------| x4
C|---------------5-4--|
G|----7------7---7-6--|
D|-0----0-0----0------|

Guitar 1:
d|-7--7-7--7--7-7--7--|
A|-7--7-7--7--7-7--7--|
F|-7--7-7--7--7-7--7--| x4
C|-7--7-7--7--7-7--7--|
G|-7--7-7--7--7-7--7--|
D|-0--0-0--0--0-0--0--|

Guitar 1:
d|--------------------|
A|--------------------|
F|--------------------| x4
C|---------------5-4--|
G|----7------7---7-6--|
D|-0----0-0----0------|

Guitar 1 and 3:
d|---------------------|
A|---------------------|
F|---------------------| x4
C|-5--5-5-7--5-5-5--4--|
G|-7--7-7-9--7-7-7--6--|
D|-0--0-0-0--0-0-0--0--|

Guitar 1 and 3:
d|-------------|
A|-------------|
F|-------------| x4
C|-5--6--5--4--|
G|-7--8--7--6--|
D|-0--0--0--0--|

Guitar 1 and 3:
End on this chord:
d|-------------|
A|-------------|
F|-------------|
C|-5-----------|
G|-7-----------|
D|-0-----------|

Outro:
Guitar 2:
Slightly arpeggiate the chord and gently
dip your whammy bar a little bit:
d|-7-----------|
A|-7-----------|
F|-7-----------| x4
C|-7-----------|
G|-7-----------|
D|-0-----------|


************************************

| /   slide up
| \   slide down
| h   hammer-on
| p   pull-off
| ~   vibrato
| +   harmonic
| x   Mute note
| b   Bend
| pb  Pre-bend
| br  Bend release
| pbr Pre-bend release
| brb Bend release bend

************************************

--------------------------------------------------------------------------------------
                                       Track 08
                                      Expectation
--------------------------------------------------------------------------------------

[0:01-0:10]
Guitar:
e|-3-5-|
B|-5-5-|
G|-4-5-|  x8
D|-5-3-|
A|-3---|
E|-----|


[0:11-0:20]
Guitar:
e|-3-5-|
B|-5-5-|
G|-4-5-|  x8
D|-5-3-|
A|-3---|
E|-----|

[0:11-0:20]
Bass:
G|-----|
D|---3-|  x8
A|-3---|
E|-----|


[0:21-0:31]
Guitar:
e|-3--5-3-3--5-|
B|-5--5-5-5--5-|
G|-4--5-4-4--5-|  x4
D|-5--3-5-5--3-|
A|-3----3-3----|
E|-------------|

[0:21-0:31]
Bass:
G|-------------|
D|----3-3----3-|  x4
A|-3------3----|
E|-------------|


[0:31-0:36]
Bass:
G|-5----------|
D|-------3--5-|  x2
A|----3-------|
E|------------|
"Everything you ever told me could've been a lie,
we may never have been in love"


[0:37-0:41]
Guitar:
e|-3--5-3-3--5-|
B|-5--5-5-5--5-|
G|-4--5-4-4--5-|  x2
D|-5--3-5-5--3-|
A|-3----3-3----|
E|-------------|

[0:37-0:41]
Bass:
G|-------------|
D|----3-3----3-|  x2
A|-3------3----|
E|-------------|

[0:37-0:41]
Flangy 2nd guitar:
e|----------------------------------------------------------------------------------|
B|----------------------------------------------------------------------------------|
G|-------------14b16--12---------------12-----14b16r14-12----12--14b16r14-12--------|
D|-14-12-14p12-----------12--14-12--14----14--------------14-----------------14-12--|
A|----------------------------------------------------------------------------------|
E|----------------------------------------------------------------------------------|
(This guitar is buried back in the mix and is hard to make out due to the heavy use
of effects, so this is just a rough estimation. Play it however you like.)


[0:42-0:46]
Bass:
G|-5-------|
D|-----3-5-|  x2
A|---3-----|
E|---------|
"Stuck on thinking that there is always something to lose,
or a hit from above"


[0:47-0:56]
Guitar:
e|-3--5-3-3--5-|
B|-5--5-5-5--5-|
G|-4--5-4-4--5-|  x4
D|-5--3-5-5--3-|
A|-3----3-3----|
E|-------------|

[0:47-0:56]
Bass:
G|-------------|
D|----3-3----3-|  x4
A|-3------3----|
E|-------------|

[0:47-0:56]
Flangy 2nd guitar:
e|--------------------------------------------------------------------------|
B|------------------------------------12--------------------12--------------|
G|----------12--14b16-14-12-14--12-14----14-12-14-12--12-14----14-12-14-12--|
D|----12-14-----------------------------------------------------------------|
A|-14-----------------------------------------------------------------------|
E|--------------------------------------------------------------------------|

e|--------------------------------------------------------------------------|
B|-12------12-----------------------------------------------12-12/15-12-----|
G|----14.-----12----12-14-12----------------/12-------12-14-------------14--|
D|---------------14----------14----------14-----14-12-----------------------|
A|------------------------------14-14-14------------------------------------|
E|--------------------------------------------------------------------------|

"Or a hit from above"


[0:57-1:02]
Guitar:
e|------------------------|
B|------------------------|
G|------------------------|
D|------------------------|
A|-2-3p2--2-3--2-3p2--2-3-|
E|------------------------|

[0:57-1:02]
Bass:
G|------------------------|
D|------------------------|
A|-3--------------2-------|
E|------------------3-----|


[1:02-1:22]
Guitar:
e|-3--3-5--5-3--3-5-|
B|-5--5-5--5-5--5-5-|
G|-4--4-5--5-4--4-5-|  x8
D|-5--5-3--3-5--5-3-|
A|-3--3------3--3---|
E|------------------|

[1:02-1:22]
Bass:
G|------------|
D|----3-3---3-|  x16
A|-3------3---|
E|------------|
"I don't need what I'm holding,
what I'm holding onto,
I wish I knew,
ohhh"

[1:12-1:22]
Synth:
e|-----------------------------12--------12h13p12--12h13p12--12h13p12--|
B|---------------------------------------------------------------------|
G|---------------------------------------------------------------------|
D|------------------7h9/10/12------------------------------------------|
A|---------5h7/8/10----------------------------------------------------|
E|-3h5/7/8-------------------------------------------------------------|

e|-12\10--10-8-10\8--8\7-7\5-5\3-3\1-1p0-----------|
B|---------------------------------------5\3-3\1---|
G|-------------------------------------------------|
D|-------------------------------------------------|
A|-------------------------------------------------|
E|-------------------------------------------------|
"I wish I knew ohhh"
(Once again, this is buried back in the mix so it's a bit
hard to work out. The very first part is too fast to play on a guitar
(unless you're a really fast player), and wasn't intended to be
played on a guitar, but I've included it anyway.)


[1:23-1:28]
Guitar:
e|----1---------------------------|
B|----1---------------------------|
G|----1---------------------------|
D|----3---------------------------|
A|----3---------------------------|
E|----1---------------------------|

[1:23-1:28]
Bass:
G|--------5-3---------3-----------|
D|------------5-3-3-5-------------|
A|----3---------------------------|
E|--------------------------------|

[1:27-1:28]
Fuzz guitar:
e|------------------|
B|------------------|
G|------------------|
D|-7/9-9-9-7--7/10--|
A|------------------|
E|------------------|
(This is probably the least audible,
most buried back in the mix, part of
the song, but there's a very barely
audible fuzzed out guitar that plays
this just before the synth bit below.
Not important or necessary to playing the
song, but I've included it for the sake
of completeness.)

Synth:
e|--------------------------------------------|
B|--------------------------------------------|
G|--------------------------------------------|
D|---------------------------------7h9/10/12--|
A|------------------------5h7/8/10------------|
E|----------------3h5/7/8---------------------|
"But meanwhile"
(Just like before, this is played very, very fast,
and is too hard to play on guitar, but I've included it anyway.)


[1:28-1:47]
Guitar:
e|-0--0--5--3--3--5-|
B|-1--0--5--5--3--5-|
G|-2--0--5--4--4--5-|  x4
D|-2--2--3--5--5--3-|
A|-0--2-----3--5----|
E|----0--------3----|

[1:28-1:47]
Bass:
G|------------------|
D|----------------5-|  x4
A|-0-----3-----3----|
E|----0-----3-------|
"Fluctuations are aching my soul,
expectation is taking its toll,
expectation is taking its toll,
'cause everything you ever told me could've been a lie, we may..."


[1:48-1:55]
Guitar:
e|-3-5-|
B|-5-5-|
G|-4-5-|  x4
D|-5-3-|
A|-3---|
E|-----|
"never have been in love"


[1:55-2:00]
Guitar:
e|-3-5-3-5-|
B|-5-5-5-5-|
G|-4-5-4-5-|  x2
D|-5-3-5-3-|
A|-3---3---|
E|---------|
(Quicken tempo)


[2:01-2:10]
Guitar:
e|-3--5-3-3--5-|
B|-5--5-5-5--5-|
G|-4--5-4-4--5-|  x4
D|-5--3-5-5--3-|
A|-3----3-3----|
E|-------------|

[2:01-2:10]
Bass:
G|-------------|
D|----3-3----3-|  x4
A|-3------3----|
E|-------------|

[2:01-2:10]
Guitar:
e|-----------5-|
B|-----------5-|
G|-----------5-|  x4
D|-----------3-|
A|-------------|
E|-------------|
(There is a very subtle, barely
noticeable backwards guitar that
fades in on each repeat. This isn't
essential to playing the song, but
it is a cool little thing you could
include and exaggerate using a flange
and volume pedal or the volume
switch on your guitar to fade into
the chord.)


[2:11-2:26]
Guitar:
e|-3-3--3-|
B|-3-3--5-|
G|-3-3--5-|  x12
D|-5-5--5-|
A|-5-5--3-|
E|-3-3----|

[2:11-2:26]
Bass:
G|--------|
D|--------|  x12
A|----3-3-|
E|-3------|
"And now I'll escape,
I'll never ever have to see a
disappointed face,
no one to please,
every now and then,
it feels like..."


[2:26-2:32]
Bass:
G|-----------------------------------------------|
D|----0--1--1---0-1-3-------1---3--5-10-8--7--10-|
A|-3---------------------------------------------|
E|-----------------------------------------------|
 "In all of the universe, there is nobody for me"
(Play each note in time with the word that is below it,
e.g. for "universe", "u" is 0, "ni" is 1, and "verse" is 3;
or for "nobody", "no" is 5, "bod" is 10, and "y" is 8.
Try singing the words as you play it to learn it quicker.)


[2:32-2:41]
Guitar:
e|-3-3--3-|
B|-3-3--5-|
G|-3-3--5-|  x8
D|-5-5--5-|
A|-5-5--3-|
E|-3-3----|

[2:32-2:41]
Bass:
G|--------|
D|--------|  x8
A|----3-3-|
E|-3------|


[2:42-3:02]
Guitar:
e|-3--5-3-3--5-|
B|-5--5-5-5--5-|
G|-4--5-4-4--5-|  x8
D|-5--3-5-5--3-|
A|-3----3-3----|
E|-------------|

[2:42-3:02]
Bass:
G|-------------|
D|----3-3----3-|  x8
A|-3------3----|
E|-------------|
"I told myself I wouldn't care,
no, I wouldn't care,
but when she said she'd come around
I combed my hair,
yes, I checked my hair"


[3:02-3:07]
Guitar:
e|------------------------|
B|------------------------|
G|------------------------|
D|------------------------|
A|-2-3p2--2-3--2-3p2--2-3-|
E|------------------------|


[3:08-3:12]
Guitar:
e|----1------------3-|
B|----1------------5-|
G|----1------------5-|
D|----3------------5-|
A|----3------------3-|
E|----1--------------|

[3:08-3:12]
Bass:
G|-------------------|
D|-------------------|
A|-----------------3-|
E|----1--------------|
"Ooh and meanwhile"


[3:13-3:17]
Guitar:
e|-1---------3-|
B|-1---------5-|
G|-1---------5-|
D|-3---------5-|
A|-3---------3-|
E|-1-----------|

[3:13-3:17]
Bass:
G|-----5-3---5-|
D|---------3---|
A|-------------|
E|-1-----------|
"Meanwhile"


[3:18-3:22]
Guitar:
e|---------|
B|---------|
G|-------1-|
D|----3----|
A|---------|
E|-1-------|

[3:18-3:22]
Bass:
G|-----5-3---5----3-5-|
D|---------3----3-----|
A|--------------------|
E|-1------------------|
"Meanwhile"

Fuzz guitar:
e|----------------------------|
B|----------------------------|
G|----------------------------|
D|-7/9-9-9-7--7/10--10-10--10-|
A|----------------------------|
E|----------------------------|
(This is that barely audible fuzzed out guitar again.)


[3:22-3:23]
Synth:
e|--------------------------------------------|
B|--------------------------------------------|
G|--------------------------------------------|
D|---------------------------------7h9/10/12--|
A|------------------------5h7/8/10------------|
E|----------------3h5/7/8---------------------|
"But meanwhile"
(This is that super fast synth fill again.)


[3:23-3:33]
Synth:
e|-0--0--5--3--3--5-|
B|-1--0--5--5--3--5-|
G|-2--0--5--4--4--5-|  x2
D|-2--2--3--5--5--3-|
A|-0--2-----3--5----|
E|----0--------3----|
"Fluctuations are aching my soul,
expectation is taking its toll"


[3:33-3:43]
Synth:
e|-0--0--5--3--3--5-|
B|-1--0--5--5--3--5-|
G|-2--0--5--4--4--5-|  x2
D|-2--2--3--5--5--3-|
A|-0--2-----3--5----|
E|----0--------3----|

[3:33-3:43]
Guitar:
e|---------------------|
B|---------------------|
G|---------------------|  x2
D|----------------5----|
A|-0-----3-----3-------|
E|----0-----3----------|
"fluctuations are aching my soul,
expectation is taking its toll"


[3:43-4:14]
Synth:
e|-0--0--5--3--3--5-|
B|-1--0--5--5--3--5-|
G|-2--0--5--4--4--5-|  x6
D|-2--2--3--5--5--3-|
A|-0--2-----3--5----|
E|----0--------3----|

[3:43-4:14]
Guitar:
e|-0--0--5--3--3--5-|
B|-1--0--5--5--3--5-|
G|-2--0--5--4--4--5-|  x6
D|-2--2--3--5--5--3-|
A|-0--2-----3--5----|
E|----0--------3----|

[3:43-4:14]
Bass:
G|------------------|
D|----------------5-|  x6
A|-0-----3-----3----|
E|----0-----3-------|
"fluctuation is making me old,
expectation is taking its toll,
fluctuations are aching my soul,
expectation is taking its toll,
fluctuations are aching my soul,
expectation is taking its toll"


[4:14-4:19]
Synth:
e|-0--0--5--3--3--5-|
B|-1--0--5--5--3--5-|
G|-2--0--5--4--4--5-|
D|-2--2--3--5--5--3-|
A|-0--2-----3--5----|
E|----0--------3----|

[4:19-4:24]
Synth:
e|-5----------------|
B|-5----------------|
G|-5----------------|
D|-3----------------|
A|------------------|
E|------------------|

The song fades out at this point, and then eventually fades back into this:

OUTRO:
------

[4:30-4:38]
Guitar with flange:
e|-3-3--3-|
B|-3-3--5-|
G|-3-3--5-|  x6
D|-5-5--5-|
A|-5-5--3-|
E|-3-3----|


[4:38-4:51]
Guitar with flange:
e|-3-3--3-|
B|-3-3--5-|
G|-3-3--5-|  x10
D|-5-5--5-|
A|-5-5--3-|
E|-3-3----|

[4:38-4:51]
Bass:
G|----------|
D|-10-10-10-|  x10
A|----------|
E|----------|


[4:51-5:37]
Guitar with flange:
e|-3-3--3-|
B|-3-3--5-|
G|-3-3--5-|  x36
D|-5-5--5-|
A|-5-5--3-|
E|-3-3----|


[4:51-5:42]
Bass:
G|--------------------------------------------------------------------------|
D|----0-1-1-0--1-3---1-3-5--5/10-8-7--7/10-10-10-10-10-10-10-10-10-10-10-10-|  x5
A|-3------------------------------------------------------------------------|
E|--------------------------------------------------------------------------|


[5:37-5:48]
Two guitars:
e|-3-3--3-|
B|-3-3--5-|
G|-3-3--5-|  x8
D|-5-5--5-|
A|-5-5--3-|
E|-3-3----|
(A second guitar doubles this, one with flange and one clean)

[5:43-5:53]
Bass:
G|--------------------------------------------------------------------------|
D|----0-1-1-0--1-3---1-3-5--5/10-8-7--7/10-10-10-10-10-10-10-10-10-10-10-10-|
A|-3------------------------------------------------------------------------|
E|--------------------------------------------------------------------------|

[5:48-5:53]
Synth:
e|------------------------------------3-------------------------------------|
B|------------------------------------3-------------------------------------|
G|------------------------------------3-------------------------------------|
D|------------------------------------5-------------------------------------|
A|------------------------------------5-------------------------------------|
E|------------------------------------3-------------------------------------|
(Synth starts playing at the part where
the bass slides from the 7th to the 10th fret)


[5:48-5:58]
Two guitars:
e|-3-3--3-|
B|-3-3--5-|
G|-3-3--5-|  x8
D|-5-5--5-|
A|-5-5--3-|
E|-3-3----|

[5:53-5:58]
Bass:
G|-----------------------------------|
D|----0-1-1-0--1-3---1-3-5--5/10-8-7-|
A|-3---------------------------------|
E|-----------------------------------|

[5:53-6:00]
Synth:
e|-----------------------------------3-|
B|-----------------------------------5-|
G|----------------------5------------5-|
D|-----------------------------------5-|
A|-2--3---2--3---2--3------3---------3-|
E|-------------------------------------|


************************************

| /   slide up
| \   slide down
| h   hammer-on
| p   pull-off
| ~   vibrato
| +   harmonic
| x   Mute note
| b   Bend
| pb  Pre-bend
| br  Bend release
| pbr Pre-bend release
| brb Bend release bend
| .   staccato

************************************

--------------------------------------------------------------------------------------
                                       Track 09
                                The Bold Arrow of Time
--------------------------------------------------------------------------------------

Intro:
The bends in the main riff are quarter step bends, which is basically bending to
halfway between the two notes, which are G and G# in this instance. It's used a lot
in blues playing (listen to the main riff to Spoonful by Cream to get a good
example). The bend is only slight, so don't over-think it.
Guitar 1:
e|----------------------------------------|
B|----------------------------------------|
G|-----10--12b12.5--12--10~---------------| x4
D|-12-----------------------12-10-12------|
A|----------------------------------------|
E|------------------------------------10--|

Guitar 1 and 2:
e|----------------------------------------|
B|----------------------------------------|
G|-----10--12b12.5--12--10~---------------| x2
D|-12-----------------------12-10-12--12--|
A|------------------------------------12--|
E|------------------------------------10--|

Guitar 1 and 2:
e|-------------------------------------|
B|-------------------------------------|
G|-------------------------------------| x4
D|---------------------------------12--|
A|-----8--10b10.5--10--8~----------12--|
E|-10---------------------10-8-10--10--|

Verse:
"Overhead ether flow, moment colours run, time so slow"
e|-10--------10--------------10----|
B|-10------------10----------12----|
G|-10----------------10------12----|
D|-10--------------------10--12----|
A|-12------------------------10----|
E|-10------------------------------|

"Slow"
Guitar 1 and 2:
e|-------------------------------------|
B|-------------------------------------|
G|-------------------------------------| x4
D|---------------------------------12--|
A|-----8--10b10.5--10--8~----------12--|
E|-10---------------------10-8-10--10--|

First mini guitar solo:
Guitar 1:
e|-------------------------------------|
B|-------------------------------------|
G|-------------------------------------| x4
D|-------------------------------------|
A|-----8--10b10.5--10--8~--------------|
E|-10---------------------10-8-10--10--|

Guitar 2:
e|-------------------------------------------------------------------------|
B|-------------------------------------------------------------------------|
G|-12--------10.--12~~~~-10h12--10h12--10h12--10h12--10h12--10h12--10~~~~--|
D|-----12-10---------------------------------------------------------------|
A|-------------------------------------------------------------------------|
E|-------------------------------------------------------------------------|

e|----------------------------------------------------------|
B|----------------------------------------------------------|
G|----------------------------------------------------------|
D|-10--------------------------------------10/12--12/15~~~~-|
A|-----12-10----------------8--10--12~~~~~------------------|
E|-----------10--10-8-10------------------------------------|

Verse:
"I've never seen the arrow of time fly so low"
Guitar 1 and 2:
e|-10-------10---------------10----|
B|-10------------10----------12----|
G|-10----------------10------12----|
D|-10--------------------10--12----|
A|-12------------------------10----|
E|-10------------------------------|

"Low"
Guitar 1:
e|-------------------------------------|-----------------------------------|
B|-------------------------------------|-----------------------------------|
G|-------------------------------------|-----------------------------------|
D|---------------------------------12--|-----------------------------------|
A|-----8--10b10.5--10--8~----------12--|-----8--10b10.5--10--8~------------|
E|-10---------------------10-8-10--10--|-10---------------------10-8-10----|

Second mini guitar solo:
Guitar 1:
e|-------------------------------------|-----------------------------------|
B|-------------------------------------|-----------------------------------|
G|---------------------------------12--|-----------------------------------|
D|-----8--10b10.5--10--8~----------12--|-----8--10b10.5--10--8~------------|
A|-10---------------------10-8-10--10--|-10---------------------10-8-10----|
E|-------------------------------------|-----------------------------------|

Guitar 2:
e|------------------------------------------------------------|
B|------------------------------------------------------------|
G|-10-10--12b14---10/12-12-10/12--10/12-10/12-10/12--10/12----|
D|------------------------------------------------------------|
A|------------------------------------------------------------|
E|------------------------------------------------------------|

Guitar 1:
e|-------------------------------------|
B|-------------------------------------|
G|-------------------------------------|
D|-----10--12b12.5--12--10~------------|
A|-12-----------------------12-10-12---|
E|-------------------------------------|

Guitar 2:
e|-----------------------------------|
B|--------10~~~~~~~~~~~~~~~~~~~~~~---|
G|-12b14-----------------------------|
D|-----------------------------------|
A|-----------------------------------|
E|-----------------------------------|

Pre-bridge/solo section:
"And time flows on"
Guitar 1 and 2:
e|----------------|
B|----------------|
G|----------------|
D|---------5------|
A|-8---7---5------|
E|-6---5---3------|

Guitar 1 and 2:
e|-------------------------------------|
B|-------------------------------------|
G|-------------------------------------|
D|-------------------------------------|
A|-----8--10b10.5--10--8~--------------|
E|-10---------------------10-8-10--10--|

Guitar 1:
e|-----------------------------------|
B|-----------------------------------|
G|-----------------------------------|
D|-----------------------------------|
A|-----8--10b10.5--10--8~------------|
E|-10---------------------10-8-10----|

Guitar 2:
e|------------------------------------|
B|---------------------------13-------|
G|---------------------------15b17r15-|
D|---------------10~~~~---------------|
A|----------/12-----------------------|
E|------------------------------------|

Bridge/solo section:
Guitar 1 and 2:
e|-------------|
B|-------------|
G|-11-11--9-11-| x8
D|--X--X--X--X-|
A|-12-12-10-12-|
E|-10-10--8-10-|

Guitar 1:
e|-------------|
B|-------------|
G|-------------| x8
D|-12-12-10-12-|
A|-------------|
E|-10-10--8-10-|

Guitar solo:
Guitar 1:
e|---------------|
B|---------------|
G|---------------| x6
D|-7--7--7-7-7-7-|
A|-7--7--7-7-7-7-|
E|-5--5--5-5-5-5-|

Guitar 2:
e|---------------------------------------------------------------------------------|
B|-10-----10-----10----10----10----10------10-----10-----10----10----10----10------|
G|-12b14--12b14--12b14-12b14-12b14-12b14---12b14--12b14--12b14-12b14-12b14-12b14---|
D|---------------------------------------------------------------------------------|
A|---------------------------------------------------------------------------------|
E|---------------------------------------------------------------------------------|

e|---------------------------------------------------------------------------------|
B|-10-----10-----10----10----10----10------10-----10-----8-----8-----8-----8-------|
G|-12b14--12b14--12b14-12b14-12b14-12b14---12b14--12b14--10b12-10b12-10b12-10b12---|
D|---------------------------------------------------------------------------------|
A|---------------------------------------------------------------------------------|
E|---------------------------------------------------------------------------------|

e|-------------------------------------------------------------------|
B|-8------8------5---5---5---5-----6-----6-----6----6----6----6------|
G|-10b12--10b12--7b9-7b9-7b9-7b9---8b10--8b10--8b10-8b10-8b10-8b10---|
D|-------------------------------------------------------------------|
A|-------------------------------------------------------------------|
E|-------------------------------------------------------------------|

e|------------------------------|
B|-5--/6/7/8----6h8-10--\6-\5---|
G|------------------------------|
D|------------------------------|
A|------------------------------|
E|------------------------------|

Heavy chord section:
Guitar 1 and 2:
e|-------------|
B|-------------|
G|-11-11--9-11-| x16
D|--X--X--X--X-|
A|-12-12-10-12-|
E|-10-10--8-10-|

Guitar 1 and 2:
e|----------------------------------------------------------|
B|----------------------------------------------------------|
G|----------------------------------------------------------| x3
D|-12-12-12--10--12-12-12--10---12-12-12--10-12--10-12--10--|
A|----------------------------------------------------------|
E|-10-10-10---8--10-10-10---8---10-10-10---8-10---8-10---8--|

Guitar 1:
e|---------------------------------------------------------------|
B|---------------------------------------------------------------|
G|---------------------------------------------------------------|
D|-12-12-12--10--12-12-12--10---12-12-12--10-12--10-12--10---12--|
A|---------------------------------------------------------------|
E|-10-10-10---8--10-10-10---8---10-10-10---8-10---8-10---8---10--|

Guitar 2:
Strum the ending chord really hard and rapidly:
e|-------------------------------------10101010101010101010-10--|
B|-------------------------------------10101010101010101010-10--|
G|-------------------------------------11111111111111111111-11--|
D|-12-12--12-12--10--12-12--12-12--10--12121212121212121212-12--|
A|-------------------------------------12121212121212121212-12--|
E|-10-10--10-10---8--10-10--10-10---8--10101010101010101010-10--|

"da  da  da  da  da  da da da  da"

Guitar 1 and 2:
e|--------|
B|--------|
G|--------|
D|-12-----|
A|-12-----|
E|-10-----|

Main song outro:
Guitar 1 and 2:
e|-------------------------------------|
B|-------------------------------------|
G|-------------------------------------| x3
D|---------------------------------12--|
A|-----8--10b10.5--10--8~----------12--|
E|-10---------------------10-8-10--10--|

Guitar 1 and 2:
e|-------------------------------------|
B|-----10--12b12.5--12--10~------------|
G|-11--10--12b12.5--12--10~-11--9-10---|
D|-12-----------------------12-10-12---|
A|-------------------------------------|
E|-------------------------------------|

End on:
Guitar 1:
e|------------|
B|------------|
G|------------|
D|------------|
A|-8~~~~~~~~~~|
E|------------|

Synth and acoustic guitar outro/interlude:
Acoustic guitar plays this:
e|---------------5-5--5-5--5-5--5-5--5-5--5-5--5-5--5-5--|
B|-3-3--3--3--3--7-7--7-7--7-7--7-7--7-7--7-7--7-7--7-7--|
G|-4-4--4--4--4--7-7--7-7--7-7--7-7--7-7--7-7--7-7--7-7--|
D|-5-5--5--5--5--7-7--7-7--7-7--7-7--7-7--7-7--7-7--7-7--|
A|-5-5--5--5--5--5-5--5-5--5-5--5-5--5-5--5-5--5-5--5-5--|
E|-------------------------------------------------------|

And then play this whole chord progression twice:
e|----------------------3--3--2-2--2-2--2-2--2-2--2-2--1-1--1-1--1-1--1-1--|
B|-5-5--5-5--5-5--1--1--5--5--3-3--3-3--3-3--3-3--3-3--3-3--3-3--3-3--3-3--|
G|-5-5--5-5--5-5--2--2--5--5--4-4--4-4--4-4--4-4--4-4--3-3--3-3--3-3--3-3--|
D|-7-7--7-7--7-7--3--3--5--5--4-4--4-4--4-4--4-4--4-4--3-3--3-3--3-3--3-3--|
A|-7-7--7-7--7-7--3--3--3--3--2-2--2-2--2-2--2-2--2-2--1-1--1-1--1-1--1-1--|
E|-------------------------------------------------------------------------|

e|-----------------------------------------5-5--5-5--5-5--5-5--5-5--5-5--5-5--5-5--|
B|-1-1--1-1--1-1--1-1--3-3--3-3--3-3--3-3--7-7--7-7--7-7--7-7--7-7--7-7--7-7--7-7--|
G|-2-2--2-2--2-2--2-2--4-4--4-4--4-4--4-4--7-7--7-7--7-7--7-7--7-7--7-7--7-7--7-7--|
D|-3-3--3-3--3-3--3-3--5-5--5-5--5-5--5-5--7-7--7-7--7-7--7-7--7-7--7-7--7-7--7-7--|
A|-3-3--3-3--3-3--3-3--5-5--5-5--5-5--5-5--5-5--5-5--5-5--5-5--5-5--5-5--5-5--5-5--|
E|---------------------------------------------------------------------------------|

Synth lead:
e|-8---8/10-8/10--10/12-10/12-----------------8---8-------|
B|-----------------------------10---8-10-11--11--11--11---|
G|---------------------------------------------------10---|
D|--------------------------------------------------------|
A|--------------------------------------------------------|
E|--------------------------------------------------------|

e|-13/15-13/15--12/14-12/14--10---------------8/10--|
B|--------------------------------8/10-8/10---------|
G|--------------------------------------------------|
D|--------------------------------------------------|
A|--------------------------------------------------|
E|--------------------------------------------------|

e|-8---8/10-8/10--10/12-10/12-----------------8---8-------|
B|-----------------------------10---8-10-11--11--11--11---|
G|---------------------------------------------------10---|
D|--------------------------------------------------------|
A|--------------------------------------------------------|
E|--------------------------------------------------------|

e|-13/15-13/15--12/14-12/14--10---------------|
B|--------------------------------8/10-8/10---|
G|--------------------------------------------|
D|--------------------------------------------|
A|--------------------------------------------|
E|--------------------------------------------|

Fade out.


************************************

| /   slide up
| \   slide down
| h   hammer-on
| p   pull-off
| ~   vibrato
| +   harmonic
| x   Mute note
| b   Bend
| pb  Pre-bend
| br  Bend release
| pbr Pre-bend release
| brb Bend release bend
| .   Staccato (mute note after playing it)

************************************

--------------------------------------------------------------------------------------
                                       Track 10
                             Runway, Houses, City, Clouds
--------------------------------------------------------------------------------------

Intro:
e|-------------------------------------------------------------|
B|-------------------------------------------------------------| \
G|-------------------------------------------------------------|  \
D|------------8h10-10-8-10p8----------------8h10-10-8-10p8-----|   \
A|-------8h10----------------10--------8h10----------------10--|    |
E|-8-8-8-------------------------8-8-8-------------------------|    |
                                                                    |
e|-------------------------------------------------------------|    |
B|-------------------------------------------------------------|    |
G|-------------------------------------------------------------|    |
D|-----------6h8-8-6-8p6--------------6h8-8-6-8/10-------------|    |
A|-------6h8-------------8--------6h8--------------------------|    |
E|-4-4-4--------------------4-4-4------------------------------|    |
                                                                    | x2
e|-------------------------------------------------------------|    |
B|-------------------------------------------------------------|    |
G|-------------------------------------------------------------|    |
D|------------8h10-10-8-10p8----------------8h10-10-8-10p8-----|    |
A|-------8h10----------------10--------8h10----------------10--|    |
E|-8-8-8-------------------------8-8-8-------------------------|    |
                                                                    |
e|-------------------------------------------------------------|    |
B|-------------------------------------------------------------|    |
G|-------------------------------------------------------------|   /
D|-----------6h8-8-6-8p6--------------6h8-8-6-8p6--------------|  /
A|-------6h8-------------8--------6h8-------------8------------| /
E|-4-4-4--------------------4-4-4------------------------------|

"But don't remind me of home,
There's everywhere I'd rather go"
e|-------1--------|
B|-4-----1--4-----|
G|-3-----2--3-----| x2
D|-5-----3--5-----|
A|-6-----3--6-----|
E|-------1--------|

Short guitar fill:
e|-6---3---|
B|---------|
G|---------|
D|---------|
A|---------|
E|---------|

"It's true that some things have to change,
Oh..."
Guitar 1:
e|---------------------------------------------------|
B|---------------------------------------------------|
G|---------------------------------------------------|
D|-----------6h8-8-6-8p6--------------6h8-8-6-8p6----|
A|-------6h8-------------8--------6h8-------------8--|
E|-4-4-4--------------------4-4-4--------------------|

Another guitar plays this under that riff:
e|-4--4-4---4--4-4---4--4-4---4--4-4----|
B|-4--4-4---4--4-4---4--4-4---4--4-4----|
G|-5--5-5---5--5-5---5--5-5---5--5-5----|
D|-6--6-6---6--6-6---6--6-6---6--6-6----|
A|-6--6-6---6--6-6---6--6-6---6--6-6----|
E|-4--4-4---4--4-4---4--4-4---4--4-4----|

"...no"
e|-1---1---|
B|-1---1---|
G|-2---2---|
D|-3---3---|
A|-3---3---|
E|-1---1---|

"And don't remind me of home,
Or I might notice where I am"
e|-------1--------|
B|-4-----1--4-----|
G|-3-----2--3-----| x2
D|-5-----3--5-----|
A|-6-----3--6-----|
E|-------1--------|

"It's true that some things have to..."
Guitar fill:
e|-6-6-6-6-3-3-----|
B|-------------4-4-|
G|-----------------|
D|-----------------|
A|-----------------|
E|-----------------|

"...change"
Guitar 1:
e|---------------------------------------------------|
B|---------------------------------------------------|
G|---------------------------------------------------|
D|-----------6h8-8-6-8p6--------------6h8-8-6-8p6----|
A|-------6h8-------------8--------6h8-------------8--|
E|-4-4-4--------------------4-4-4--------------------|

Another guitar plays this under that riff:
e|-4--4-4---4--4-4---4--4-4---4--4-4----|
B|-4--4-4---4--4-4---4--4-4---4--4-4----|
G|-5--5-5---5--5-5---5--5-5---5--5-5----|
D|-6--6-6---6--6-6---6--6-6---6--6-6----|
A|-6--6-6---6--6-6---6--6-6---6--6-6----|
E|-4--4-4---4--4-4---4--4-4---4--4-4----|

"I know some things have to change,
It's true that some things have to change,
I know some things have to change,
Oh..."
Guitar 1:
e|-------------------------------------------------------------|
B|-------------------------------------------------------------| \
G|-------------------------------------------------------------|  \
D|------------8h10-10-8-10p8----------------8h10-10-8-10p8-----|   \
A|-------8h10----------------10--------8h10----------------10--|    |
E|-8-8-8-------------------------8-8-8-------------------------|    |
                                                                    | x3
e|-------------------------------------------------------------|    |
B|-------------------------------------------------------------|    |
G|-------------------------------------------------------------|   /
D|-----------6h8-8-6-8p6--------------6h8-8-6-8p6--------------|  /
A|-------6h8-------------8--------6h8-------------8------------| /
E|-4-4-4--------------------4-4-4------------------------------|

Another guitar plays this under that riff:
e|--8--8-8---8--8-8---8--8-8---8--8-8---|
B|--8--8-8---8--8-8---8--8-8---8--8-8---| \
G|--9--9-9---9--9-9---9--9-9---9--9-9---|  \
D|-10-1010--10-1010--10-1010--10-1010---|   \
A|-10-1010--10-1010--10-1010--10-1010---|    |
E|--8--8-8---8--8-8---8--8-8---8--8-8---|    |
                                             | x3
e|-4--4-4---4--4-4---4--4-4---4--4-4----|    |
B|-4--4-4---4--4-4---4--4-4---4--4-4----|    |
G|-5--5-5---5--5-5---5--5-5---5--5-5----|   /
D|-6--6-6---6--6-6---6--6-6---6--6-6----|  /
A|-6--6-6---6--6-6---6--6-6---6--6-6----| /
E|-4--4-4---4--4-4---4--4-4---4--4-4----|

"...no"
e|-1-----|
B|-1-----|
G|-2-----|
D|-3-----|
A|-3-----|
E|-1-----|

"And gazing out the window,
As I ascend into the sky"
e|-------1--------|
B|-4-----1--4-----|
G|-3-----2--3-----| x2
D|-5-----3--5-----|
A|-6-----3--6-----|
E|-------1--------|

"But I'm the one who's left be..."
Guitar fill:
e|-6-666-6-6-66--3--3-3---------|
B|-----------------------4--4-4-| (played with a
G|------------------------------| different rhythm
D|------------------------------| than before)
A|------------------------------|
E|------------------------------|

"...hind"
Guitar 1:
e|---------------------------------------------------|
B|---------------------------------------------------|
G|---------------------------------------------------|
D|-----------6h8-8-6-8p6--------------6h8-8-6-8p6----|
A|-------6h8-------------8--------6h8-------------8--|
E|-4-4-4--------------------4-4-4--------------------|

Another guitar plays this under that riff:
e|-4--4-4---4--4-4---4--4-4---4--4-4----|
B|-4--4-4---4--4-4---4--4-4---4--4-4----|
G|-5--5-5---5--5-5---5--5-5---5--5-5----|
D|-6--6-6---6--6-6---6--6-6---6--6-6----|
A|-6--6-6---6--6-6---6--6-6---6--6-6----|
E|-4--4-4---4--4-4---4--4-4---4--4-4----|

"I'm the one who's left behind,
There is nothing that is safe,
I know some things have to change"
Guitar 1:
e|-------------------------------------------------------------|
B|-------------------------------------------------------------| \
G|-------------------------------------------------------------|  \
D|------------8h10-10-8-10p8----------------8h10-10-8-10p8-----|   \
A|-------8h10----------------10--------8h10----------------10--|    |
E|-8-8-8-------------------------8-8-8-------------------------|    |
                                                                    | x3
e|-------------------------------------------------------------|    |
B|-------------------------------------------------------------|    |
G|-------------------------------------------------------------|   /
D|-----------6h8-8-6-8p6--------------6h8-8-6-8p6--------------|  /
A|-------6h8-------------8--------6h8-------------8------------| /
E|-4-4-4--------------------4-4-4------------------------------|

Another guitar plays this under that riff:
e|--8--8-8---8--8-8---8--8-8---8--8-8---|
B|--8--8-8---8--8-8---8--8-8---8--8-8---| \
G|--9--9-9---9--9-9---9--9-9---9--9-9---|  \
D|-10-1010--10-1010--10-1010--10-1010---|   \
A|-10-1010--10-1010--10-1010--10-1010---|    |
E|--8--8-8---8--8-8---8--8-8---8--8-8---|    |
                                             | x3
e|-4--4-4---4--4-4---4--4-4---4--4-4----|    |
B|-4--4-4---4--4-4---4--4-4---4--4-4----|    |
G|-5--5-5---5--5-5---5--5-5---5--5-5----|   /
D|-6--6-6---6--6-6---6--6-6---6--6-6----|  /
A|-6--6-6---6--6-6---6--6-6---6--6-6----| /
E|-4--4-4---4--4-4---4--4-4---4--4-4----|

"Oh"
e|-2--|
B|-2--|
G|-3--|
D|-4--|
A|-4--|
E|-2--|

"Yes I do,
Yes I do"
e|-3-----1--------|
B|-5-----3-----4--|
G|-5-----3-----3--| x2
D|-5-----3-----5--|
A|-3-----1-----6--|
E|----------------|

"But don't remind me of home,
In case it isn't quite the same"
e|-------1--------|
B|-4-----1--4-----|
G|-3-----2--3-----| x2
D|-5-----3--5-----|
A|-6-----3--6-----|
E|-------1--------|

Guitar fill:
e|-6-6-6-6-3-3-----|
B|-------------4-4-|
G|-----------------|
D|-----------------|
A|-----------------|
E|-----------------|

Synthy guitar played over the top of the riffs and chords below:
e|-8-6-----------------|-8-6-----------------|-8-6-----------------|
B|-----9-----8---6-----|-----9-----8---6-----|-----9-----8---------|
G|-----------------8-7-|-----------------8-7-|---------------8-7-5-|
D|---------------------|---------------------|---------------------|
A|---------------------|---------------------|---------------------|
E|---------------------|---------------------|---------------------|

e|-8-6-----------------|------8-6------------|---------------8-6---|
B|-----9-----7---8---6-|-----------9---------|-8b9r8---6---------9-|
G|---------------------|-8-7-----------------|-----------8-7-------|
D|---------------------|---------------------|---------------------|
A|---------------------|---------------------|---------------------|
E|---------------------|---------------------|---------------------|

e|-6-------------------|-8-6-------16--------|------------8-6------|
B|---9-7---9-7-8-------|-----9---------------|-8---6----------9----|
G|---------------------|---------------------|-------8-7-----------|
D|---------------------|---------------------|---------------------|
A|---------------------|---------------------|---------------------|
E|---------------------|---------------------|---------------------|

Guitar 1:
e|---------------------------------------------------|
B|---------------------------------------------------|
G|---------------------------------------------------|
D|-----------6h8-8-6-8p6--------------6h8-8-6-8p6----|
A|-------6h8-------------8--------6h8-------------8--|
E|-4-4-4--------------------4-4-4--------------------|

Another guitar plays this under that riff:
e|-4--4-4---4--4-4---4--4-4---4--4-4----|
B|-4--4-4---4--4-4---4--4-4---4--4-4----|
G|-5--5-5---5--5-5---5--5-5---5--5-5----|
D|-6--6-6---6--6-6---6--6-6---6--6-6----|
A|-6--6-6---6--6-6---6--6-6---6--6-6----|
E|-4--4-4---4--4-4---4--4-4---4--4-4----|

Guitar 1:
e|-------------------------------------------------------------|
B|-------------------------------------------------------------| \
G|-------------------------------------------------------------|  \
D|------------8h10-10-8-10p8----------------8h10-10-8-10p8-----|   \
A|-------8h10----------------10--------8h10----------------10--|    |
E|-8-8-8-------------------------8-8-8-------------------------|    |
                                                                    | x7
e|-------------------------------------------------------------|    |
B|-------------------------------------------------------------|    |
G|-------------------------------------------------------------|   /
D|-----------6h8-8-6-8p6--------------6h8-8-6-8p6--------------|  /
A|-------6h8-------------8--------6h8-------------8------------| /
E|-4-4-4--------------------4-4-4------------------------------|

Another guitar plays this under that riff:
e|--8--8-8---8--8-8---8--8-8---8--8-8---|
B|--8--8-8---8--8-8---8--8-8---8--8-8---| \
G|--9--9-9---9--9-9---9--9-9---9--9-9---|  \
D|-10-1010--10-1010--10-1010--10-1010---|   \
A|-10-1010--10-1010--10-1010--10-1010---|    |
E|--8--8-8---8--8-8---8--8-8---8--8-8---|    |
                                             |
e|-4--4-4---4--4-4---2--2-2---2--2-2----|    |
B|-4--4-4---4--4-4---2--2-2---2--2-2----|    |
G|-5--5-5---5--5-5---3--3-3---3--3-3----|    |
D|-6--6-6---6--6-6---4--4-4---4--4-4----|    |
A|-6--6-6---6--6-6---4--4-4---4--4-4----|    |
E|-4--4-4---4--4-4---2--2-2---2--2-2----|    |
                                             | x7
e|--8--8-8---8--8-8---8--8-8---8--8-8---|    |
B|--8--8-8---8--8-8---8--8-8---8--8-8---|    |
G|--9--9-9---9--9-9---9--9-9---9--9-9---|    |
D|-10-1010--10-1010--10-1010--10-1010---|    |
A|-10-1010--10-1010--10-1010--10-1010---|    |
E|--8--8-8---8--8-8---8--8-8---8--8-8---|    |
                                             |
e|-4--4-4---4--4-4---4--4-4---4--4-4----|    |
B|-4--4-4---4--4-4---4--4-4---4--4-4----|    |
G|-5--5-5---5--5-5---5--5-5---5--5-5----|   /
D|-6--6-6---6--6-6---6--6-6---6--6-6----|  /
A|-6--6-6---6--6-6---6--6-6---6--6-6----| /
E|-4--4-4---4--4-4---4--4-4---4--4-4----|

Synth guitar:
e|---------------------------------|
B|-8-7-6-5-----5-4-3---------------|
G|-------------------3-----3-5-7---| x6
D|-------------------------------5-|
A|---------------------------------|
E|---------------------------------|

These chords play in the background behind the synth riff and the guitar
solo until the end of the song. The chords are also played on a piano:
e|-3-----1--------|
B|-5-----3-----4--|
G|-5-----3-----3--| x17
D|-5-----3-----5--|
A|-3-----1-----6--|
E|----------------|

Guitar solo (comes in after the above synth guitar riff). I've labelled them
part 1 and 2 because there is a slight variation between them at the end:
Part 1:
e|--------------------------------------------------------|
B|--------------------------------------------------------|
G|-8\7-------------------------10-12b14r12-10-------------|
D|-----8h10----------10--10h12----------------12b13r12-8--|
A|----------8--10h12--------------------------------------|
E|--------------------------------------------------------|
        
e|---------------------------------------|
B|---------------------------------------|
G|---------------------------------------|
D|-8-10-12--10h12--10-8---------8----5-8-|
A|----------------------10-8-10---6------|
E|---------------------------------------|

Part 2:
e|--------------------------------------------------------|
B|--------------------------------------------------------| \
G|-8\7-------------------------10-12b14r12-10-------------|  \
D|-----8h10----------10--10h12----------------12b13r12-8--|   \
A|----------8--10h12--------------------------------------|    |
E|--------------------------------------------------------|    |
                                                               |
e|--------------------------------------|                      |
B|--------------------------------------|                      |
G|--------------------------------------|                      |
D|-8-10-12--10h12--10-8--7----------5-8-|                      |
A|-------------------------10-8--6------|                      |
E|--------------------------------------|                      |
                                                               | x2
Part 1:                                                        |
e|--------------------------------------------------------|    |
B|--------------------------------------------------------|    |
G|-8\7-------------------------10-12b14r12-10-------------|    |
D|-----8h10----------10--10h12----------------12b13r12-8--|    |
A|----------8--10h12--------------------------------------|    |
E|--------------------------------------------------------|    |
                                                               |
e|---------------------------------------|                     |
B|---------------------------------------|                     |
G|---------------------------------------|                    /
D|-8-10-12--10h12--10-8---------8----5-8-|                   /
A|----------------------10-8-10---6------|                  /
E|---------------------------------------|

And then another guitar comes in and plays part 1, while the other guitar
plays part 2 until the end of the song:
Guitar 1:
e|--------------------------------------------------------|
B|--------------------------------------------------------| \
G|-8\7-------------------------10-12b14r12-10-------------|  \
D|-----8h10----------10--10h12----------------12b13r12-8--|   \
A|----------8--10h12--------------------------------------|    |
E|--------------------------------------------------------|    |
                                                               | x6
e|--------------------------------------|                      |
B|--------------------------------------|                      |
G|--------------------------------------|                     /
D|-8-10-12--10h12--10-8--7----------5-8-|                    /
A|-------------------------10-8--6------|                   /
E|--------------------------------------|

Guitar 2:
e|--------------------------------------------------------|
B|--------------------------------------------------------| \
G|-8\7-------------------------10-12b14r12-10-------------|  \
D|-----8h10----------10--10h12----------------12b13r12-8--|   \
A|----------8--10h12--------------------------------------|    |
E|--------------------------------------------------------|    |
                                                               | x6
e|---------------------------------------|                     |
B|---------------------------------------|                     |
G|---------------------------------------|                    /
D|-8-10-12--10h12--10-8---------8----5-8-|                   /
A|----------------------10-8-10---6------|                  /
E|---------------------------------------|


************************************

| /   slide up
| \   slide down
| h   hammer-on
| p   pull-off
| ~   vibrato
| +   harmonic
| x   Mute note
| b   Bend
| pb  Pre-bend
| br  Bend release
| pbr Pre-bend release
| brb Bend release bend

************************************

--------------------------------------------------------------------------------------
                                       Track 11
                                  I Don't Really Mind
--------------------------------------------------------------------------------------

Phased guitar intro:
Guitar 1:
e|------------------------------------------------------|
B|------------------------------------------------------|
G|------------------------------------------------------|
D|------------------------------------------------------|
A|-9--9--9-9--9--9-9--9-9-9--7--7--7-7--7---------------|
E|-----------------------------------------7--7--7-7-7--|

Verse 1:
"Shifting, shifting, shifting aloud like it makes so much difference to me"
Guitar 1:
e|--------------------------------------------------------------|
B|--------------------------------------------------------------|
G|--------------------------------------------------------------|
D|--------------------------------------------------------------|
A|-4------4/9--9--9-9--9--9-9--9-9-9--7--7--7-7--7--------------|
E|---2----------------------------------------------7-7--7-7-7--|

Guitar 2:
e|----------9----7----7----|
B|---------11----9----7----|
G|---------11----9----8----|
D|---------11----9----9----|
A|----------9----7----9----|
E|--------------------7----|

"Huffing, puffing, marching around like I know how much better it should be"
Guitar 1:
e|-----------------------------------------------------------------|
B|-----------------------------------------------------------------|
G|-----------------------------------------------------------------|
D|-----------------------------------------------------------------|
A|-----------------9--9--9-9-9--9--7--7--7-7-7--7------------------|
E|-9--9--9-9-9--9----------------------------------7--7--7-7-7--7--|

Guitar 2:
e|--9-----9----7----7----|
B|--9----11----9----7----|
G|-10----11----9----8----|
D|-11----11----9----9----|
A|-11-----9----7----9----|
E|--9---------------7----|

Guitar 3:
e|---------------------------------------------------|
B|---------------------------------------------------|
G|---------------------------------------------------|
D|---------------------------------------------------|
A|--------9/11--9-9-----9/11--9-9-----9/11--9-9------|
E|--9--9-------------9-------------9-------------7---|

Pre-chorus:
"I know it looks like I disagree nine tenths of the time"
Guitar 1:
e|-------------------------------------------|
B|-------------------------------------------|
G|-------------------------------------------|
D|---------------------------------9----13---|
A|-7--7--7-7-7--7------------------7----11---|
E|-----------------5--5--5-5-5--5------------|

Guitar 2:
e|-7----5----7----11----|
B|-9----5----9----13----|
G|-9----6----9----13----|
D|-9----7----9----13----|
A|-7----7----7----11----|
E|------5---------------|

Chorus:
"But I don't really mind,
but I don't really mind,
but I don't really mind,
but I don't really mind"
e|---------2----2--0--|
B|---------4----2--0--|
G|---------4----3--1--| x4
D|-4--4----4----4--2--|
A|-4--4----2----4--2--|
E|-2--2---------2--0--|

Verse 2:
"Childhood puppy is old and gruff, your mother wants to give him away"
Guitar 1:
e|-----------------------------------------------------------------|
B|-----------------------------------------------------------------|
G|-----------------------------------------------------------------|
D|-----------------------------------------------------------------|
A|-7--7--7-7-7--7------------------7--7--7-7-7--7--9--9--9-9-9--9--|
E|-----------------5--5--5-5-5--5----------------------------------|

Guitar 2:
e|-0----0----0----2----|
B|-0----2----0----2----|
G|-1----2----1----3----|
D|-2----2----2----4----|
A|-2----0----2----4----|
E|-0---------0----2----|

Guitar 3:
e|---------------------------|
B|---------------------------|
G|---------------------------|
D|---------------------------|
A|-7---------7----7/11-\9----|
E|------5--------------------|

"Pillar of strength was lifted off his deathbed, three weeks ago today"
Guitar 1:
e|--------------------------------------------------------|
B|--------------------------------------------------------|
G|--------------------------------------------------------|
D|----------------------------------------------------9---|
A|-7--7--7-7-7--7------------------7--7--7-7-7--7-7-------|
E|-----------------5--5--5-5-5--5-------------------------|

Guitar 2:
e|-0----0----0----0--2--|
B|-0----2----0----0--4--|
G|-1----2----1----1--4--|
D|-2----2----2----2--4--|
A|-2----0----2----2--2--|
E|-0---------0----0-----|

Guitar 3:
e|----------------------------------------|
B|----------------------------------------|
G|----------------------------------------|
D|----------------------------------------|
A|-7---------7--7/14--14--14--14--14--14--|
E|------5---------------------------------|

Chorus:
"But I don't really mind,
but I don't really mind,
but I don't really mind,
but I don't really mind"
e|---------2----2--0--|
B|---------4----2--0--|
G|---------4----3--1--| x4
D|-4--4----4----4--2--|
A|-4--4----2----4--2--|
E|-2--2---------2--0--|

Synth section:
Obviously this is played on a synth, but I tabbed it for guitar.
Just keep strumming or sustaining these chords for the length that they are played.
I won't add any strumming pattern or anything because that's up to you.
e|---------------------------------------------------------------------------|
B|-------------------------------------4~~~~~~~~~~~~~~-----------------------|
G|-5~~~~~~~~~~~~~~~~~~~~~~~~~~~~~~~~~~~5~~~~~~~~~~~~~~5~~~~~~~~~~~~~~~~~~~~--|
D|---------------------------------------------------------------------------|
A|-3~~~~~~~~~~~~~~~~~~~~~~~~~~~~~~~~~~~3~~~~~~~~~~~~~~3~~~~~~~~~~~~~~~~~~~~--|
E|---------------------------------------------------------------------------|

e|---------------------------------------------------------------------------|
B|--------------------8~~~~~~~~~~~~~~~~--------------------------------------|
G|-8~~~~~~~~~~~~~~~~~~8~~~~~~~~~~~~~~~~5~~~~~~~~~~~~~------7~~~~~~~~~~~~~~~--|
D|----------------------------------------------------8~~~~8~~~~~~~~~~~~~~~--|
A|-6~~~~~~~~~~~~~~~~~~6~~~~~~~~~~~~~~~~3~~~~~~~~~~~~~------------------------|
E|----------------------------------------------------6~~~~6~~~~~~~~~~~~~~~--|

e|---------------------------------------------------------------------------|
B|--------------------8~~~~~~~~~~~~~~~~--------------------------------------|
G|-8~~~~~~~~~~~~~~~~~~8~~~~~~~~~~~~~~~~5~~~~~~~~~~~~~~-------7~~~~~~~~~~~~~~~|
D|----------------------------------------------------8~~~~~~8~~~~~~~~~~~~~~~|
A|-6~~~~~~~~~~~~~~~~~~6~~~~~~~~~~~~~~~~3~~~~~~~~~~~~~~-----------------------|
E|----------------------------------------------------6~~~~~~6~~~~~~~~~~~~~~~|

e|---------------------------------------------------------------------------|
B|--------------------8~~~~~~~~~~~~~~~~--------------------------------------|
G|-8~~~~~~~~~~~~~~~~~~8~~~~~~~~~~~~~~~~5~~~~~~~~~~~~~~~~~~~~~~~~~~~~~~~~~~~~~|
D|---------------------------------------------------------------------------|
A|-6~~~~~~~~~~~~~~~~~~6~~~~~~~~~~~~~~~~3~~~~~~~~~~~~~~~~~~~~~~~~~~~~~~~~~~~~~|
E|---------------------------------------------------------------------------|

Chorus:
"But I don't really mind,
but I don't really mind,
but I don't really mind,
but I don't really mind,
but I don't really mind,
but I don't really mind,
but I don't really mind,
but I don't really mind,
but I don't really mind,
but I don't really mind"
e|---------2----2--0--|
B|---------4----2--0--|
G|---------4----3--1--| x10
D|-4--4----4----4--2--|
A|-4--4----2----4--2--|
E|-2--2---------2--0--|

Fade out.


************************************

| /   slide up
| \   slide down
| h   hammer-on
| p   pull-off
| ~   sustain
| +   harmonic
| x   Mute note
| b   Bend
| pb  Pre-bend
| br  Bend release
| pbr Pre-bend release
| brb Bend release bend

************************************


And there you have it! Be sure to rate and comment on this album tab if you spot
any errors so I can fix them. Thanks!
comments
print report bad tab
13 comments total. Showing first comments.
-2 reply
shmoobie wrote on December 31 2012, 06:57 am

this is great! i find no mistakes at all. the only sucky thing is that they always play 1 whole step down. so to get the perfect sound you kinda have to. then you have to tab it out in your head a step higher. but other than that its perfect.

+2 reply
Psyche-Guitar wrote on December 31 2012, 07:33 pm

Well, I suppose the timbre would sound more accurate (heavier gauge strings and whatnot) a step down, but all the notes are the same, so you don't really need to. The difference is pretty small. When you're playing a fuzz guitar with phaser, delay and reverb you usually can't tell the difference. :p

Thanks for the comment - I spent ages working out these songs. Looks like the next challenge will be tabbing out Lonerism (argh, so many layers to work out on those songs!:D).

+1 reply
krallice wrote on January 12 2013, 04:35 pm

Brilliant work! One of the best tabbing jobs I've ever seen here. Absolutely massive.

I want to post or [tab]
guest
You may want to rate the tab now too:
select rating
Please do not post tabs as comments. Select "correction" instead!