Oops, an error
Loading. Please wait.

Lonerism Tab

5,803 views 99 this week
6 commentsread comments
1 2 3 4 5
excellent!
x 9
Autoscroll
+/-
esc
set tempo
stop
Contributor
Difficulty
intermediate
Hey! There's an official Ultimate Guitar app which is ideal
for learning songs when you're away from computer. Get the app
WARNING: You are trying to view
                                    content from Ultimate-Guitar.com
                                    in an unauthorized application,
                                    which is prohibited.

                                    Please use an official Ultimate
                                    Guitar Tabs application for iPhone,
                                    iPad or Android to access legitimate
                                    chords, guitar, bass, and drum tabs
                                    from Ultimate-Guitar.com database.

                                    Type "ultimate guitar tabs" in Apple
                                    App Store's or Android Market's
                                    search to find the application.
                             Lonerism by Tame Impala
                    Released in 2012, written by Kevin Parker

Here it is, the mindblowing latest album by my favourite band of all-time. All of these
tabs are my own work, and have been thoroughly checked for accuracy and completeness.
Every single sound on the album made by the guitars and synths (not including the crazy
synth noises which are completely untabble) is here. I made sure to include everything you
hear on the album in this tab.

I hope you enjoy playing the songs and be sure to support Tame Impala in any way
possible. They more than deserve it!

Tracklist:
01. Be Above It
02. Endors Toi
03. Apocalypse Dreams
04. Mind Mischief
05. Music to Walk Home By
06. Why Won't They Talk to Me?
07. Feels Like We Only Go Backwards
08. Keep on Lying
09. Elephant
10. She Just Won't Believe Me
11. Nothing That Has Happened So Far Has Been Anything We Could Control
12. Sun's Coming Up

To quickly find a song you are looking for, just press 'Ctrl F' and type the name of
the song. Now without further ado...


--------------------------------------------------------------------------------------
                                       Track 01
                                      Be Above It
--------------------------------------------------------------------------------------

Intro:
"Gotta be above it, gotta be above it, gotta be above it, gotta be above it..."
This is the note that the synth plays after the drums and vocals come in.
I've tried to indicate the rhythm with the spacing, because it's kind of strange:
e|---------------------------------------------------------------------|
B|---------------------------------------------------------------------|
G|---------------------------------------------------------------------|
D|---------------------------------------------------------------------|
A|-10----------------10----10----10--------10--------10----------------|
E|---------------------------------------------------------------------|


1st verse:
"And I know that I gotta be above it now,
And I know that I can't let them bring me down,
And I gotta bide my time as a face in the crowd,
And I know that I gotta be above it now"
Since there's hardly anything else going on during the verse, here's how to play
the vocal melody on guitar:
e|-----------------------------------------------|
B|-----------------------------------------------|
G|-------12--11-11-9-9-11-11-9-------------------| x3
D|-12-14-----------------------12.--12--\10\9----|
A|-----------------------------------------------|
E|-----------------------------------------------|

e|----------------------------------------|
B|----------------------------------------|
G|-------12--11-11-9-9-11-11-9------------|
D|-12-14-----------------------12.--12----|
A|----------------------------------------|
E|----------------------------------------|

The synth keeps that note
going after each line is sung:
e|-------------------|
B|-------------------|
G|-------------------| x3
D|-------------------|
A|-10----------------|
E|-------------------|

And the hit this chord after
the last line of the verse is sung:
e|-10--------------------------------|
B|-12--------------------------------|
G|-12--------------------------------|
D|-12--------------------------------|
A|-10--------------------------------|
E|-----------------------------------|


2nd verse:
"And I know that I gotta be above it now,
And I gotta bide my time as a face in the crowd,
And I know that I gotta be above it now,
And I can't let them all just bring me down"
e|-10----10----10----10----10----------------|
B|-12----12----12----12----12----------------|
G|-12----11----12----11----12----------------| x3
D|-12----12----12----12----12----------------|
A|-10----10----10----10----10----------------|
E|-------------------------------------------|


3rd verse - variation:
"This time I'm just gonna take it or I'm never gonna shake it,
I'll just close my eyes and make it so that all those little things don't affect me now,
Know that I gotta be above it now"
For this variation you hit the Gmaj7 chord 4 times before the G major:
e|-10----10----10----10----10----------------|
B|-12----12----12----12----12----------------|
G|-11----11----11----11----12----------------|
D|-12----12----12----12----12----------------|
A|-10----10----10----10----10----------------|
E|-------------------------------------------|

This is the vocal melody for this bit on guitar:
e|----------------------------------------------------|
B|----------------------------------------------------|
G|----------12-12-11-11-9-9----9-12-12-11-11-9-9----9-|
D|----12-14-----------------12-------------------12---|
A|-14-------------------------------------------------|
E|----------------------------------------------------|

e|----------------------------------------------------------------|
B|----------------------------------------------------------------|
G|-12-12-11-11-9-9----9-12-12-11-11-9-9-11-11-9-------------------|
D|-----------------12---------------------------12.--12--\10\9----|
A|----------------------------------------------------------------|
E|----------------------------------------------------------------|


4th verse:
"And I can't let them all just bring me down,
This time I'm just gonna take it or I'm never gonna shake it,
I'll just close my eyes and make it so that all those little things don't affect me now"
e|-10----10----10----10----10----------------|
B|-12----12----12----12----12----------------|
G|-12----11----12----11----12----------------| x2
D|-12----12----12----12----12----------------|
A|-10----10----10----10----10----------------|
E|-------------------------------------------|


Outro:
"Gotta be above it, gotta be above it, gotta be above it, gotta be above it..."
e|-10----10--------------------|
B|-12-----12-------------------|
G|-11------12------------------|
D|-12-------12-----------------|
A|-10--------10----------------|
E|-----------------------------|



************************************

| /   slide up
| \   slide down
| h   hammer-on
| p   pull-off
| ~   vibrato
| +   harmonic
| x   Mute note
| .   staccato
| b   Bend
| pb  Pre-bend
| br  Bend release
| pbr Pre-bend release
| brb Bend release bend

************************************	

--------------------------------------------------------------------------------------
                                       Track 02
                                      Endors Toi
--------------------------------------------------------------------------------------

Intro:
Rhythm guitar:
e|-----------------------------------------------------------------|
B|-3--3--3--3-3--3--6--6--6-6--6--4--4--4-4--4-4--4--4--4--4-4--4--|
G|-4--4--4--4-4--4--7--7--7-7--7--3--3--3-3--3-3--3--5--5--5-5--5--| \
D|-5--5--5--5-5--5--8--8--8-8--8--5--5--5-5--5-5--5--6--6--6-6--6--|  \
A|-5--5--5--5-5--5--8--8--8-8--8--6--6--6-6--6-6--6--6--6--6-6--6--|   \
E|-----------------------------------------------------------------|    |
                                                                        | x2
e|---------------------------------------------------------------|      |
B|-1--1-1-1--1-1--1--6--6--6-6--6--4--4--4--4-4-4--4--4--4-4--4--|     /
G|-2--2-2-2--2-2--2--7--7--7-7--7--3--3--3--3-3-3--5--5--5-5--5--|    /
D|-3--3-3-3--3-3--3--8--8--8-8--8--5--5--5--5-5-5--6--6--6-6--6--|   /
A|-3--3-3-3--3-3--3--8--8--8-8--8--6--6--6--6-6-6--6--6--6-6--6--|
E|---------------------------------------------------------------|

Synth lead:
e|-------------------------------------------------------------------|
B|-------------------------------------------------------------------|
G|-/12------\8--\7--/8\7--3-/5---/8-\7---/12-\8-/10--\8-\7--\-/5-\1--| x2
D|-------------------------------------------------------------------|
A|-------------------------------------------------------------------|
E|-------------------------------------------------------------------|


Drums kick in:
The guitar stops playing the chords and the synth plays them instead:
e|----------------------------------------|
B|-4--------4----4----1----6----4----4----|
G|----------3----5----2----7----3----5----|
D|----------5----6----3----8----5----6----|
A|----------6----6----3----8----6----6----|
E|----------------------------------------|

e|-----------------------------------------|
B|-3----6----4----4----1----6----4----4----|
G|-4----7----3----5----2----7----3----5----| x2
D|-5----8----5----6----3----8----5----6----|
A|-5----8----6----6----3----8----6----6----|
E|-----------------------------------------|

Synth lead:
e|-------------------------------------------------------------------|
B|-------------------------------------------------------------------|
G|-/12------\8--\7--/8\7--3-/5---/8-\7---/12-\8-/10--\8-\7--\-/5-\1--|
D|-------------------------------------------------------------------|
A|-------------------------------------------------------------------|
E|-------------------------------------------------------------------|

e|-----------------------------------------------------------------|
B|-----------------------------------------------------------------|
G|-/12------\8--\7--/8\7--3-/5---/8-\7---/12-\8-/10----/12--/15----|
D|-----------------------------------------------------------------|
A|-----------------------------------------------------------------|
E|-----------------------------------------------------------------|

e|------------------------------------------------------------------------------------|
B|------------------------------------------------------------------------------------|
G|-/17--\15--\12----/15--\12---/13--/17--\15----10\8/10----8\5/7--\3/5---/8--\7--/12--|
D|------------------------------------------------------------------------------------|
A|------------------------------------------------------------------------------------|
E|------------------------------------------------------------------------------------|


Pre-verse:
Synth:
e|-----------------------------------------|
B|-3----6----4----4----1----6----4----4----|
G|-4----7----3----5----2----7----3----5----|
D|-5----8----5----6----3----8----5----6----|
A|-5----8----6----6----3----8----6----6----|
E|-----------------------------------------|


Verse:
"Soothing repeat, I look down at my feet,
It's a hypnotist's arm and it works like a charm,
But I won't be deprived, real worlds, surreal life,
Do or die, there is time, go to sleep, you'll be fine,
In the morning you'll find real life was such a grind,
Off I go, day is done where a new one's just begun"
Synth:
e|-----------------------------------------|
B|-3----6----4----4----1----6----4----4----|
G|-4----7----3----5----2----7----3----5----| x3
D|-5----8----5----6----3----8----5----6----|
A|-5----8----6----6----3----8----6----6----|
E|-----------------------------------------|


Post-verse:
Synth:
e|-----------------------------------------|
B|-3----6----4----4----1----6----4----4----|
G|-4----7----3----5----2----7----3----5----|
D|-5----8----5----6----3----8----5----6----|
A|-5----8----6----6----3----8----6----6----|
E|-----------------------------------------|


Outro riff:
e|----------------------------------------------------------|
B|----------------------------------------------------------|
G|----------12--12--10.--10----8--8--8--10--/12-------------|
D|-5--5-----12--12--10.--10----8--8--8--10--/12----6.--6----|
A|-5--5-----10--10---8.---8----6--6--6---8--/10----6.--6----|
E|-3--3--/10---------------------------------------4.--4----|

e|----------------------------------------------------------|
B|----------------------------------------------------------|
G|-----------10-12-15----------8--8-------------------------|
D|-3--3--/8--10-12-15--8.-8----8--8--5-6-5-6----6.--6/8-----|
A|-3--3--/8---8-10-13--8.-8----6--6--5-6-5-6------------6\--|
E|-1--1--/6------------6.-6----------3-4-3-4----------------|

e|------------------------------------------------------------|
B|------------------------------------------------------------|
G|----------12--12--10.--10--/-\-8--8--8--10--/12-------------|
D|-5--5-----12--12--10.--10--/-\-8--8--8--10--/12----6.--6----|
A|-5--5-----10--10---8.---8--/-\-6--6--6---8--/10----6.--6----|
E|-3--3--/10-----------------------------------------4.--4----|

e|--------------------------------------------------------|
B|-----------------------------8-------------------9.-----|
G|-----------10-12-15----------10-b12--12r10--8--------7--|
D|-3--3--/8--10-12-15--8.-8-------------------------------|
A|-3--3--/8---8-10-13--8.-8-------------------------------|
E|-1--1--/6------------6.-6-------------------------------|

Synth plays the chords behind the solo:
e|-----------------------------------------|
B|-3----6----4----4----1----6----4----4----|
G|-4----7----3----5----2----7----3----5----| x2
D|-5----8----5----6----3----8----5----6----|
A|-5----8----6----6----3----8----6----6----|
E|-----------------------------------------|


End on:
Synth:
e|----------|
B|-3--------|
G|-4--------|
D|-5--------|
A|-5--------|
E|----------|



************************************

| /   slide up
| \   slide down
| h   hammer-on
| p   pull-off
| ~   vibrato
| +   harmonic
| x   Mute note
| .   staccato
| b   Bend
| pb  Pre-bend
| br  Bend release
| pbr Pre-bend release
| brb Bend release bend

************************************

--------------------------------------------------------------------------------------
                                       Track 03
                                   Apocalypse Dreams
--------------------------------------------------------------------------------------

Intro:
Piano - the piano just hits these chords once
each, but you can add in a strumming pattern
that follows the rhythm that the bass plays:
e|-3------0--1------0---------4--|
B|-3------0--3------1--4------4--|
G|-4------0--3------2--3------5--|
D|-5------2--3------2--5------6--|
A|-5------2--1------0--6------6--|
E|-3------0-------------------4--|


Verse 1:
"This could be the day that we push through, it could be the day that all our dreams come true,
For me and you, 'til we're at the end of just another day"
Piano:
e|-3------0--1------0---------4--|
B|-3------0--3------1--4------4--|
G|-4------0--3------2--3------5--| x2
D|-5------2--3------2--5------6--|
A|-5------2--1------0--6------6--|
E|-3------0-------------------4--|

Keyboard comes in on the second repeat of the progression, on the word "true":
e|---------------------------------1-1-1-1-1-1-1-1-1-1-1-1-|
B|-3-3-3-3-3-3-3-3-3-3-3-3-0-0-0-0-3-3-3-3-3-3-3-3-3-3-3-3-|
G|-4-4-4-4-4-4-4-4-4-4-4-4-0-0-0-0-3-3-3-3-3-3-3-3-3-3-3-3-|
D|-5-5-5-5-5-5-5-5-5-5-5-5-2-2-2-2-------------------------|
A|---------------------------------------------------------|
E|---------------------------------------------------------|

e|-0-0-0-0---------------------------------|
B|-1-1-1-1-4-4-4-4-4-4-4-4-4-4-4-4-4-4-4-4-|
G|-2-2-2-2-3-3-3-3-3-3-3-3-3-3-3-3-5-5-5-5-|
D|---------5-5-5-5-5-5-5-5-5-5-5-5-6-6-6-6-|
A|-----------------------------------------|
E|-----------------------------------------|


Interlude - instrumental:
Piano:
e|-2--------6--------2--------6----1----|
B|-2--------8--------2--------8----1----|
G|-3--------8--------3--------8----2----|
D|-4--------8--------4--------8----3----|
A|-4--------6--------4--------6----3----|
E|-2-----------------2-------------1----|

Synth:
e|-6--------6--------6--------6----1----|
B|-6--------8--6--4--6--------8----1----|
G|-6--------8--------6--------8----2----|
D|-4--------8--------4--------8----3----|
A|----------6-----------------6----3----|
E|---------------------------------1----|


Verse 2:
"Are you too terrified to try your best? Just to end up with an educated guess,
Like success, like those times you wake up mystified"
Piano and synth:
e|-3------0--1------0---------4--|
B|-3------0--3------1--4------4--|
G|-4------0--3------2--3------5--| x2
D|-5------2--3------2--5------6--|
A|-5------2--1------0--6------6--|
E|-3------0-------------------4--|

Keyboard:
e|---------------------------------1-1-1-1-1-1-1-1-1-1-1-1-|
B|-3-3-3-3-3-3-3-3-3-3-3-3-0-0-0-0-3-3-3-3-3-3-3-3-3-3-3-3-|
G|-4-4-4-4-4-4-4-4-4-4-4-4-0-0-0-0-3-3-3-3-3-3-3-3-3-3-3-3-|
D|-5-5-5-5-5-5-5-5-5-5-5-5-2-2-2-2-------------------------|
A|---------------------------------------------------------|
E|---------------------------------------------------------|

e|-0-0-0-0---------------------------------|
B|-1-1-1-1-4-4-4-4-4-4-4-4-4-4-4-4-4-4-4-4-|
G|-2-2-2-2-3-3-3-3-3-3-3-3-3-3-3-3-5-5-5-5-|
D|---------5-5-5-5-5-5-5-5-5-5-5-5-6-6-6-6-|
A|-----------------------------------------|
E|-----------------------------------------|

e|---------------------------------1-1-1-1-1-1-1-1-1-1-1-1-0-0-0-0-|
B|-3-3-3-3-3-3-3-3-3-3-3-3-0-0-0-0-3-3-3-3-3-3-3-3-3-3-3-3-1-1-1-1-|
G|-4-4-4-4-4-4-4-4-4-4-4-4-0-0-0-0-3-3-3-3-3-3-3-3-3-3-3-3-2-2-2-2-|
D|-5-5-5-5-5-5-5-5-5-5-5-5-2-2-2-2---------------------------------|
A|-----------------------------------------------------------------|
E|-----------------------------------------------------------------|


Verse 3:
"Oh, it feels so real in my sleep, never held something so close I couldn't keep,
Into the day, the strangest feeling, do you really live without the fear?"
Piano and synth:
e|-3------0--1------0---------4--|
B|-3------0--3------1--4------4--|
G|-4------0--3------2--3------5--| x2
D|-5------2--3------2--5------6--|
A|-5------2--1------0--6------6--|
E|-3------0-------------------4--|

Keyboard:

e|---------------------------------1-1-1-1-1-1-1-1-1-1-1-1-|
B|-3-3-3-3-3-3-3-3-3-3-3-3-0-0-0-0-3-3-3-3-3-3-3-3-3-3-3-3-|
G|-4-4-4-4-4-4-4-4-4-4-4-4-0-0-0-0-3-3-3-3-3-3-3-3-3-3-3-3-|
D|-5-5-5-5-5-5-5-5-5-5-5-5-2-2-2-2-------------------------|
A|---------------------------------------------------------|
E|---------------------------------------------------------|

e|-0-0-0-0---------------------------------|
B|-1-1-1-1-4-4-4-4-4-4-4-4-4-4-4-4-4-4-4-4-|
G|-2-2-2-2-3-3-3-3-3-3-3-3-3-3-3-3-5-5-5-5-|
D|---------5-5-5-5-5-5-5-5-5-5-5-5-6-6-6-6-|
A|-----------------------------------------|
E|-----------------------------------------|

e|---------------------------------1-1-1-1-1-1-1-1-1-1-1-1-0-0-0-0-------------------------|
B|-3-3-3-3-3-3-3-3-3-3-3-3-0-0-0-0-3-3-3-3-3-3-3-3-3-3-3-3-1-1-1-1-4-4-4-4-4-4-4-4-4-4-4-4-|
G|-4-4-4-4-4-4-4-4-4-4-4-4-0-0-0-0-3-3-3-3-3-3-3-3-3-3-3-3-2-2-2-2-3-3-3-3-3-3-3-3-3-3-3-3-|
D|-5-5-5-5-5-5-5-5-5-5-5-5-2-2-2-2---------------------------------5-5-5-5-5-5-5-5-5-5-5-5-|
A|-----------------------------------------------------------------------------------------|
E|-----------------------------------------------------------------------------------------|


Interlude with vocals:
"Everything is changing, and there's nothing I can do,
My world is turning pages, while I am just sitting here"
Piano:
e|-2--------6--------2--------6----1----|
B|-2--------8--------2--------8----1----|
G|-3--------8--------3--------8----2----| x2
D|-4--------8--------4--------8----3----|
A|-4--------6--------4--------6----3----|
E|-2-----------------2-------------1----|

Synth and guitar:
e|-6--------6--------6--------6----1----|
B|-6--------8--------6--------8----1----|
G|-6--------8--------6--------8----2----| x2
D|-4--------8--------4--------8----3----|
A|----------6-----------------6----3----|
E|---------------------------------1----|

Guitar with vibrato effect - this one comes in on the last chord of the
sequence (F major chord) and continues into the next repeat of the progression:
e|----------------------------------------|
B|----------------------------------------|
G|-6~-----------8~---6~-------------------|
D|----------------------------------------|
A|----------------------------------------|
E|----------------------------------------|


Verse breakdown prelude:
Synth:
e|-----3-------3-------3-0-----3-----1-------1-----|
B|---3---3---3---3---3-----0-3-----3---3---3---3---|
G|-4-------4-------4-------------3-------3-------3-|
D|-------------------------------------------------|
A|-------------------------------------------------|
E|-------------------------------------------------|

e|---1---------0-1-------------------------------3-|
B|-3---3-----1---------4-------4-------4-3---3-4---|
G|-------3-2---------3---3---3---3---3-----5-------|
D|-----------------5-------5-------5---------------|
A|-------------------------------------------------|
E|-------------------------------------------------|

Guitar:
e|---------3/5---3/5--1---------------------------------------|
B|-/3-------------------------1-3-1-3-1------------3-------3--|
G|---------------------------------------3--2----3----5--5----|
D|------------------------------------------------------------|
A|------------------------------------------------------------|
E|------------------------------------------------------------|


Verse breakdown:
"Well,
Am I getting closer?
Will I ever get there?
Does it even..."
Synth:
e|-----3-------3-------3-0-----3-----1-------1-----|
B|---3---3---3---3---3-----0-3-----3---3---3---3---|
G|-4-------4-------4-------------3-------3-------3-|
D|-------------------------------------------------|
A|-------------------------------------------------|
E|-------------------------------------------------|

e|---1---------0-1-------------------------------3-|
B|-3---3-----1---------4-------4-------4-3---3-4---|
G|-------3-2---------3---3---3---3---3-----5-------|
D|-----------------5-------5-------5---------------|
A|-------------------------------------------------|
E|-------------------------------------------------|

Guitar plays the melody:
e|---------3-5-3-5-3h5--\1-------------------------|
B|-/3--------------------------1-3-1-3-1-----------|
G|----------------------------------------3--------|
D|-------------------------------------------------|
A|-------------------------------------------------|
E|-------------------------------------------------|


Verse 4:
"...matter?
Do I really need it?
Push it out the window,
On an on we all go (this could be the day that we...),
Into another morning (...push through),
Does it really matter? (it could be the day that all our...)
It was only yesterday (...dreams come true - oh, it feels so real...),
Didn't even know you (...in my sleep),
Now I'm gonna miss you (never held something so close I could-...)"
Synth:
e|-----3-------3-------3-0-----3-----1-------1-----|
B|---3---3---3---3---3-----0-3-----3---3---3---3---|
G|-4-------4-------4-------------3-------3-------3-| \
D|-------------------------------------------------|  \
A|-------------------------------------------------|   \
E|-------------------------------------------------|    |
                                                        | x3
e|---1---------0-1-------------------------------3-|    |
B|-3---3-----1---------4-------4-------4-3---3-4---|   /
G|-------3-2---------3---3---3---3---3-----5-------|  /
D|-----------------5-------5-------5---------------| /
A|-------------------------------------------------|
E|-------------------------------------------------|

Piano:
e|-3------0--1------0---------4--|
B|-3------0--3------1--4------4--|
G|-4------0--3------2--3------5--| x3
D|-5------2--3------2--5------6--|
A|-5------2--1------0--6------6--|
E|-3------0-------------------4--|


*Pause for a second*



Outro:
Piano:
e|-2--------6--------2--------6----1----|
B|-2--------8--------2--------8----1----|
G|-3--------8--------3--------8----2----|
D|-4--------8--------4--------8----3----|
A|-4--------6--------4--------6----3----|
E|-2-----------------2-------------1----|

e|-2--------6--------2--------6-----8----|
B|-2--------8--------2--------8----10----|
G|-3--------8--------3--------8----10----|
D|-4--------8--------4--------8----10----|
A|-4--------6--------4--------6-----8----|
E|-2-----------------2-------------------|

Guitar:
e|-6--------6--------6--------6----1----|
B|-6--------8--------6--------8----1----|
G|-6--------8--------6--------8----2----|
D|-4--------8--------4--------8----3----|
A|----------6-----------------6----3----|
E|---------------------------------1----|

e|-6--------6--------6--------6-----8----|
B|-6--------8--------6--------8----10----|
G|-6--------8--------6--------8----10----|
D|-4--------8--------4--------8----10----|
A|----------6-----------------6-----8----|
E|---------------------------------------|

Fuzzed guitar lead:
e|---------------------------------------------------------------------|
B|---------------------------------------------------------------------|
G|-10-----------------8-------------10-----------------8--8------------|
D|-----11--10-8-10-11----10--10--8------11--10-8-10-11------11-10--10--|
A|---------------------------------------------------------------------|
E|---------------------------------------------------------------------|

e|------------------------------------------------------------------------|
B|------------------------------------------------------------------------|
G|--------------------------8----------------10--8---------------8--------|
D|-8-10--11--11--10-8-10-11----10--11-10--8---------10-8-10-11------------|
A|------------------------------------------------------------------------|
E|------------------------------------------------------------------------|


Vocals come in:
"Nothing ever changes, no matter how long you do your hair, looks the same to everyone else,
Everything is changing, I guess I should warn my Mum, but she'll just be excited"
Piano:
e|-2--------6--------2--------6----5----4--------|
B|-2--------8--------2--------8----8----6--------|
G|-3--------8--------3--------8----8----6--------| x2
D|-4--------8--------4--------8----8----6--------|
A|-4--------6--------4--------6----5----4--------|
E|-2-----------------2---------------------------|

Guitar:
e|-6--------6--------6--------6----5----4--------|
B|-6--------8--------6--------8----8----6--------|
G|-6--------8--------6--------8----8----6--------| x2
D|-4--------8--------4--------8----8----6--------|
A|----------6-----------------6----5----4--------|
E|-----------------------------------------------|


Instrumental jam:
Piano:
e|-2--------6--------2--------6----5----4--------|
B|-2--------8--------2--------8----8----6--------|
G|-3--------8--------3--------8----8----6--------| x2
D|-4--------8--------4--------8----8----6--------|
A|-4--------6--------4--------6----5----4--------|
E|-2-----------------2---------------------------|

Guitar:
e|-6--------6--------6--------6----5----4--------|
B|-6--------8--------6--------8----8----6--------|
G|-6--------8--------6--------8----8----6--------| x2
D|-4--------8--------4--------8----8----6--------|
A|----------6-----------------6----5----4--------|
E|-----------------------------------------------|

Synth guitar plays the vocal melody:
e|-13--13--11-13--11------------------------/13--11---------------------------------------------|
B|--------------------14----11--11--13--14-----------14----11----11-/18----18\--13h14--13-11----| x2
G|----------------------------------------------------------------------------------------------|
D|----------------------------------------------------------------------------------------------|
A|----------------------------------------------------------------------------------------------|
E|----------------------------------------------------------------------------------------------|


Extra guitar comes in:
Guitar:
e|-----------------------------------------------|
B|-----------------------------------------------|
G|----------8---\3--11---\6---8----7----6--------| x4
D|-4---------------------------------------------|
A|----------6---\1---9---\4---6----5----4--------|
E|-2---------------------------------------------|

Piano:
e|-2--------6--------2--------6----5----4--------|
B|-2--------8--------2--------8----8----6--------|
G|-3--------8--------3--------8----8----6--------| x4
D|-4--------8--------4--------8----8----6--------|
A|-4--------6--------4--------6----5----4--------|
E|-2-----------------2---------------------------|

Guitar:
e|-6--------6--------6--------6----5----4--------|
B|-6--------8--------6--------8----8----6--------|
G|-6--------8--------6--------8----8----6--------| x4
D|-4--------8--------4--------8----8----6--------|
A|----------6-----------------6----5----4--------|
E|-----------------------------------------------|

Synth guitar plays the vocal melody:
e|-13--13--11-13--11------------------------/13--11---------------------------------------------|
B|--------------------14----11--11--13--14-----------14----11----11-/18----18\--13h14--13-11----| x4
G|----------------------------------------------------------------------------------------------|
D|----------------------------------------------------------------------------------------------|
A|----------------------------------------------------------------------------------------------|
E|----------------------------------------------------------------------------------------------|

Fade out.



************************************

| /   slide up
| \   slide down
| h   hammer-on
| p   pull-off
| ~   vibrato
| +   harmonic
| x   Mute note
| .   staccato
| b   Bend
| pb  Pre-bend
| br  Bend release
| pbr Pre-bend release
| brb Bend release bend

************************************

--------------------------------------------------------------------------------------
                                       Track 04
                                     Mind Mischief
--------------------------------------------------------------------------------------

Intro:
Guitar:
e|--------------------------------------|
B|---------6h7--6.-4.-6.--2-------------|
G|-3--4\---6h8--6.-4.-6.--3h4p3--3------| x4
D|-4--6\-------------------------4------|
A|--------------------------------------|
E|--------------------------------------|


Verse 1:
"Feels like my life is ready to blow,
Me and my love we'll take it slow,
I hope she knows that I'll love her long,
I just don't know where the hell I belong"
Guitar:
e|--------------------------------------|
B|---------6h7--6.-4.-6.--2-------------|
G|-3--4\---6h8--6.-4.-6.--3h4p3--3------| x4
D|-4--6\-------------------------4------|
A|--------------------------------------|
E|--------------------------------------|


Verse 2:
"How optimism lead me astray,
Two hundred things I took the wrong way,
I saw her love gauge running low,
I tried to fill but it overflowed"
Guitar:
e|--------------------------------------|
B|---------6h7--6.-4.-6.--2-------------|
G|-3--4\---6h8--6.-4.-6.--3h4p3--3------| x4
D|-4--6\-------------------------4------|
A|--------------------------------------|
E|--------------------------------------|


Verse 3:
"Feels like my life is ready to blow,
Me and my love we'll take it slow,
I hope she knows that I'll love her long,
I just don't know where the hell I belong, oh no"
Guitar:
e|--------------------------------------|
B|---------6h7--6.-4.-6.--2-------------|
G|-3--4\---6h8--6.-4.-6.--3h4p3--3------| x4
D|-4--6\-------------------------4------|
A|--------------------------------------|
E|--------------------------------------|


Guitar lead:
e|--------------------------------------------|
B|-6h7-7--7--7--6--6--6--4--4--4--4\2--2------|
G|--------------------------------------------| x4
D|--------------------------------------------|
A|--------------------------------------------|
E|--------------------------------------------|

The other guitar keeps the riff going:
e|--------------------------------------|
B|---------6h7--6.-4.-6.--2-------------|
G|-3--4\---6h8--6.-4.-6.--3h4p3--3------| x4
D|-4--6\-------------------------4------|
A|--------------------------------------|
E|--------------------------------------|


Chorus:
"She remembers my name, could be blown way out"
Guitar plays a heavier version of the main riff:
e|-----------------------------------------------------------------------------------|
B|-----------------------------------------------------------------------------------|
G|---------6/8--6--------------------------------------------------------------------|
D|-4--6\-----------6---4-4-4-4-4------4-----4--6\------------------------------4-----|
A|--------------------------------4h6---4h6---------4/6--4-----------------4h6---4h6-|
E|----------------------------------------------------------4---2-2-2-2-2------------|


"It's all going to change, she remembers my name"
e|-----------------------------------------------------------------------------|
B|-----------------------------------------------------------------------------|
G|---------6/8--6--------------------------------------------------------------|
D|-4--6\-----------6---4-4-4-4-4------4-----4--6\------------------------------|
A|--------------------------------4h6---4h6---------4/6--4---------------------|
E|----------------------------------------------------------4---2-2-2-2-2------|


Verse variation:
"But she was only messing around,
Please, no more playing with my heart"
Guitar:
e|--------------------------------------|
B|---------6h7--6.-4.-6.--2-------------|
G|-3--4\---6h8--6.-4.-6.--3h4p3--3------| x4
D|-4--6\-------------------------4------|
A|--------------------------------------|
E|--------------------------------------|

Synth plays these chords:
e|-11--11-11--11--11---9---9--9---9---9--11--11-11--11--11---9---9--9--------|
B|-11--11-11--11--11--11--11-11--11--11--11--11-11--11--11--11--11-11--6--6--|
G|-11--11-11--11--11--10--10-10--10--10--11--11-11--11--11--10--10-10--6--6--|
D|--9---9--9---9---9----------------------9---9--9---9---9-------------8--8--|
A|---------------------------------------------------------------------------|
E|---------------------------------------------------------------------------|

e|-11--11-11--11--11---9---9--9---9---9--11--11-11--11--11---9------------|
B|-11--11-11--11--11--11--11-11--11--11--11--11-11--11--11--11--6--6------|
G|-11--11-11--11--11--10--10-10--10--10--11--11-11--11--11--10--6--6------|
D|--9---9--9---9---9----------------------9---9--9---9---9------8--8------|
A|------------------------------------------------------------------------|
E|------------------------------------------------------------------------|


Pause for a little bit and then...


Verse variation without guitar:
"Ooh, go with Mr. Right just for once (then it all just came out),
Ooh, no more mischief with my mind (guess I'll hold it in next time)"
Synth:
e|-11--11-11--11--11---9---9--9---9---9--11--11-11--11--11---9---9--9--------|
B|-11--11-11--11--11--11--11-11--11--11--11--11-11--11--11--11--11-11--6--6--|
G|-11--11-11--11--11--10--10-10--10--10--11--11-11--11--11--10--10-10--6--6--|
D|--9---9--9---9---9----------------------9---9--9---9---9-------------8--8--|
A|---------------------------------------------------------------------------|
E|---------------------------------------------------------------------------|

e|-11--11-11--11--11---9---9--9---9---9--11--11-11--11--11---9------------|
B|-11--11-11--11--11--11--11-11--11--11--11--11-11--11--11--11--6--6------|
G|-11--11-11--11--11--10--10-10--10--10--11--11-11--11--11--10--6--6------|
D|--9---9--9---9---9----------------------9---9--9---9---9------8--8------|
A|------------------------------------------------------------------------|
E|------------------------------------------------------------------------|


Chorus:
"No more getting it wrong, I'll be frozen here on"
Guitar:
e|-----------------------------------------------------------------------------------|
B|-----------------------------------------------------------------------------------|
G|---------6/8--6--------------------------------------------------------------------|
D|-4--6\-----------6---4-4-4-4-4------4-----4--6\------------------------------4-----|
A|--------------------------------4h6---4h6---------4/6--4-----------------4h6---4h6-|
E|----------------------------------------------------------4---2-2-2-2-2------------|


"If forever, we'll see, no more guessing for me"
e|-----------------------------------------------------------------------------|
B|-----------------------------------------------------------------------------|
G|---------6/8--6--------------------------------------------------------------|
D|-4--6\-----------6---4-4-4-4-4------4-----4--6\------------------------------|
A|--------------------------------4h6---4h6---------4/6--4---------------------|
E|----------------------------------------------------------4---2-2-2-2-2------|


Pre-bridge:
Guitar:
e|----------|
B|----------|
G|-5/7\5----|
D|----------|
A|----------|
E|----------|

Synth:
e|-3--------|
B|-5--------|
G|-5--------|
D|-5--------|
A|-3--------|
E|----------|


Bridge:
Synth:
"Ooh, I was just so sure of everything"
e|-11--11-11--11--11---9---9--9---9---9--11--11-11--11--11---9---9--9--------|
B|-11--11-11--11--11--11--11-11--11--11--11--11-11--11--11--11--11-11--6--6--|
G|-11--11-11--11--11--10--10-10--10--10--11--11-11--11--11--10--10-10--6--6--|
D|--9---9--9---9---9----------------------9---9--9---9---9-------------8--8--|
A|---------------------------------------------------------------------------|
E|---------------------------------------------------------------------------|


"Ooh, that's what you get for dreaming aloud"
Guitar lead comes in:
e|------------------------------------------------------------------------------|
B|-6h7-7-6-7p6-4--2h4-4-2-4p2----------6h7-7-6-7p6-4--2h4-4-2-4p2---------------|
G|----------------------------3-----------------------------------3--1h3-1------|
D|-------------------------------------------------------------------------3----|
A|------------------------------------------------------------------------------|
E|------------------------------------------------------------------------------|

Synth keeps the rhythm going:
e|-11--11-11--11--11---9---9--9---9---9--11--11-11--11--11---9---9--9--------|
B|-11--11-11--11--11--11--11-11--11--11--11--11-11--11--11--11--11-11--6--6--|
G|-11--11-11--11--11--10--10-10--10--10--11--11-11--11--11--10--10-10--6--6--|
D|--9---9--9---9---9----------------------9---9--9---9---9-------------8--8--|
A|---------------------------------------------------------------------------|
E|---------------------------------------------------------------------------|


"Then it all just came out,
Guess I'll hold it from now on"
Then a fuzzed out lead guitar plays this in
the background. it's a little bit hard to hear:
e|-------------------------------|
B|-------------------------------|
G|------6/8--6-4-3---3-/4--4-/6--| x2
D|-4-----------------------------|
A|-------------------------------|
E|-------------------------------|

Synth:
e|-11--11-11--11--11---9---9--9---9---9--11--11-11--11--11---9---9--9--------|
B|-11--11-11--11--11--11--11-11--11--11--11--11-11--11--11--11--11-11--6--6--|
G|-11--11-11--11--11--10--10-10--10--10--11--11-11--11--11--10--10-10--6--6--|
D|--9---9--9---9---9----------------------9---9--9---9---9-------------8--8--|
A|---------------------------------------------------------------------------|
E|---------------------------------------------------------------------------|


Outro:
"If forever, we'll see"
Synth:
e|-11--11-11--11--11---9---9--9---9---9--|
B|-11--11-11--11--11--11--11-11--11--11--|
G|-11--11-11--11--11--10--10-10--10--10--|
D|--9---9--9---9---9---------------------|
A|---------------------------------------|
E|---------------------------------------|


Then the heavier main riff comes back in once more, with a slight variation:
"No more guessing for me (oh, the day that words are clearer for me)"
Guitar:

e|-------------------------------------------|
B|-------------------------------------------|
G|-------------------------------------------|
D|-----4--6\---------------------------------|
A|-4h6---------4/6--4------------------------|
E|---------------------4.-6.--2-2-2-2-2------|

End with flanger pedal noise.



************************************

| /   slide up
| \   slide down
| h   hammer-on
| p   pull-off
| ~   vibrato
| +   harmonic
| x   Mute note
| .   staccato
| b   Bend
| pb  Pre-bend
| br  Bend release
| pbr Pre-bend release
| brb Bend release bend

************************************

--------------------------------------------------------------------------------------
                                       Track 05
                                 Music to Walk Home By
--------------------------------------------------------------------------------------

Intro:
The song starts off with some crazy synth sound effects and then goes into...


Chorus:
"But that's only when I think of you,
Some vision that I hold on to,
You know it's everything I do,
You know it's everything I do"
Synth:
e|-10-------8----------10-------8----------10-------8----------10------12----------|
B|-10-------8----------10-------8----------10-------8----------10------12----------|
G|-11-------9----------11-------9----------11-------9----------11------12----------|
D|-12------10----------12------10----------12------10----------12------10----------|
A|-12------10----------12------10----------12------10----------12------------------|
E|-10-------8----------10-------8----------10-------8----------10------------------|


Synth solo:
Synth:
e|------------------------------------------------------------------|
B|-7---8-5---------7---8-5----/13--\12--10--8-------7--8\5------/7--|
G|--------------7------------------------------7--------------------|
D|------------------------------------------------------------------|
A|------------------------------------------------------------------|
E|------------------------------------------------------------------|

Guitar:
e|-10--10-10-10--10-10-10.---8--8--8--.---8--8--8--.---8--8--8----|
B|-10--10-10-10--10-10-10.---8--8--8--.---8--8--8--.---8--8--8----|
G|-11--11-11-11--11-11-11.---9--9--9--.---9--9--9--.---9--9--9----| x3
D|-12--12-12-12--12-12-12.--10-10-10--.--10-10-10--.--10-10-10----|
A|-12--12-12-12--12-12-12.--10-10-10--.--10-10-10--.--10-10-10----|
E|-10--10-10-10--10-10-10.---8--8--8--.---8--8--8--.---8--8--8----|

e|-10--10-10-10--10-10-10.--12-12-12--.--12-12-12--.--12-12-12----|
B|-10--10-10-10--10-10-10.--12-12-12--.--12-12-12--.--12-12-12----|
G|-11--11-11-11--11-11-11.--12-12-12--.--12-12-12--.--12-12-12----|
D|-12--12-12-12--12-12-12.--10-10-10--.--10-10-10--.--10-10-10----|
A|-12--12-12-12--12-12-12.----------------------------------------|
E|-10--10-10-10--10-10-10.----------------------------------------|


Verse:
"Can almost stand competing with the others,
Can almost hear the fun that I should be having,
Instead of just dreaming"
Guitar:
e|-5--5-5--5-5-5-.-5--5-5--5-5-5--5--5-5--5-5-5-.-5--.--3--.--3--.--|
B|-7--7-7--7-7-7-.-5--5-5--5-5-5--7--7-7--7-7-7-.-5--.--5--.--3--.--|
G|-6--6-6--6-6-6-.-5--5-5--5-5-5--6--6-6--6-6-6-.-5--.--5--.--4--.--|
D|-7--7-7--7-7-7-.-7--7-7--7-7-7--7--7-7--7-7-7-.-7--.--5--.--5--.--|
A|-5--5-5--5-5-5-.-7--7-7--7-7-7--5--5-5--5-5-5-.-7--.--3--.--5--.--|
E|-----------------5--5-5--5-5-5------------------5--.--------3--.--|

e|-5--5--5-5.--5-5-5-.--5-5-5-.-5-5-5-.--3--3--3-3.-3-.-3--5.--7.---8----|
B|-7--7--7-7.--5-5-5-.--5-5-5-.-5-5-5-.--3--3--3-3.-3-.-3--5.--7.--10----|
G|-7--7--7-7.--5-5-5-.--5-5-5-.-5-5-5-.--4--4--4-4.-4-.-4--5.--7.--10----|
D|-7--7--7-7.--7-7-7-.--7-7-7-.-7-7-7-.--5--5--5-5.-5-.-5--7.--9.--10----|
A|-5--5--5-5.--7-7-7-.--7-7-7-.-7-7-7-.--5--5--5-5.-5-.-5--7.--9.---8----|
E|-------------5-5-5-.--5-5-5-.-5-5-5-.--3--3--3-3.-3-.-3--5.--7.--------|


Chorus:
"But it's only when I think of you,
The mover I could turn into,
There must be something I can do,
There must be something I can do"
e|-10--10-10-10--10-10-10.---8--8--8--.---8--8--8--.---8--8--8----|
B|-10--10-10-10--10-10-10.---8--8--8--.---8--8--8--.---8--8--8----|
G|-11--11-11-11--11-11-11.---9--9--9--.---9--9--9--.---9--9--9----| x3
D|-12--12-12-12--12-12-12.--10-10-10--.--10-10-10--.--10-10-10----|
A|-12--12-12-12--12-12-12.--10-10-10--.--10-10-10--.--10-10-10----|
E|-10--10-10-10--10-10-10.---8--8--8--.---8--8--8--.---8--8--8----|

e|-10--10-10-10--10-10-10.--12-12-12--.--12-12-12--.--12-12-12----|
B|-10--10-10-10--10-10-10.--12-12-12--.--12-12-12--.--12-12-12----|
G|-11--11-11-11--11-11-11.--12-12-12--.--12-12-12--.--12-12-12----|
D|-12--12-12-12--12-12-12.--10-10-10--.--10-10-10--.--10-10-10----|
A|-12--12-12-12--12-12-12.----------------------------------------|
E|-10--10-10-10--10-10-10.----------------------------------------|


Little synth lead:
Synth:
e|---5---8----12---12--------------------10--12-14-15-17--|
B|-8---------------------------------12-------------------|
G|--------------------------------------------------------|
D|---------------------------12--14-----------------------|
A|--------------------------------------------------------|
E|--------------------------------------------------------|

Guitar:
e|-10--10-10-10--10-10-10.---8--8--8--.---8--8--8--.---8--8--8----|
B|-10--10-10-10--10-10-10.---8--8--8--.---8--8--8--.---8--8--8----|
G|-11--11-11-11--11-11-11.---9--9--9--.---9--9--9--.---9--9--9----|
D|-12--12-12-12--12-12-12.--10-10-10--.--10-10-10--.--10-10-10----|
A|-12--12-12-12--12-12-12.--10-10-10--.--10-10-10--.--10-10-10----|
E|-10--10-10-10--10-10-10.---8--8--8--.---8--8--8--.---8--8--8----|

e|-10--10-10-10--10-10-10.---8--8--8--.---8--8--8--------|
B|-10--10-10-10--10-10-10.---8--8--8--.---8--8--8--------|
G|-11--11-11-11--11-11-11.---9--9--9--.---9--9--9--------|
D|-12--12-12-12--12-12-12.--10-10-10--.--10-10-10--------|
A|-12--12-12-12--12-12-12.--10-10-10--.--10-10-10--------|
E|-10--10-10-10--10-10-10.---8--8--8--.---8--8--8--------|


Alternate verse:
"I just don't know how to feel right,
A beautiful girl is wasting my life,
I'm playing a part as somebody else,
While trying so hard to be myself"
Guitar:
e|-5.--5------5.--7------|
B|-7.--5------7.--7------|
G|-6.--6------6.--7------| x4
D|-7.--7------7.--5------|
A|-5.--7------5.---------|
E|-----5-----------------|


Synth guitar comes in:
"I just need to hear somebody say,
That this will make sense one day,
I guess I'm alright, but they're all doing so well,
What I would give to be under that spell"
Guitar:
e|-5.--5------5.--7------|
B|-7.--5------7.--7------|
G|-6.--6------6.--7------| x4
D|-7.--7------7.--5------|
A|-5.--7------5.---------|
E|-----5-----------------|

Synth guitar:
e|-14-15-14-12---------12----------------|
B|--------------14--------14-15--12------|
G|------------------------------------14-| x4
D|---------------------------------------|
A|---------------------------------------|
E|---------------------------------------|


Transitional bit:
"You'll know soon, you'll know soon, you'll know soon, you'll know soon,
You'll know soon, you'll know soon"
Guitar:
e|-5.--3------5.--5------5.--3------5.--3------|
B|-7.--5------7.--5------7.--5------7.--5------|
G|-7.--5------7.--5------7.--5------7.--5------| x2
D|-7.--5------7.--7------7.--5------7.--5------|
A|-5.--3------5.--7------5.--3------5.--3------|
E|----------------5----------------------------|


Synth riff:
Synth:
e|----------------------------------------------------|
B|-7h8p7h8p7h8h10p8h10p8----7h8p7h8p7h8h10p8h10p8-----|
G|-----------------------9-------------------------9--|
D|----------------------------------------------------|
A|----------------------------------------------------|
E|----------------------------------------------------|

e|-----------------------------------------------------|
B|-7h8p7h8h10p8h10p8h10p8----7h8p7h8h10p8h10p8h10p8----|
G|------------------------9-------------------------9--|
D|-----------------------------------------------------|
A|-----------------------------------------------------|
E|-----------------------------------------------------|

e|------------------------------------------------------|
B|-7h8p7h8h10p8h10p8h10p8----7h8p7h8p7h8h10p8h10/12\10--|
G|------------------------9-----------------------------|
D|------------------------------------------------------|
A|------------------------------------------------------|
E|------------------------------------------------------|

e|-----------------------------|
B|-7h8p7h8h10/12\10p8----------|
G|--------------------9--------|
D|-----------------------------|
A|-----------------------------|
E|-----------------------------|

Guitar:
e|-5.--3------5.--5------5.--3------5.--3------|
B|-7.--5------7.--5------7.--5------7.--5------|
G|-7.--5------7.--5------7.--5------7.--5------| x2
D|-7.--5------7.--7------7.--5------7.--5------|
A|-5.--3------5.--7------5.--3------5.--3------|
E|----------------5----------------------------|


Another synth lead:
Synth:
e|-10--8-7-8-7-----------10--8-7-8-7---------10--8-7-5-7---------------10--8-7-8-7-----------|
B|------------------------------------8---------------------------------------------8--\5----|
G|--------------5--/9-------------------------------------5--/10-\9--------------------------|
D|-------------------------------------------------------------------------------------------|
A|-------------------------------------------------------------------------------------------|
E|-------------------------------------------------------------------------------------------|

Guitar:
e|-1---1-----0.--0------|
B|-3---1-----1.--0------|
G|-4---2-----2.--0------| x2
D|----------------------|
A|----------------------|
E|----------------------|


Bridge:
"'cause you don't know the truth, I'm in love with you,
You just don't believe anything I do"
Synth:
e|-1-1-1-1-1-1-1-1-1-1-1-1-1-1-1-1-0--0-0-0-0-0-0-0-0-0-0-0-0-0-0-|
B|-3-3-3-1-1-1-1-1-1-1-1-1-1-1-1-1-1--0-0-0-0-0-0-0-0-0-0-0-0-0-0-|
G|-4-4-4-2-2-2-2-2-2-2-2-2-2-2-2-2-2--0-0-0-0-0-0-0-0-0-0-0-0-0-0-| x4
D|----------------------------------------------------------------|
A|----------------------------------------------------------------|
E|----------------------------------------------------------------|

Guitar:
e|-1---1-----0.--0------|
B|-3---1-----1.--0------|
G|-4---2-----2.--0------| x4
D|----------------------|
A|----------------------|
E|----------------------|


Quiet part:
Synth:
e|-5.--5------5.--7------|
B|-7.--5------7.--7------|
G|-6.--6------6.--7------| x2
D|-7.--7------7.--5------|
A|-5.--7------5.---------|
E|-----5-----------------|

Guitar:
e|------------------------------------------------------------------------------|
B|------------------------------------------------------------------------------|
G|------------------------------------------------------------------------------|
D|------------------------------------------------------------------------------|
A|-5-----4-----4-----4-----7-----5-----5-----5-----5-----4-----4-----4-----7----|
E|---5h7---5h7---5h7---5h7---5h7---5h7---5h7---5h7---5h7---5h7---5h7---5h7------|


Alternate verse:
"In so many ways I'm somebody else,
I'm trying so hard to be myself"
Guitar:
e|-5.--5------5.--7------|
B|-7.--5------7.--7------|
G|-6.--6------6.--7------| x2
D|-7.--7------7.--5------|
A|-5.--7------5.---------|
E|-----5-----------------|


Synth guitar comes in:
"I just need to hear somebody say,
That this will all make sense one day,
Well it's getting late, I'd better go"
Guitar:
e|-5.--5------5.--7------|
B|-7.--5------7.--7------|
G|-6.--6------6.--7------| x3
D|-7.--7------7.--5------|
A|-5.--7------5.---------|
E|-----5-----------------|

Synth guitar:
e|-14-15-14-12---------12----------------|
B|--------------14--------14-15--12------|
G|------------------------------------14-| x3
D|---------------------------------------|
A|---------------------------------------|
E|---------------------------------------|


Guitar riff comes in:
"I made it this far, as far as I know"
Guitar:
e|-5.--5------5.--7------|
B|-7.--5------7.--7------|
G|-6.--6------6.--7------|
D|-7.--7------7.--5------|
A|-5.--7------5.---------|
E|-----5-----------------|

Guitar:
e|-----------------------------------|
B|-----------------------------------|
G|-----------------------------------|
D|-----------------------------------|
A|---4-5-4---4--------4-5-4----------|
E|-7-------7---5----7-------7-5-3----|

Synth guitar:
e|-14-15-14-12---------12----------------|
B|--------------14--------14-15--12------|
G|------------------------------------14-|
D|---------------------------------------|
A|---------------------------------------|
E|---------------------------------------|


Outro:
Guitar:
e|-5.--5------5.--7------|
B|-7.--5------7.--7------|
G|-6.--6------6.--7------| x6
D|-7.--7------7.--5------|
A|-5.--7------5.---------|
E|-----5-----------------|

Guitar:
e|-----------------------------------|
B|-----------------------------------|
G|-----------------------------------| x6
D|-----------------------------------|
A|---4-5-4---4--------4-5-4----------|
E|-7-------7---5----7-------7-5-3----|

Synth guitar:
e|-14-15-14-12---------12----------------|
B|--------------14--------14-15--12------|
G|------------------------------------14-| x6
D|---------------------------------------|
A|---------------------------------------|
E|---------------------------------------|


Alternate verse comes back in during the fade out:
"In so many ways I'm somebody else,
I'm trying so hard to be myself,
I just need to hear somebody say,
That this will all make sense one day"
Guitar:
e|-5.--5------5.--7------|
B|-7.--5------7.--7------|
G|-6.--6------6.--7------| x4
D|-7.--7------7.--5------|
A|-5.--7------5.---------|
E|-----5-----------------|

Guitar:
e|-----------------------------------|
B|-----------------------------------|
G|-----------------------------------| x4
D|-----------------------------------|
A|---4-5-4---4--------4-5-4----------|
E|-7-------7---5----7-------7-5-3----|

Synth guitar:
e|-14-15-14-12---------12----------------|
B|--------------14--------14-15--12------|
G|------------------------------------14-| x4
D|---------------------------------------|
A|---------------------------------------|
E|---------------------------------------|

Fade out.



************************************

| /   slide up
| \   slide down
| h   hammer-on
| p   pull-off
| ~   vibrato
| +   harmonic
| x   Mute note
| .   staccato
| b   Bend
| pb  Pre-bend
| br  Bend release
| pbr Pre-bend release
| brb Bend release bend

************************************

--------------------------------------------------------------------------------------
                                       Track 06
                              Why Won't They Talk to Me?
--------------------------------------------------------------------------------------

Intro:
The synth makes weird noises using
this note. It's not very important
to the song, but here it is anyway:
e|-10----------------|
B|-------------------|
G|-------------------|
D|-------------------|
A|-------------------|
E|-------------------|


Chords come in:
Synth:
e|-5----5----|
B|-7----5----|
G|-7----5----| x4
D|-7----7----|
A|-5----7----|
E|------5----|


Pre-verse:
"Out of the zone, trying to see, I'm so alone, nothing for me"
Synth:
e|-10---------9----12----|
B|-12--------10----14----|
G|-12--------11----14----|
D|-12--------11----14----|
A|-10---------9----12----|
E|-----------------------|


Verse:
"I guess I'll go home, try to be sane, try to pretend, none of it happened,
Oh, this old tree, lonely old me, whoops-a-daisy, I thought I was happy"
Acoustic guitar:
e|-----------------------------------------------------------------|
B|-3-3-3-3-3-3-3-3-3-3-3-3-3-3-3-3-3-3-3-3-3-3-3-3-2-2-2-2-2-2-2-2-|
G|-4-4-4-4-4-4-4-4-4-4-4-4-4-4-4-4-4-4-4-4-4-4-4-4-2-2-2-2-2-2-2-2-| x2
D|-5-5-5-5-5-5-5-5-5-5-5-5-5-5-5-5-5-5-5-5-5-5-5-5-4-4-4-4-4-4-4-4-|
A|-5-5-5-5-5-5-5-5-5-5-5-5-5-5-5-5-5-5-5-5-5-5-5-5-4-4-4-4-4-4-4-4-|
E|-----------------------------------------------------------------|

Synth - the synth just sustains the chords an octave higher than the acoustic guitar:
e|-10-------------------------------9----|
B|-12------------------------------10----|
G|-12------------------------11----11----| x2
D|-12------------------------11----11----|
A|-10-------------------------9-----9----|
E|---------------------------------------|


Synth melody part:
Synth:
e|-----------------------------------------------------------------|
B|-------------5/8--7--5/7---------------5--/8--/10\7--5/7---------|
G|-4-------/7---------------6--4--/7------------------------6-/7.--|
D|-----------------------------------------------------------------|
A|-----------------------------------------------------------------|
E|-----------------------------------------------------------------|

Acoustic guitar:
e|-----------------------------------------------------------------|
B|-3-3-3-3-3-3-3-3-3-3-3-3-3-3-3-3-3-3-3-3-3-3-3-3-2-2-2-2-2-2-2-2-|
G|-4-4-4-4-4-4-4-4-4-4-4-4-4-4-4-4-4-4-4-4-4-4-4-4-2-2-2-2-2-2-2-2-| x2
D|-5-5-5-5-5-5-5-5-5-5-5-5-5-5-5-5-5-5-5-5-5-5-5-5-4-4-4-4-4-4-4-4-|
A|-5-5-5-5-5-5-5-5-5-5-5-5-5-5-5-5-5-5-5-5-5-5-5-5-4-4-4-4-4-4-4-4-|
E|-----------------------------------------------------------------|

Synth:
e|-10-------------------------------9----|
B|-12------------------------------10----|
G|-12------------------------11----11----| x2
D|-12------------------------11----11----|
A|-10-------------------------9-----9----|
E|---------------------------------------|


Intro chords again:
Synth:
e|-5----5----|
B|-7----5----|
G|-7----5----| x4
D|-7----7----|
A|-5----7----|
E|------5----|


Pre-verse:
"Out of the zone, now that I see, I don't need them and they don't need me"
Synth:
e|-10---------9----12----|
B|-12--------10----14----|
G|-12--------11----14----|
D|-12--------11----14----|
A|-10---------9----12----|
E|-----------------------|


Verse:
"I guess I'll go home, try to be sane, try to pretend, none of it happened,
Destined to be lonely old me, whoops-a-daisy, I thought I was happy"
Acoustic guitar:
e|-----------------------------------------------------------------|
B|-3-3-3-3-3-3-3-3-3-3-3-3-3-3-3-3-3-3-3-3-3-3-3-3-2-2-2-2-2-2-2-2-|
G|-4-4-4-4-4-4-4-4-4-4-4-4-4-4-4-4-4-4-4-4-4-4-4-4-2-2-2-2-2-2-2-2-| x2
D|-5-5-5-5-5-5-5-5-5-5-5-5-5-5-5-5-5-5-5-5-5-5-5-5-4-4-4-4-4-4-4-4-|
A|-5-5-5-5-5-5-5-5-5-5-5-5-5-5-5-5-5-5-5-5-5-5-5-5-4-4-4-4-4-4-4-4-|
E|-----------------------------------------------------------------|

Synth:
e|-10-------------------------------9----|
B|-12------------------------------10----|
G|-12------------------------11----11----| x2
D|-12------------------------11----11----|
A|-10-------------------------9-----9----|
E|---------------------------------------|


Chorus:
"Ahhh-ahhh, why won't they talk to me?
Thought I was happy,
Ahhh-ahhh, why won't they talk to me?
Thought I was happy,
Ahhh-ahhh, why won't they talk to me?
Thought I was happy,
Ahhh-ahhh, why won't they talk to me?
(why-hy-hy-hy-hy-hy-hy-hy-hy-hy-hy-hy?),
Ahhh-ahhh, why won't they talk to me?"
Acoustic guitar:
e|-----------------------------------------------------------------|
B|-3-3-3-3-3-3-3-3-3-3-3-3-3-3-3-3-3-3-3-3-3-3-3-3-2-2-2-2-2-2-2-2-|
G|-4-4-4-4-4-4-4-4-4-4-4-4-4-4-4-4-4-4-4-4-4-4-4-4-2-2-2-2-2-2-2-2-| x10
D|-5-5-5-5-5-5-5-5-5-5-5-5-5-5-5-5-5-5-5-5-5-5-5-5-4-4-4-4-4-4-4-4-|
A|-5-5-5-5-5-5-5-5-5-5-5-5-5-5-5-5-5-5-5-5-5-5-5-5-4-4-4-4-4-4-4-4-|
E|-----------------------------------------------------------------|

Synth:
e|-10-------------------------------9----|
B|-12------------------------------10----|
G|-12------------------------11----11----| x10
D|-12------------------------11----11----|
A|-10-------------------------9-----9----|
E|---------------------------------------|


Bridge:
Synth:
e|-10-------------------------------9----|
B|-12------------------------------10----|
G|-12------------------------11----11----|
D|-12------------------------11----11----|
A|-10-------------------------9-----9----|
E|---------------------------------------|


Vocals enter:
"But I don't really care 'bout it anyway,
I wouldn't listen to a word any of 'em say,
They just talk about themselves all day,
One day I'll be a star and they'll be sorry"
Synth:
e|-----10---10-------10---10-------12---12-------12---12---|
B|-----12---12-------12---12-------14---14-------14---14---|
G|-----12---12-------12---12-------14---14-------14---14---| x4
D|-----12---12-------12---12-------14---14-------14---14---|
A|-10--10---10---10--10---10---12--12---12---12--12---12---|
E|---------------------------------------------------------|

This vocal melody is so good that I had to tab it out
Play each note as each word/syllable is sung:
"But I don't really care 'bout it anyway"
e|------------------------------------|
B|------------------------------------|
G|------------------------------------|
D|-12-11-12-11-12-14--12-11-9-11-9----|
A|------------------------------------|
E|------------------------------------|

"I wouldn't listen to a word any of 'em say"
e|------------------------------------------|
B|------------------------------------------|
G|------------------------------------------|
D|-11-11-12-11-12-11-12-14--12-11-9-11-9----|
A|------------------------------------------|
E|------------------------------------------|

"They just talk about themselves all day"
e|-------------------------------------|
B|-------------------------------------|
G|-------------------------------------|
D|-11-12-11-12-11-12-14--12--9-11-9----|
A|-------------------------------------|
E|-------------------------------------|

"One day I'll be a star and they'll be sorry"
e|-----------------------------------|
B|-----------------------------------|
G|-----------------------------------|
D|-12-11-12-11-12-14--12-11-11--9----|
A|-----------------------------------|
E|-----------------------------------|


Acoustic chorus:
"Ahhh-ahhh, why won't they talk to me?
Ahhh-ahhh, why won't they talk to me?"
Acoustic guitar:
e|-----------------------------------------------------------------|
B|-3-3-3-3-3-3-3-3-3-3-3-3-3-3-3-3-3-3-3-3-3-3-3-3-2-2-2-2-2-2-2-2-|
G|-4-4-4-4-4-4-4-4-4-4-4-4-4-4-4-4-4-4-4-4-4-4-4-4-2-2-2-2-2-2-2-2-| x4
D|-5-5-5-5-5-5-5-5-5-5-5-5-5-5-5-5-5-5-5-5-5-5-5-5-4-4-4-4-4-4-4-4-|
A|-5-5-5-5-5-5-5-5-5-5-5-5-5-5-5-5-5-5-5-5-5-5-5-5-4-4-4-4-4-4-4-4-|
E|-----------------------------------------------------------------|


Chorus:
"Ahhh-ahhh, why won't they talk to me?
Ahhh-ahhh, why won't they talk to me?
(Why-hy-hy-hy-hy-hy-hy-hy-hy-hy-hy-hy?),
Ahhh-ahhh, why won't they talk to me?"
Acoustic guitar:
e|-----------------------------------------------------------------|
B|-3-3-3-3-3-3-3-3-3-3-3-3-3-3-3-3-3-3-3-3-3-3-3-3-2-2-2-2-2-2-2-2-|
G|-4-4-4-4-4-4-4-4-4-4-4-4-4-4-4-4-4-4-4-4-4-4-4-4-2-2-2-2-2-2-2-2-| x6
D|-5-5-5-5-5-5-5-5-5-5-5-5-5-5-5-5-5-5-5-5-5-5-5-5-4-4-4-4-4-4-4-4-|
A|-5-5-5-5-5-5-5-5-5-5-5-5-5-5-5-5-5-5-5-5-5-5-5-5-4-4-4-4-4-4-4-4-|
E|-----------------------------------------------------------------|

Synth:
e|-10-------------------------------9----|
B|-12------------------------------10----|
G|-12------------------------11----11----| x6
D|-12------------------------11----11----|
A|-10-------------------------9-----9----|
E|---------------------------------------|

End with synth arpeggiator noise.


************************************

| /   slide up
| \   slide down
| h   hammer-on
| p   pull-off
| ~   vibrato
| +   harmonic
| x   Mute note
| .   staccato
| b   Bend
| pb  Pre-bend
| br  Bend release
| pbr Pre-bend release
| brb Bend release bend

************************************

--------------------------------------------------------------------------------------
                                       Track 07
                            Feels Like We Only Go Backwards
--------------------------------------------------------------------------------------

Intro:
Bass tabbed for guitar:
e|-----------------|
B|-----------------|
G|-----------------|
D|-----------------|
A|-----------------|
E|-3\--3\--3\--3\--|

Keyboard:
e|----------------------------|
B|----------------------------|
G|-12-12-12-12-12-12-12-12----|
D|-12-12-12-12-12-12-12-12----|
A|-10-10-10-10-10-10-10-10----|
E|----------------------------|


Pause:
"It feels like I..."

Chorus:
"...only go backwards, baby,
Every part of me says "go ahead",
I got my hopes up again, oh no, not again,
Feels like we only go backwards, darling"
Since the synth just holds the 3 chords, I add in a rhythm to the strumming like this:
    F major       C major      G minor            
e|--8---8---8--8--8---8---8--8-10--10--10-10-10-10-10--10-10-10-10-|
B|-10--10--10-10--8---8---8--8-11--11--11-11-11-11-11--11-11-11-11-|
G|-10--10--10-10--9---9---9--9-12--12--12-12-12-12-12--12-12-12-12-| x4
D|-10--10--10-10-10--10--10-10-12--12--12-12-12-12-12--12-12-12-12-|
A|--8---8---8--8-10--10--10-10-10--10--10-10-10-10-10--10-10-10-10-|
E|----------------8---8---8--8-------------------------------------|


Verse:
"I know that you think you sound silly when you call my name"
   D minor
e|-10--10--10--10-10-10-10-10--10-10-10-10--10--10--10--10-10-10-10-10--10-10-10-10--|
B|-10--10--10--10-10-10-10-10--10-10-10-10--10--10--10--10-10-10-10-10--10-10-10-10--|
G|-10--10--10--10-10-10-10-10--10-10-10-10--10--10--10--10-10-10-10-10--10-10-10-10--|
D|-12--12--12--12-12-12-12-12--12-12-12-12--12--12--12--12-12-12-12-12--12-12-12-12--|
A|-12--12--12--12-12-12-12-12--12-12-12-12--12--12--12--12-12-12-12-12--12-12-12-12--|
E|-10--10--10--10-10-10-10-10--10-10-10-10--10--10--10--10-10-10-10-10--10-10-10-10--|

"...(my name),
But I hear it inside my head all day"
   Cmaj7
e|-12--12--12--12-12-12-12-12--12-12-12-12--12--12--12--12-12-12-12-12--12-12-12-12--|
B|-12--12--12--12-12-12-12-12--12-12-12-12--12--12--12--12-12-12-12-12--12-12-12-12--|
G|-12--12--12--12-12-12-12-12--12-12-12-12--12--12--12--12-12-12-12-12--12-12-12-12--|
D|-10--10--10--10-10-10-10-10--10-10-10-10--10--10--10--10-10-10-10-10--10-10-10-10--|
A|-----------------------------------------------------------------------------------|
E|-----------------------------------------------------------------------------------|

"When I realise I'm just holding onto the hope that..."
   D minor
e|-10--10--10--10-10-10-10-10--10-10-10-10--10--10--10--10-10-10-10-10--10-10-10-10--|
B|-10--10--10--10-10-10-10-10--10-10-10-10--10--10--10--10-10-10-10-10--10-10-10-10--|
G|-10--10--10--10-10-10-10-10--10-10-10-10--10--10--10--10-10-10-10-10--10-10-10-10--|
D|-12--12--12--12-12-12-12-12--12-12-12-12--12--12--12--12-12-12-12-12--12-12-12-12--|
A|-12--12--12--12-12-12-12-12--12-12-12-12--12--12--12--12-12-12-12-12--12-12-12-12--|
E|-10--10--10--10-10-10-10-10--10-10-10-10--10--10--10--10-10-10-10-10--10-10-10-10--|

"...maybe your feelings don't show"
   G major                                  G minor
e|-10--10--10--10-10-10-10-10--10-10-10-10--10--10--10--10-10-10-10-10--10-10-10-10--|
B|-12--12--12--12-12-12-12-12--12-12-12-12--11--11--11--11-11-11-11-11--11-11-11-11--|
G|-12--12--12--12-12-12-12-12--12-12-12-12--12--12--12--12-12-12-12-12--12-12-12-12--|
D|-12--12--12--12-12-12-12-12--12-12-12-12--12--12--12--12-12-12-12-12--12-12-12-12--|
A|-10--10--10--10-10-10-10-10--10-10-10-10--10--10--10--10-10-10-10-10--10-10-10-10--|
E|-----------------------------------------------------------------------------------|


Chorus:
"It feels like I only go backwards, baby,
Every part of me says "go ahead",
I got my hopes up again, oh no, not again,
Feels like we only go backwards, darling"
    F major       C major      G minor            
e|--8---8---8--8--8---8---8--8-10--10--10-10-10-10-10--10-10-10-10-|
B|-10--10--10-10--8---8---8--8-11--11--11-11-11-11-11--11-11-11-11-|
G|-10--10--10-10--9---9---9--9-12--12--12-12-12-12-12--12-12-12-12-| x4
D|-10--10--10-10-10--10--10-10-12--12--12-12-12-12-12--12-12-12-12-|
A|--8---8---8--8-10--10--10-10-10--10--10-10-10-10-10--10-10-10-10-|
E|----------------8---8---8--8-------------------------------------|


Verse:
"Seed of all this indecision isn't..."
   D minor
e|-10--10--10--10-10-10-10-10--10-10-10-10--10--10--10--10-10-10-10-10--10-10-10-10--|
B|-10--10--10--10-10-10-10-10--10-10-10-10--10--10--10--10-10-10-10-10--10-10-10-10--|
G|-10--10--10--10-10-10-10-10--10-10-10-10--10--10--10--10-10-10-10-10--10-10-10-10--|
D|-12--12--12--12-12-12-12-12--12-12-12-12--12--12--12--12-12-12-12-12--12-12-12-12--|
A|-12--12--12--12-12-12-12-12--12-12-12-12--12--12--12--12-12-12-12-12--12-12-12-12--|
E|-10--10--10--10-10-10-10-10--10-10-10-10--10--10--10--10-10-10-10-10--10-10-10-10--|

"...me, oh no,
'Cause I decided long ago, but..."
   Cmaj7
e|-12--12--12--12-12-12-12-12--12-12-12-12--12--12--12--12-12-12-12-12--12-12-12-12--|
B|-12--12--12--12-12-12-12-12--12-12-12-12--12--12--12--12-12-12-12-12--12-12-12-12--|
G|-12--12--12--12-12-12-12-12--12-12-12-12--12--12--12--12-12-12-12-12--12-12-12-12--|
D|-10--10--10--10-10-10-10-10--10-10-10-10--10--10--10--10-10-10-10-10--10-10-10-10--|
A|-----------------------------------------------------------------------------------|
E|-----------------------------------------------------------------------------------|

"...that's the way it seems to go when trying so hard to get to something..."
   D minor
e|-10--10--10--10-10-10-10-10--10-10-10-10--10--10--10--10-10-10-10-10--10-10-10-10--|
B|-10--10--10--10-10-10-10-10--10-10-10-10--10--10--10--10-10-10-10-10--10-10-10-10--|
G|-10--10--10--10-10-10-10-10--10-10-10-10--10--10--10--10-10-10-10-10--10-10-10-10--|
D|-12--12--12--12-12-12-12-12--12-12-12-12--12--12--12--12-12-12-12-12--12-12-12-12--|
A|-12--12--12--12-12-12-12-12--12-12-12-12--12--12--12--12-12-12-12-12--12-12-12-12--|
E|-10--10--10--10-10-10-10-10--10-10-10-10--10--10--10--10-10-10-10-10--10-10-10-10--|

"...real,
It feels"
   G major                                  G minor
e|-10--10--10--10-10-10-10-10--10-10-10-10--10--10--10--10-10-10-10-10--10-10-10-10--|
B|-12--12--12--12-12-12-12-12--12-12-12-12--11--11--11--11-11-11-11-11--11-11-11-11--|
G|-12--12--12--12-12-12-12-12--12-12-12-12--12--12--12--12-12-12-12-12--12-12-12-12--|
D|-12--12--12--12-12-12-12-12--12-12-12-12--12--12--12--12-12-12-12-12--12-12-12-12--|
A|-10--10--10--10-10-10-10-10--10-10-10-10--10--10--10--10-10-10-10-10--10-10-10-10--|
E|-----------------------------------------------------------------------------------|


Chorus:
"It feels like I only go backwards, darling,
Every part of me says "go ahead",
I got my hopes up again, oh no, not again,
Feels like we only go backwards, darling"
    F major       C major      G minor            
e|--8---8---8--8--8---8---8--8-10--10--10-10-10-10-10--10-10-10-10-|
B|-10--10--10-10--8---8---8--8-11--11--11-11-11-11-11--11-11-11-11-|
G|-10--10--10-10--9---9---9--9-12--12--12-12-12-12-12--12-12-12-12-| x4
D|-10--10--10-10-10--10--10-10-12--12--12-12-12-12-12--12-12-12-12-|
A|--8---8---8--8-10--10--10-10-10--10--10-10-10-10-10--10-10-10-10-|
E|----------------8---8---8--8-------------------------------------|


Outro:
Chorus:
"It feels like I only go backwards, baby,
Every part of me says "go ahead",
I got my hopes up again, oh no, not again,
It feels like we only go backwards, darling
It feels like I only go backwards, baby,
Every part of me says "go ahead",
I got my hopes up again, oh no, not again,
Feels like we only go backwards, darling"
    F major       C major      G minor            
e|--8---8---8--8--8---8---8--8-10--10--10-10-10-10-10--10-10-10-10-|
B|-10--10--10-10--8---8---8--8-11--11--11-11-11-11-11--11-11-11-11-|
G|-10--10--10-10--9---9---9--9-12--12--12-12-12-12-12--12-12-12-12-| x8
D|-10--10--10-10-10--10--10-10-12--12--12-12-12-12-12--12-12-12-12-|
A|--8---8---8--8-10--10--10-10-10--10--10-10-10-10-10--10-10-10-10-|
E|----------------8---8---8--8-------------------------------------|

A guitar with weird effects on it comes in
and plays these root notes behind the chords:
e|-----------------------|
B|-----------------------|
G|-----------------------| x8
D|-----------------------|
A|-------15--------------|
E|-13----------15--------|

End with echoed delay.



************************************

| /   slide up
| \   slide down
| h   hammer-on
| p   pull-off
| ~   vibrato
| +   harmonic
| x   Mute note
| .   staccato
| b   Bend
| pb  Pre-bend
| br  Bend release
| pbr Pre-bend release
| brb Bend release bend

************************************

--------------------------------------------------------------------------------------
                                       Track 08
                                     Keep on Lying
--------------------------------------------------------------------------------------

Verses:
"All I give are little clues,
Maybe one day I'll get through,
There is nothing I can do,
I'll just keep on lying to you,
I only need to say it's true,
Your poor little heart already knew,
But there is nothing you can do,
I'll just keep on lying to you,
Should my cover ever blow,
Would you ever let it go?
There is something you should know,
But hell if I'd ever let it show,
So here I am trying to be strong,
It was noon, now my shadow's long,
I guess I'll go and tell you just as soon as I
Get to the end of this song"
Synth:
e|-1.--1.--1.--1.--1.--1.--1.--1.--1.--1.--1.--1.--1.--1.--1.--1.--|
B|-1.--1.--1.--1.--3.--3.--3.--3.--1.--1.--1.--1.--3.--3.--3.--3.--|
G|-1.--1.--1.--1.--3.--3.--3.--3.--1.--1.--1.--1.--3.--3.--3.--3.--| \
D|-3.--3.--3.--3.--3.--3.--3.--3.--3.--3.--3.--3.--3.--3.--3.--3.--|  \
A|-3.--3.--3.--3.--1.--1.--1.--1.--3.--3.--3.--3.--1.--1.--1.--1.--|   \
E|-1.--1.--1.--1.------------------1.--1.--1.--1.------------------|    |
                                                                        |
e|-1.--1.--1.--1.--3.--3.--3.--3.--1.--1.--1.--1.--1.--1.--3.--3.--|    |
B|-1.--1.--1.--1.--3.--3.--3.--3.--3.--3.--3.--3.--3.--3.--4.--4.--|    |
G|-1.--1.--1.--1.--3.--3.--3.--3.--3.--3.--3.--3.--3.--3.--5.--5.--|    |
D|-3.--3.--3.--3.--5.--5.--5.--5.--3.--3.--3.--3.--3.--3.--5.--5.--|    |
A|-3.--3.--3.--3.--5.--5.--5.--5.--1.--1.--1.--1.--1.--1.--3.--3.--|    |
E|-1.--1.--1.--1.--3.--3.--3.--3.----------------------------------|    |
                                                                        | x2
e|-1.--1.--1.--1.--1.--1.--1.--1.--1.--1.--1.--1.--1.--1.--1.--1.--|    |
B|-1.--1.--1.--1.--3.--3.--3.--3.--1.--1.--1.--1.--3.--3.--3.--3.--|    |
G|-1.--1.--1.--1.--3.--3.--3.--3.--1.--1.--1.--1.--3.--3.--3.--3.--|    |
D|-3.--3.--3.--3.--3.--3.--3.--3.--3.--3.--3.--3.--3.--3.--3.--3.--|    |
A|-3.--3.--3.--3.--1.--1.--1.--1.--3.--3.--3.--3.--1.--1.--1.--1.--|    |
E|-1.--1.--1.--1.------------------1.--1.--1.--1.------------------|    |
                                                                        |
e|-1.--1.--1.--1.--3.--3.--3.--3.--4.--4.--4.--4.--1.--1.--3.--3.--|   /
B|-1.--1.--1.--1.--3.--3.--3.--3.--4.--4.--4.--4.--3.--3.--4.--4.--|  /
G|-1.--1.--1.--1.--3.--3.--3.--3.--5.--5.--5.--5.--3.--3.--5.--5.--| /
D|-3.--3.--3.--3.--5.--5.--5.--5.--6.--6.--6.--6.--3.--3.--5.--5.--|
A|-3.--3.--3.--3.--5.--5.--5.--5.--6.--6.--6.--6.--1.--1.--3.--3.--|
E|-1.--1.--1.--1.--3.--3.--3.--3.--4.--4.--4.--4.------------------|


Interlude:
"To the end of this song,
To the end of this song,
To the end of this song (the curse has won again),
To the end of this song,
Soon I'll be alone (to the end of this song),
Take all you can,
Please understand,
That it never really was love"
Synth:
e|-4.--4.--4.--4.--1.--1.--3.--3.--|
B|-4.--4.--4.--4.--3.--3.--4.--4.--|
G|-5.--5.--5.--5.--3.--3.--5.--5.--| x11
D|-6.--6.--6.--6.--3.--3.--5.--5.--|
A|-6.--6.--6.--6.--1.--1.--3.--3.--|
E|-4.--4.--4.--4.------------------|


1st guitar solo:
Synth:
e|-1.--1.--1.--1.--1.--1.--1.--1.--1.--1.--1.--1.--1.--1.--1.--1.--|
B|-1.--1.--1.--1.--3.--3.--3.--3.--1.--1.--1.--1.--3.--3.--3.--3.--|
G|-1.--1.--1.--1.--3.--3.--3.--3.--1.--1.--1.--1.--3.--3.--3.--3.--|
D|-3.--3.--3.--3.--3.--3.--3.--3.--3.--3.--3.--3.--3.--3.--3.--3.--|
A|-3.--3.--3.--3.--1.--1.--1.--1.--3.--3.--3.--3.--1.--1.--1.--1.--|
E|-1.--1.--1.--1.------------------1.--1.--1.--1.------------------|

e|-1.--1.--1.--1.--3.--3.--3.--3.--1.--1.--1.--1.--1.--1.--3.--3.--|
B|-1.--1.--1.--1.--3.--3.--3.--3.--3.--3.--3.--3.--3.--3.--4.--4.--|
G|-1.--1.--1.--1.--3.--3.--3.--3.--3.--3.--3.--3.--3.--3.--5.--5.--|
D|-3.--3.--3.--3.--5.--5.--5.--5.--3.--3.--3.--3.--3.--3.--5.--5.--|
A|-3.--3.--3.--3.--5.--5.--5.--5.--1.--1.--1.--1.--1.--1.--3.--3.--|
E|-1.--1.--1.--1.--3.--3.--3.--3.----------------------------------|

e|-1.--1.--1.--1.--1.--1.--1.--1.--1.--1.--1.--1.--1.--1.--1.--1.--|
B|-1.--1.--1.--1.--3.--3.--3.--3.--1.--1.--1.--1.--3.--3.--3.--3.--|
G|-1.--1.--1.--1.--3.--3.--3.--3.--1.--1.--1.--1.--3.--3.--3.--3.--|
D|-3.--3.--3.--3.--3.--3.--3.--3.--3.--3.--3.--3.--3.--3.--3.--3.--|
A|-3.--3.--3.--3.--1.--1.--1.--1.--3.--3.--3.--3.--1.--1.--1.--1.--|
E|-1.--1.--1.--1.------------------1.--1.--1.--1.------------------|

e|-1.--1.--1.--1.--3.--3.--3.--3.--4.--4.--4.--4.--1.--1.--3.--3.--|
B|-1.--1.--1.--1.--3.--3.--3.--3.--4.--4.--4.--4.--3.--3.--4.--4.--|
G|-1.--1.--1.--1.--3.--3.--3.--3.--5.--5.--5.--5.--3.--3.--5.--5.--|
D|-3.--3.--3.--3.--5.--5.--5.--5.--6.--6.--6.--6.--3.--3.--5.--5.--|
A|-3.--3.--3.--3.--5.--5.--5.--5.--6.--6.--6.--6.--1.--1.--3.--3.--|
E|-1.--1.--1.--1.--3.--3.--3.--3.--4.--4.--4.--4.------------------|

Guitar:
e|-------------------------------------------------------------------------------------------|
B|-------------------------------------------------------------------------------------------|
G|---------------------------10-10-8-8-7-7-/12-12-10-10-8-8-/14-1414-12-12-12-12-12-12-12-12-|
D|-----------------10-10-8-8-----------------------------------------------------------------|
A|-8-8-10-10-11-11---------------------------------------------------------------------------|
E|-------------------------------------------------------------------------------------------|

e|------------------------------------------------------------------------------------|
B|------------------------------------------------------------------------------------|
G|-------------------------------/10-10-8-8-7-7-------/14-14-12-12-/15-15-15-13-12----|
D|-----------------10-10-8-8-7-7----------------10-10---------------------------------|
A|-8-8-10-10-11-11--------------------------------------------------------------------|
E|------------------------------------------------------------------------------------|

e|-----------------------------------------------------------------------------|
B|-----------------------------------------------------------------------------|
G|---------------------7-7-----------/12-12-10-10-8-8-7-7-8-8-7-7--------------|
D|-----------------8-8-----10-10-8-8------------------------------8-8-8-8-8-8--|
A|-8-8-10-10-11-11-------------------------------------------------------------|
E|-----------------------------------------------------------------------------|

e|--------------------------------------------------------------------------------------------------|
B|--------------------------------------------------------------------------------------------------|
G|-/15~15~15~15~15~15~15~15~15~15~15~15~15~15~15~15~15~15~15~15~15~15~15~15~15~15~------------------|
D|--------------------------------------------------------------------------------------------10-10-|
A|--------------------------------------------------------------------------------10-10-11-11-------|
E|--------------------------------------------------------------------------------------------------|


Guitar riff comes in:
Synth:
e|-1.--1.--1.--1.--1.--1.--1.--1.--1.--1.--1.--1.--1.--1.--1.--1.--|
B|-1.--1.--1.--1.--3.--3.--3.--3.--1.--1.--1.--1.--3.--3.--3.--3.--|
G|-1.--1.--1.--1.--3.--3.--3.--3.--1.--1.--1.--1.--3.--3.--3.--3.--| \
D|-3.--3.--3.--3.--3.--3.--3.--3.--3.--3.--3.--3.--3.--3.--3.--3.--|  \
A|-3.--3.--3.--3.--1.--1.--1.--1.--3.--3.--3.--3.--1.--1.--1.--1.--|   \
E|-1.--1.--1.--1.------------------1.--1.--1.--1.------------------|    |
                                                                        |
e|-1.--1.--1.--1.--3.--3.--3.--3.--1.--1.--1.--1.--1.--1.--3.--3.--|    |
B|-1.--1.--1.--1.--3.--3.--3.--3.--3.--3.--3.--3.--3.--3.--4.--4.--|    |
G|-1.--1.--1.--1.--3.--3.--3.--3.--3.--3.--3.--3.--3.--3.--5.--5.--|    |
D|-3.--3.--3.--3.--5.--5.--5.--5.--3.--3.--3.--3.--3.--3.--5.--5.--|    |
A|-3.--3.--3.--3.--5.--5.--5.--5.--1.--1.--1.--1.--1.--1.--3.--3.--|    |
E|-1.--1.--1.--1.--3.--3.--3.--3.----------------------------------|    |
                                                                        | x2
e|-1.--1.--1.--1.--1.--1.--1.--1.--1.--1.--1.--1.--1.--1.--1.--1.--|    |
B|-1.--1.--1.--1.--3.--3.--3.--3.--1.--1.--1.--1.--3.--3.--3.--3.--|    |
G|-1.--1.--1.--1.--3.--3.--3.--3.--1.--1.--1.--1.--3.--3.--3.--3.--|    |
D|-3.--3.--3.--3.--3.--3.--3.--3.--3.--3.--3.--3.--3.--3.--3.--3.--|    |
A|-3.--3.--3.--3.--1.--1.--1.--1.--3.--3.--3.--3.--1.--1.--1.--1.--|    |
E|-1.--1.--1.--1.------------------1.--1.--1.--1.------------------|    |
                                                                        |
e|-1.--1.--1.--1.--3.--3.--3.--3.--4.--4.--4.--4.--1.--1.--3.--3.--|   /
B|-1.--1.--1.--1.--3.--3.--3.--3.--4.--4.--4.--4.--3.--3.--4.--4.--|  /
G|-1.--1.--1.--1.--3.--3.--3.--3.--5.--5.--5.--5.--3.--3.--5.--5.--| /
D|-3.--3.--3.--3.--5.--5.--5.--5.--6.--6.--6.--6.--3.--3.--5.--5.--|
A|-3.--3.--3.--3.--5.--5.--5.--5.--6.--6.--6.--6.--1.--1.--3.--3.--|
E|-1.--1.--1.--1.--3.--3.--3.--3.--4.--4.--4.--4.------------------|

e|-1.--1.--1.--1.--1.--1.--1.--1.--1.--1.--1.--1.--1.--1.--1.--1.--|
B|-1.--1.--1.--1.--3.--3.--3.--3.--1.--1.--1.--1.--3.--3.--3.--3.--|
G|-1.--1.--1.--1.--3.--3.--3.--3.--1.--1.--1.--1.--3.--3.--3.--3.--|
D|-3.--3.--3.--3.--3.--3.--3.--3.--3.--3.--3.--3.--3.--3.--3.--3.--|
A|-3.--3.--3.--3.--1.--1.--1.--1.--3.--3.--3.--3.--1.--1.--1.--1.--|
E|-1.--1.--1.--1.------------------1.--1.--1.--1.------------------|

e|-1.--1.--1.--1.--3.--3.--3.--3.--1.--1.--1.--1.--1.--1.--3.--3.--|
B|-1.--1.--1.--1.--3.--3.--3.--3.--3.--3.--3.--3.--3.--3.--4.--4.--|
G|-1.--1.--1.--1.--3.--3.--3.--3.--3.--3.--3.--3.--3.--3.--5.--5.--|
D|-3.--3.--3.--3.--5.--5.--5.--5.--3.--3.--3.--3.--3.--3.--5.--5.--|
A|-3.--3.--3.--3.--5.--5.--5.--5.--1.--1.--1.--1.--1.--1.--3.--3.--|
E|-1.--1.--1.--1.--3.--3.--3.--3.----------------------------------|

Guitar:
e|-----------------------------------------------------------------------------------------|
B|-----------------------------------------------------------------------------------------|
G|-----------------------------------------------------------------------------------------|
D|--------1.--3/5.--0-----------1h3.--3/5.--3-----------1.--3/5.--0----3--1-0----0---------|
A|----1-3-------------------1-3---------------------1-3-----------------------1-----1-3----|
E|-1-.-------------------1-.---------------------1-.---------------------------------------|

e|-----------------------------------------------------------------------------------------|
B|-----------------------------------------------------------------------------------------|
G|-----------------------------------------------------------------------------------------| x3
D|--------1.--3/5.--0---------------3/5.--3-----------------1/3.--0----3--1-0----0---------|
A|----1-3------------------------3.---------------------3.--------------------1-----1-3----|
E|-1-.-------------------1-.-3-4----------------1-.-3-4------------------------------------|

e|-----------------------------------------------------------------------------------------------|
B|-----------------------------------------------------------------------------------------------|
G|-----------------------------------------------------------------------------------------------|
D|--------1.--3/5.--3-----------1.--3/5.--5-/6\5\3-3--------------1/3.--0----3--1-0----0---------|
A|----1-3-------------------1-3-------------------------------3.--------------------1-----1-3----|
E|-1-.-------------------1-.--------------------------1-.-3-4------------------------------------|

Organ comes in after the first chord progression
(3rd block of the synth chords above):
e|----------------------------------------------------|
B|----------------------------------------------------|
G|-----10---7--8-7--------------------------10--------| x4
D|-------------------10---------------------10--------|
A|-8-----------------------10--11-10---8--------------|
E|----------------------------------------------------|


2nd guitar solo:
Synth:
e|-1.--1.--1.--1.--1.--1.--1.--1.--1.--1.--1.--1.--1.--1.--1.--1.--|
B|-1.--1.--1.--1.--3.--3.--3.--3.--1.--1.--1.--1.--3.--3.--3.--3.--|
G|-1.--1.--1.--1.--3.--3.--3.--3.--1.--1.--1.--1.--3.--3.--3.--3.--| \
D|-3.--3.--3.--3.--3.--3.--3.--3.--3.--3.--3.--3.--3.--3.--3.--3.--|  \
A|-3.--3.--3.--3.--1.--1.--1.--1.--3.--3.--3.--3.--1.--1.--1.--1.--|   \
E|-1.--1.--1.--1.------------------1.--1.--1.--1.------------------|    |
                                                                        |
e|-1.--1.--1.--1.--3.--3.--3.--3.--4.--4.--4.--4.--1.--1.--3.--3.--|    |
B|-1.--1.--1.--1.--3.--3.--3.--3.--4.--4.--4.--4.--3.--3.--4.--4.--|    |
G|-1.--1.--1.--1.--3.--3.--3.--3.--5.--5.--5.--5.--3.--3.--5.--5.--|    |
D|-3.--3.--3.--3.--5.--5.--5.--5.--6.--6.--6.--6.--3.--3.--5.--5.--|    |
A|-3.--3.--3.--3.--5.--5.--5.--5.--6.--6.--6.--6.--1.--1.--3.--3.--|    |
E|-1.--1.--1.--1.--3.--3.--3.--3.--4.--4.--4.--4.------------------|    |
                                                                        | x3
e|-1.--1.--1.--1.--1.--1.--1.--1.--1.--1.--1.--1.--1.--1.--1.--1.--|    |
B|-1.--1.--1.--1.--3.--3.--3.--3.--1.--1.--1.--1.--3.--3.--3.--3.--|    |
G|-1.--1.--1.--1.--3.--3.--3.--3.--1.--1.--1.--1.--3.--3.--3.--3.--|    |
D|-3.--3.--3.--3.--3.--3.--3.--3.--3.--3.--3.--3.--3.--3.--3.--3.--|    |
A|-3.--3.--3.--3.--1.--1.--1.--1.--3.--3.--3.--3.--1.--1.--1.--1.--|    |
E|-1.--1.--1.--1.------------------1.--1.--1.--1.------------------|    |
                                                                        |
e|-1.--1.--1.--1.--3.--3.--3.--3.--1.--1.--1.--1.--1.--1.--3.--3.--|   /
B|-1.--1.--1.--1.--3.--3.--3.--3.--3.--3.--3.--3.--3.--3.--4.--4.--|  /
G|-1.--1.--1.--1.--3.--3.--3.--3.--3.--3.--3.--3.--3.--3.--5.--5.--| /
D|-3.--3.--3.--3.--5.--5.--5.--5.--3.--3.--3.--3.--3.--3.--5.--5.--|
A|-3.--3.--3.--3.--5.--5.--5.--5.--1.--1.--1.--1.--1.--1.--3.--3.--|
E|-1.--1.--1.--1.--3.--3.--3.--3.----------------------------------|

Organ:
e|----------------------------------------------------|
B|----------------------------------------------------|
G|-----10---7--8-7--------------------------10--------|
D|-------------------10---------------------10--------|
A|-8-----------------------10--11-10---8--------------|
E|----------------------------------------------------|

Guitar:
e|-----------------------------------------------------|
B|-8---------8----------------8------------------------|
G|-10b12-----10b12--r10--8----10b12-r10----------------|
D|-----------------------------------------------------|
A|-----------------------------------------------------|
E|-----------------------------------------------------|

e|--------------------------------------------------------------------|
B|-13------11----9--/18------------------9-11b13--9h11p9h11p9h11p9-9--|
G|------------------------------------10------------------------------|
D|-------------------------8-------10---------------------------------|
A|-------------------------8------------------------------------------|
E|--------------------------------------------------------------------|

e|--------------------------------------------------------------------|
B|-11b13.-11-9--11b13.-11.-9-11.--11b13r11-----------8.-9.-8b9r8------|
G|-----------------------------------------10---8h10-------------8----|
D|--------------------------------------------------------------------|
A|--------------------------------------------------------------------|
E|--------------------------------------------------------------------|

e|---------------------------------------------------------------------------|
B|-8.-8b9r8-----------11b13r11-8--/9----8h9-8h9-8h9-8h9----------------------|
G|----------8--/10-------------------------------------------------13--13----|
D|-----------------------------------------------------------------13--13----|
A|---------------------------------------------------------------------------|
E|---------------------------------------------------------------------------|

e|---------------------------------------------------------------------------------|
B|-11-9-11-9-11-9-11-9-11-9-11-9-11-9-11-9-11-9-11-9-11-9-11-9-11-9-11-9-11-9-11-9-|
G|---------------------------------------------------------------------------------| x2   \
D|---------------------------------------------------------------------------------|       \
A|---------------------------------------------------------------------------------|        \
E|---------------------------------------------------------------------------------|         |
                                                                                             | x2
e|-------------------------------------------------------------------------|                 |
B|-11-9-11-9-11-9-11-9-11-9-11-9-11-9-11-9-11-9-11-9-11-9-11-9--11p9--9----|                /
G|-------------------------------------------------------------------------|               /
D|-------------------------------------------------------------------------|              /
A|-------------------------------------------------------------------------|
E|-------------------------------------------------------------------------|


Back to the guitar riff from earlier:
Synth:
e|-1.--1.--1.--1.--1.--1.--1.--1.--1.--1.--1.--1.--1.--1.--1.--1.--|
B|-1.--1.--1.--1.--3.--3.--3.--3.--1.--1.--1.--1.--3.--3.--3.--3.--|
G|-1.--1.--1.--1.--3.--3.--3.--3.--1.--1.--1.--1.--3.--3.--3.--3.--|
D|-3.--3.--3.--3.--3.--3.--3.--3.--3.--3.--3.--3.--3.--3.--3.--3.--|
A|-3.--3.--3.--3.--1.--1.--1.--1.--3.--3.--3.--3.--1.--1.--1.--1.--|
E|-1.--1.--1.--1.------------------1.--1.--1.--1.------------------|

e|-1.--1.--1.--1.--3.--3.--3.--3.--4.--4.--4.--4.--1.--1.--3.--3.--|
B|-1.--1.--1.--1.--3.--3.--3.--3.--4.--4.--4.--4.--3.--3.--4.--4.--|
G|-1.--1.--1.--1.--3.--3.--3.--3.--5.--5.--5.--5.--3.--3.--5.--5.--|
D|-3.--3.--3.--3.--5.--5.--5.--5.--6.--6.--6.--6.--3.--3.--5.--5.--|
A|-3.--3.--3.--3.--5.--5.--5.--5.--6.--6.--6.--6.--1.--1.--3.--3.--|
E|-1.--1.--1.--1.--3.--3.--3.--3.--4.--4.--4.--4.------------------|

e|-4.--4.--4.--4.--1.--1.--3.--3.--|
B|-4.--4.--4.--4.--3.--3.--4.--4.--|
G|-5.--5.--5.--5.--3.--3.--5.--5.--| x4
D|-6.--6.--6.--6.--3.--3.--5.--5.--|
A|-6.--6.--6.--6.--1.--1.--3.--3.--|
E|-4.--4.--4.--4.------------------|

Guitar:
e|----------------------------------------------------------------------------------------|
B|----------------------------------------------------------------------------------------|
G|----------------------------------------------------------------------------------------|
D|--------1.--3/5.--0------------1.-3/5-\3-----------------1/3.--0----3/5--3-1---1--------|
A|----1-3----------------------1-----------------------3.---------------------------1--3--|
E|-1-.-------------------1-.-4-----------------1-.-3-4------------------------------------|

e|---------------------|
B|---------------------|
G|---------------------| x4
D|-3/5--3-1---1--------|
A|---------------1--3--|
E|---------------------|


Outro verse:
"All I give are little clues,
Maybe one day I'll get through,
There is nothing I can do,
I'll just keep on lying to you"
Synth:
e|-1.--1.--1.--1.--1.--1.--1.--1.--1.--1.--1.--1.--1.--1.--1.--1.--|
B|-1.--1.--1.--1.--3.--3.--3.--3.--1.--1.--1.--1.--3.--3.--3.--3.--|
G|-1.--1.--1.--1.--3.--3.--3.--3.--1.--1.--1.--1.--3.--3.--3.--3.--|
D|-3.--3.--3.--3.--3.--3.--3.--3.--3.--3.--3.--3.--3.--3.--3.--3.--|
A|-3.--3.--3.--3.--1.--1.--1.--1.--3.--3.--3.--3.--1.--1.--1.--1.--|
E|-1.--1.--1.--1.------------------1.--1.--1.--1.------------------|

e|-1.--1.--1.--1.--3.--3.--3.--3.--1.--1.--1.--1.--1.--1.--3.--3.--|
B|-1.--1.--1.--1.--3.--3.--3.--3.--3.--3.--3.--3.--3.--3.--4.--4.--|
G|-1.--1.--1.--1.--3.--3.--3.--3.--3.--3.--3.--3.--3.--3.--5.--5.--|
D|-3.--3.--3.--3.--5.--5.--5.--5.--3.--3.--3.--3.--3.--3.--5.--5.--|
A|-3.--3.--3.--3.--5.--5.--5.--5.--1.--1.--1.--1.--1.--1.--3.--3.--|
E|-1.--1.--1.--1.--3.--3.--3.--3.----------------------------------|

Guitar:
e|---------------------------------------------------------------------------------------|
B|---------------------------------------------------------------------------------------|
G|---------------------------------------------------------------------------------------|
D|--------1.--3/5.--0-----------1.--3/5.--3-----------1.--3/5.--0----3--1-0----0---------|
A|----1-3-------------------1-3-------------------1-3-----------------------1-----1-3----|
E|-1-.-------------------1-.-------------------1-.---------------------------------------|

Keyboard:
e|-----------------------------------|
B|-----------------------------------|
G|-10--10-10--10-10--10-10-10-10-10--| x3
D|-----------------------------------|
A|-----------------------------------|
E|-----------------------------------|

e|-13--13-13--13-13--13-13-13-13-13--|
B|-----------------------------------|
G|-----------------------------------| x5
D|-----------------------------------|
A|-----------------------------------|
E|-----------------------------------|

Fade out.



************************************

| /   slide up
| \   slide down
| h   hammer-on
| p   pull-off
| ~   vibrato
| +   harmonic
| x   Mute note
| .   staccato
| b   Bend
| pb  Pre-bend
| br  Bend release
| pbr Pre-bend release
| brb Bend release bend

************************************

--------------------------------------------------------------------------------------
                                       Track 09
                                       Elephant
--------------------------------------------------------------------------------------

The main riff actually uses a low D note on the low E string. You have to tune down from
E to D to do that, but I'm tabbing this song in standard for simplicity. If you want to
be exact, then change your tuning to drop D and use the open string. That's how Kevin
plays it, but it isn't 100% essential, especially if you can't be bothered retuning.
You could also just turn it into a D power chord as well to compensate.


Verse 1:
Guitar:
e|-----------------------------------------------|
B|-----------------------------------------------|
G|--------------------------------------10.--10--|
D|--------------------------------------10.--10--|
A|-5--5-5--5-5--5-5--5-5--5-5--5-5--5-5--8.---8--|
E|-----------------------------------------------|


"Well he feels like an elephant shakin' his big grey trunk for the hell of it,
He knows..."
Guitar:
e|----------------------------------------------------------------------------------|
B|----------------------------------------------------------------------------------|
G|-------------------------------------------------------------------------10.--10--|
D|-------------------------------------------------------------------------10.--10--|
A|-5--5-5--5-5--5-5--5-5--5-5--5-5--5-5--5-5--5-5--5-5--5-5--5-5--5-5--5-5--8.---8--|
E|----------------------------------------------------------------------------------|


"...that you're dreaming about being loved by him"
Guitar:
e|------------------------------------|
B|------------------------------------|
G|------------------------------------|
D|-5--5-5--5-5--5-5--5-5--5-5--5-5--5-|
A|-5--5-5--5-5--5-5--5-5--5-5--5-5--5-|
E|-3--3-3--3-3--3-3--3-3--3-3--3-3--3-|


Guitar:
e|---------------------------------------|
B|---------------------------------------|
G|---------------------------------------|
D|---------------------------------------|
A|-5--5-5--5-5--5-5--5-5--5-5--5-5--5-5--|
E|---------------------------------------|


"Too bad your chances are slim"
Guitar:
e|----------------------------------|
B|----------------------------------|
G|-------------------------10.--10--|
D|-7--8--7--6--7--6--5.----10.--10--|
A|-7--8--7--6--7--6--5.-----8.---8--|
E|-5--6--5--4--5--4--3.-------------|


Verse 2:
Guitar:
e|-----------------------------------------------|
B|-----------------------------------------------|
G|--------------------------------------10.--10--|
D|--------------------------------------10.--10--|
A|-5--5-5--5-5--5-5--5-5--5-5--5-5--5-5--8.---8--|
E|-----------------------------------------------|


"And it's not like Mr. Shuck to get shy when they ask him who is on top,
There must..."
Guitar:
e|----------------------------------------------------------------------------------|
B|----------------------------------------------------------------------------------|
G|-------------------------------------------------------------------------10.--10--|
D|-------------------------------------------------------------------------10.--10--|
A|-5--5-5--5-5--5-5--5-5--5-5--5-5--5-5--5-5--5-5--5-5--5-5--5-5--5-5--5-5--8.---8--|
E|----------------------------------------------------------------------------------|


"...be something deep down in the dark down there"
Guitar:
e|------------------------------------|
B|------------------------------------|
G|------------------------------------|
D|-5--5-5--5-5--5-5--5-5--5-5--5-5--5-|
A|-5--5-5--5-5--5-5--5-5--5-5--5-5--5-|
E|-3--3-3--3-3--3-3--3-3--3-3--3-3--3-|


Guitar:
e|---------------------------------------|
B|---------------------------------------|
G|---------------------------------------|
D|---------------------------------------|
A|-5--5-5--5-5--5-5--5-5--5-5--5-5--5-5--|
E|---------------------------------------|


"He's not too easily scared"
Guitar:
e|----------------------------------|
B|----------------------------------|
G|-------------------------10.--10--|
D|-7--8--7--6--7--6--5.----10.--10--|
A|-7--8--7--6--7--6--5.-----8.---8--|
E|-5--6--5--4--5--4--3.-------------|


Verse 3:
Guitar:
e|-----------------------------------------------|
B|-----------------------------------------------|
G|--------------------------------------10.--10--|
D|--------------------------------------10.--10--|
A|-5--5-5--5-5--5-5--5-5--5-5--5-5--5-5--8.---8--|
E|-----------------------------------------------|


"He's got friends but they got the fear, wouldn't care too much if he just disappeared,
Oh, look..."
Guitar:
e|----------------------------------------------------------------------------------|
B|----------------------------------------------------------------------------------|
G|-------------------------------------------------------------------------10.--10--|
D|-------------------------------------------------------------------------10.--10--|
A|-5--5-5--5-5--5-5--5-5--5-5--5-5--5-5--5-5--5-5--5-5--5-5--5-5--5-5--5-5--8.---8--|
E|----------------------------------------------------------------------------------|


"...hey, there he is now coming down the stairs"
Guitar:
e|------------------------------------|
B|------------------------------------|
G|------------------------------------|
D|-5--5-5--5-5--5-5--5-5--5-5--5-5--5-|
A|-5--5-5--5-5--5-5--5-5--5-5--5-5--5-|
E|-3--3-3--3-3--3-3--3-3--3-3--3-3--3-|


Guitar:
e|---------------------------------------|
B|---------------------------------------|
G|---------------------------------------|
D|---------------------------------------|
A|-5--5-5--5-5--5-5--5-5--5-5--5-5--5-5--|
E|---------------------------------------|


Guitar:
e|----------------------------------|
B|----------------------------------|
G|-------------------------7--------|
D|-------------------------7--------|
A|-3--2--1--0-----------6--5--------|
E|-------------3--1--0--------------|


"Here he comes..."


Solo section:
Guitar solo 1:
Guitar:
e|--------------------------------------------------------------|
B|----------5-----------5-----6-----------6-----------6-----8\--|
G|----4h5h7-------4h5h7-------------4h5h7-------4h5h7-----------|
D|-0-----------0-----------0-----0-----------0-----------0------|
A|--------------------------------------------------------------|
E|--------------------------------------------------------------|

Keyboard:
This is what the keyboard plays. Use the guitar parts above as a
guide for when the chord changes. The chords are just sustained
on the keyboard, so try adding your own strumming pattern in:
e|-------------------------------5------------------------------|
B|-------------------------------6------------------------------|
G|-7-----------------------------7------------------------------|
D|-7-----------------------------7------------------------------|
A|-5-----------------------------5------------------------------|
E|--------------------------------------------------------------|


Guitar:
e|------------------------------------------------------------------|
B|------------------------------------------------------------------|
G|----5p4-0h2-----5p4-0h2---------------5h7p5-3---------------------|
D|----------------------------4h5h7--------------2--3--5------------|
A|---------------------------------------------------------------0--|
E|-3-----------3-----------3---------3--------------------0--1h3----|

Keyboard:
e|-----------------------------------3------------------------------|
B|-----------------------------------3------------------------------|
G|-----------------------------------3------------------------------|
D|-5---------------------------------5-----------2--3--5------------|
A|-5---------------------------------5---------------------------0--|
E|-3---------------------------------3--------------------0--1h3----|


Guitar:
e|---------------------------------------------------------------------|
B|----6p5---------6p5-------------------------6-----------6-----8-b10--|
G|--------5h7---------5h7-----4h5h7-----4h5h7-------4h5h7--------------|
D|-0-----------0-----------0---------0-----------0-----------0---------|
A|---------------------------------------------------------------------|
E|---------------------------------------------------------------------|


Keyboard:
e|-----------------------------------5---------------------------------|
B|-----------------------------------6---------------------------------|
G|-7---------------------------------7---------------------------------|
D|-7---------------------------------7---------------------------------|
A|-5---------------------------------5---------------------------------|
E|---------------------------------------------------------------------|


Guitar:
e|----------------------------------|
B|----------------------------------|
G|-------------------------7--------|
D|-------------------------7--------|
A|-3--2--1--0-----------6--5--------|
E|-------------3--1--0--------------|

Keyboard:
e|---------------------------------10--------------------|
B|---------------------10--11--13------13--10------------|
G|-------------10--12--------------------------10--------|
D|-10--12--13--------------------------------------12----|
A|-------------------------------------------------------|
E|-------------------------------------------------------|


Guitar solo 2:
Guitar:
e|--------3-----------3---------------------3-----------3--------------|
B|------------------------------------------------------------------5--|
G|----4h5---4-----4h5---4-----4h5h7-----4h5---5-----4h5---5-----5h7----|
D|-0-----------0-----------0---------0-----------0-----------0---------|
A|---------------------------------------------------------------------|
E|---------------------------------------------------------------------|

Keyboard:
e|-----------------------------------5---------------------------------|
B|-----------------------------------6---------------------------------|
G|-7---------------------------------7---------------------------------|
D|-7---------------------------------7---------------------------------|
A|-5---------------------------------5---------------------------------|
E|---------------------------------------------------------------------|


Guitar:
e|------------------------------------------------------------------|
B|------------------------------------------------------------------|
G|----5p4-0h2-----5p4-0h2---------------5h7p5-3---------------------|
D|----------------------------4h5h7--------------2--3--5------------|
A|---------------------------------------------------------------0--|
E|-3-----------3-----------3---------3--------------------0--1h3----|

Keyboard:
e|-----------------------------------3------------------------------|
B|-----------------------------------3------------------------------|
G|-----------------------------------3------------------------------|
D|-5---------------------------------5-----------2--3--5------------|
A|-5---------------------------------5---------------------------0--|
E|-3---------------------------------3--------------------0--1h3----|


Guitar 1:
e|----------------------------------------------------------------|
B|----6p5---------6p5-------------------6p5---------6p5-----------|
G|--------5h7---------5h7-----4h5h7---------5h7---------5h7-------|
D|-0-----------0-----------0---------0-----------0-----------0----|
A|----------------------------------------------------------------|
E|----------------------------------------------------------------|

Guitar 2 - another guitar comes in and plays this lick:
e|----------------------------------------------------------------|
B|----------------------------5h6h8-----6p5-------------6-8~~-----|
G|------------------------------------------5h7-----5h7-----------|
D|----------------------------------------------------------------|
A|----------------------------------------------------------------|
E|----------------------------------------------------------------|

Keyboard:
e|-----------------------------------5----------------------------|
B|-----------------------------------6----------------------------|
G|-7---------------------------------7----------------------------|
D|-7---------------------------------7----------------------------|
A|-5---------------------------------5----------------------------|
E|----------------------------------------------------------------|


Guitar:
e|----------------------------------|
B|----------------------------------|
G|-------------------------7--------|
D|-------------------------7--------|
A|-3--2--1--0-----------6--5--------|
E|-------------3--1--0--------------|

Keyboard:
e|---------------------------------10--------------------|
B|---------------------10--11--13------13--10------------|
G|-------------10--12--------------------------10--------|
D|-10--12--13--------------------------------------12----|
A|-------------------------------------------------------|
E|-------------------------------------------------------|


Synth solo:
Synth:
e|--------8---------8---------8---------8---------10--|
B|-8--10-----8--10-----8--10-----8--10-----8--10------|
G|----------------------------------------------------|
D|----------------------------------------------------|
A|----------------------------------------------------|
E|----------------------------------------------------|

Keyboard:
e|--------5------------|
B|--------6------------|
G|-7------7--12--------|
D|-7------7--12--------|
A|-5------5--10--------|
E|---------------------|


Synth:
e|-----10--8--10--8--10----12--10--------12--10--8----|
B|-10------------------------------10-----------------|
G|----------------------------------------------------|
D|----------------------------------------------------|
A|----------------------------------------------------|
E|----------------------------------------------------|

Keyboard:
e|-10--------10------------------|
B|-12--------11------------------|
G|-12--------12------------------|
D|-12--------12---2-3-5----------|
A|-10--------10---------------0--|
E|----------------------0-1h3----|


Synth:
e|--------8---------8---------8---------8------8--10----8--------------------|
B|-8h10.-----8--10-----8--10-----8--10-----10--------------10----------------|
G|---------------------------------------------------------------------------|
D|---------------------------------------------------------------------------|
A|---------------------------------------------------------------------------|
E|---------------------------------------------------------------------------|

Keyboard:
e|--------5------------|
B|--------6------------|
G|-7------7--12--------|
D|-7------7--12--------|
A|-5------5--10--------|
E|---------------------|


Guitar:
e|-------------------------|
B|-------------------------|
G|-------------------------|
D|-------------------------|
A|-3--2--1--0-----------6--|
E|-------------3--1--0-----|


Verse 4:
Guitar:
e|-----------------------------------------------|
B|-----------------------------------------------|
G|--------------------------------------10.--10--|
D|--------------------------------------10.--10--|
A|-5--5-5--5-5--5-5--5-5--5-5--5-5--5-5--8.---8--|
E|-----------------------------------------------|


"He pulled the mirrors off his Cadillac, yeah, 'cause he doesn't like it looking like he looks back,
He talks..."
Guitar:
e|----------------------------------------------------------------------------------|
B|----------------------------------------------------------------------------------|
G|-------------------------------------------------------------------------10.--10--|
D|-------------------------------------------------------------------------10.--10--|
A|-5--5-5--5-5--5-5--5-5--5-5--5-5--5-5--5-5--5-5--5-5--5-5--5-5--5-5--5-5--8.---8--|
E|----------------------------------------------------------------------------------|


"...like his opinion is a simple fact"
Guitar:
e|------------------------------------|
B|------------------------------------|
G|------------------------------------|
D|-5--5-5--5-5--5-5--5-5--5-5--5-5--5-|
A|-5--5-5--5-5--5-5--5-5--5-5--5-5--5-|
E|-3--3-3--3-3--3-3--3-3--3-3--3-3--3-|


Verse 5:
Guitar:
e|-----------------------------------------------|
B|-----------------------------------------------|
G|-----------------------------------------10----|
D|-----------------------------------------10----|
A|-5--5-5--5-5--5-5--5-5--5-5--5-5--5-5--5--8----|
E|-----------------------------------------------|


"Somebody grabbed his collar, he cried the whole way home,
No one..."
Guitar:
e|----------------------------------------------------------------------------------|
B|----------------------------------------------------------------------------------|
G|-------------------------------------------------------------------------10.--10--|
D|-------------------------------------------------------------------------10.--10--|
A|-5--5-5--5-5--5-5--5-5--5-5--5-5--5-5--5-5--5-5--5-5--5-5--5-5--5-5--5-5--8.---8--|
E|----------------------------------------------------------------------------------|


"...remembered a thing when they saw him again"
Guitar:
e|------------------------------------|
B|------------------------------------|
G|------------------------------------|
D|-5--5-5--5-5--5-5--5-5--5-5--5-5--5-|
A|-5--5-5--5-5--5-5--5-5--5-5--5-5--5-|
E|-3--3-3--3-3--3-3--3-3--3-3--3-3--3-|


Guitar:
e|---------------------------------------|
B|---------------------------------------|
G|---------------------------------------|
D|---------------------------------------|
A|-5--5-5--5-5--5-5--5-5--5-5--5-5--5-5--|
E|---------------------------------------|


"That's how it is 'til the end"
Guitar:
e|-----------------------------|
B|-----------------------------|
G|-----------------------------|
D|-7--8--7--6--7--6--5.--------|
A|-7--8--7--6--7--6--5.--------|
E|-5--6--5--4--5--4--3.--------|


*Pause for mini-drum solo*


"Yeah"
Guitar:
e|-------------------------------------------|
B|-------------------------------------------|
G|---10.--10---------------------------------|
D|---10.--10---------------------------------|
A|-5--8.---8--5--5-5--5-5--5-5--5-5--5-5.----|
E|-------------------------------------------|



************************************

| /   slide up
| \   slide down
| h   hammer-on
| p   pull-off
| ~   vibrato
| +   harmonic
| x   Mute note
| .   staccato
| b   Bend
| pb  Pre-bend
| br  Bend release
| pbr Pre-bend release
| brb Bend release bend

************************************

--------------------------------------------------------------------------------------
                                       Track 10
                               She Just Won't Believe Me
--------------------------------------------------------------------------------------

Intro:
Synth - the synth just sustains the chords for
a long time, so add your own strumming in:
e|-3--------1--------------3----------------|
B|-5--------1--------------5----------------|
G|-5--------2--------------3----------------|
D|-5--------3--------------5----------------|
A|-3--------3--------------3----------------|
E|----------1-------------------------------|


Verse:
"But she just won't believe me, she just won't believe me,
I never appear deceiving, but she just won't believe me"
Synth:
e|-5--------3--------5--------3--------|
B|-6--------5--------6--------5--------|
G|-7--------5--------7--------5--------| x2
D|-7--------5--------7--------5--------|
A|-5--------3--------5--------3--------|
E|-------------------------------------|

This guitar comes in on the word "deceiving" and strums the chords:
e|-3-3-3-3-3-3-3-3-5-5-5-5-5-5-5-5-3-3-3-3-3-3-3-3-|
B|-5-5-5-5-5-5-5-5-6-6-6-6-6-6-6-6-5-5-5-5-5-5-5-5-|
G|-5-5-5-5-5-5-5-5-7-7-7-7-7-7-7-7-5-5-5-5-5-5-5-5-|
D|-5-5-5-5-5-5-5-5-7-7-7-7-7-7-7-7-5-5-5-5-5-5-5-5-|
A|-3-3-3-3-3-3-3-3-5-5-5-5-5-5-5-5-3-3-3-3-3-3-3-3-|
E|-------------------------------------------------|

And then this guitar comes in on the word "she" after the other guitar
starts strumming the chords, and solos until the song abruptly ends:
e|-------------------------------------------------------------------|
B|-------------------------------------------------------------------|
G|--------------------10-12-12b14r12p10----10-12-12b14r12p10----10---|
D|-------10-12--10h12-------------------12-------------------12------|
A|-10h12-------------------------------------------------------------|
E|-------------------------------------------------------------------|

e|-13b15--13-10-------------------------------------------------------|
B|--------------13-10-13b15-r13-10----10------------------------------|
G|---------------------------------12------12-10----------------------|
D|-----------------------------------------------12-12----------------|
A|------------------------------------------------------12-12---------|
E|-------------------------------------------------------------10-10--|



************************************

| /   slide up
| \   slide down
| h   hammer-on
| p   pull-off
| ~   vibrato
| +   harmonic
| x   Mute note
| .   staccato
| b   Bend
| pb  Pre-bend
| br  Bend release
| pbr Pre-bend release
| brb Bend release bend

************************************

--------------------------------------------------------------------------------------
                                       Track 11
                         Nothing That Has Happened So Far Has
                            Been Anything We Could Control
--------------------------------------------------------------------------------------

I just want to say that Kevin Parker is a total genius, and that jam in the middle is
my favourite bit of music of all-time; I'm not even exaggerating.

Intro:
Synth:
e|-4----4----1----1----6----4----1----1----4----4----1----1----6----4----------------|
B|-4----6----1----3----8----6----1----3----4----6----1----3----8----6----12----14----|
G|-6----6----1----3----8----6----1----3----6----6----1----3----8----6----11----13----|
D|-6----6----3----3----8----6----3----3----6----6----3----3----8----6-----9----11----|
A|-6----4----3----1----6----4----3----1----6----4----3----1----6----4-----9----11----|
E|-4---------1-------------------1---------4---------1-------------------------------|


Pre-verse:
Guitar:
e|-8-------8-------8-------8----|
B|--8-------8-------8------8----|
G|---8-------8-------8-----8----|
D|----6-------6-------6----6----|
A|------------------------------|
E|------------------------------|

Synth:
e|-8--8--8--8--8--8--8--8--|
B|-8--8--8--8--8--8--8--8--|
G|-8--8--8--8--8--8--8--8--|
D|-6--6--6--6--6--6--6--6--|
A|-------------------------|
E|-------------------------|


Verse:
"Nothing that has happened so far has been anything we could control,
I have just been waiting for the perfect time to tell you I don't know,
Maybe I'm just reading into it a little deeper than I should,
We would make it easy, we would take it slowly if only we could"
Guitar:
e|-4----4----1----1----6----4----1----1----|
B|-4----6----1----3----8----6----1----3----|
G|-6----6----1----3----8----6----1----3----| x4
D|-6----6----3----3----8----6----3----3----|
A|-6----4----3----1----6----4----3----1----|
E|-4---------1-------------------1---------|


Hit this chord:
Guitar:
e|-8----------6--|
B|--8------------|
G|---8--------8--|
D|----6----6-----|
A|---------------|
E|---------------|

Synth:
e|-8--------|
B|-8--------|
G|-8--------|
D|-6--------|
A|----------|
E|----------|


Dialogue:
"Hey, what are you doing out here? You're thinking about everything, aren't you?
I know it's crazy, but just don't think of it like that. Nothing has to mean anything.
Come on, let's go back inside."
The instruments are muffled, but they play the verse chord progression again:
Synth:
e|-4----4----1----1----6----4----1----1----|
B|-4----6----1----3----8----6----1----3----|
G|-6----6----1----3----8----6----1----3----| x2
D|-6----6----3----3----8----6----3----3----|
A|-6----4----3----1----6----4----3----1----|
E|-4---------1-------------------1---------|


Verse:
"Elodie, look at me, unless you're trying to hurt me,
Heavy blow, down I go, now I just want to let go"
Guitar:
e|-4----4----1----1----6----4----1----1----|
B|-4----6----1----3----8----6----1----3----|
G|-6----6----1----3----8----6----1----3----| x2
D|-6----6----3----3----8----6----3----3----|
A|-6----4----3----1----6----4----3----1----|
E|-4---------1-------------------1---------|

Synth guitar:
e|-11--13--11----11-13-11-10----10--11----------------------------|
B|--------------------------------------11--14--14--13--11--------|
G|----------------------------------------------------------------| x2
D|----------------------------------------------------------------|
A|----------------------------------------------------------------|
E|----------------------------------------------------------------|


Verse - alternate:
"Is it right? Is it wrong? I don't know,
It's not the cause I'm fighting for anymore, but it sucks to keep on running"
Guitar:
e|-4----4----1----1----6----4----2----1----4--------1----1----6----4----1----1----|
B|-4----6----1----3----8----6----4----4----4--------1----3----8----6----1----3----|
G|-6----6----1----3----8----6----4----4----6--------1----3----8----6----1----3----|
D|-6----6----3----3----8----6----4----4----6--------3----3----8----6----3----3----|
A|-6----4----3----1----6----4----2----1----6--------3----1----6----4----3----1----|
E|-4---------1-----------------------------4--------1-------------------1---------|


Verse:
"Eventually there will be a time for clearer thinking,
For now I weep, can't get to sleep, I try to hold a good feeling"
Guitar:
e|-4----4----1----1----6----4----1----1----|
B|-4----6----1----3----8----6----1----3----|
G|-6----6----1----3----8----6----1----3----| x2
D|-6----6----3----3----8----6----3----3----|
A|-6----4----3----1----6----4----3----1----|
E|-4---------1-------------------1---------|


Verse - alternate:
"I just get one, here it comes, there it goes,
And we just might well lose the fight, yeah, but it's all right, it wasn't our decision"
Guitar:
e|-4----4----1----1----6----4----2----1----4--------1----1----6----4----1----1----|
B|-4----6----1----3----8----6----4----4----4--------1----3----8----6----1----3----|
G|-6----6----1----3----8----6----4----4----6--------1----3----8----6----1----3----|
D|-6----6----3----3----8----6----4----4----6--------3----3----8----6----3----3----|
A|-6----4----3----1----6----4----2----1----6--------3----1----6----4----3----1----|
E|-4---------1-----------------------------4--------1-------------------1---------|


Pause for a bit and then...


Jam section - A.K.A. THE GREATEST BIT OF MUSIC EVER MADE!
Synth riff:
e|------------------------------|
B|-10--------------10-10--------|
G|-----9--12----12----10--------| x2
D|------------------------------|
A|------------------------------|
E|------------------------------|


Guitar comes in:
Synth starts playing this epic chord progression:
e|-5----5----7---------8--------|
B|-6----6----8--------10--------|
G|-7----7----9--------10--------| x7
D|-7----7----9--------10--------|
A|-5---------7---------8--------|
E|------0-----------------------|

Synth riff:
e|------------------------------|
B|-10--------------10-10--------|
G|-----9--12----12----10--------| x7
D|------------------------------|
A|------------------------------|
E|------------------------------|

Guitar backs up the chord progression at first:
e|-5---------7---------8--------|
B|-6---------8--------10--------|
G|-7---------9--------10--------| x2
D|-7---------9--------10--------|
A|-5---------7---------8--------|
E|------------------------------|

And then starts playing this:
e|------------------------------------------------------------------|
B|---------------------------------------------------------6-5------|
G|------2--5-/7---/7--5-2------2-0-0------0h2--5---4---4/7-------5--|
D|-3-----------------------------------3----------------------------|
A|------------------------------------------------------------------|
E|------------------------------------------------------------------|

e|--------------------------------------------10-8~-----|
B|--------------------------------6---8-------------10--|
G|-5/7-2--------7-------------5h7-----------------------|
D|------------------5-/7--------------------------------|
A|------------------------------------------------------|
E|------------------------------------------------------|

e|----------------------------8b10-r8---5-5-----------|
B|-8-b10-8b10r8--------6---8----------8---8b10--------|
G|--------------7--5h7--------------------------------|
D|----------------------------------------------------|
A|----------------------------------------------------|
E|----------------------------------------------------|


The flanger takes a deep dive and then explodes into...


Goosebump-inducing psychedelic madness:
Synth guitar riff - the first time there's a very fast fill
before the bend which may be hard to play, but it's there:
e|----------------------------15--------------------------|
B|-15-/10--10---15-/10---12h13----13--12-b13r12-----------|
G|------------------------------14---------------10---9---|
D|--------------------------------------------------------|
A|--------------------------------------------------------|
E|--------------------------------------------------------|

e|--------------------------------------------------------|
B|-15-/10--10---15-/13--13-----12-b13r12------------------|
G|----------------------------------------10---9----------|
D|-------------------------------------------------10-----|
A|--------------------------------------------------------|
E|--------------------------------------------------------|

e|----------------------------------------------|
B|-15/10-----15/10-----13---12-b13r12-----------|
G|-------------------------------------10---9---|
D|----------------------------------------------|
A|----------------------------------------------|
E|----------------------------------------------|

e|-------------------------------------------------|
B|-15-/10--10---15-/10--13-----12-b13r12-----------|
G|----------------------------------------10---9---|
D|-------------------------------------------------|
A|-------------------------------------------------|
E|-------------------------------------------------|

e|-15-/10--10---15-/10--10---13.---12-b13r12---------15------12--13--|
B|--------------------------------------------13---------15----------|
G|-------------------------------------------------------------------|
D|-------------------------------------------------------------------|
A|-------------------------------------------------------------------|
E|-------------------------------------------------------------------|

e|-15-/10--10---15-/10--13-----12-b13r12------------|
B|----------------------------------------13--------|
G|--------------------------------------------------|
D|--------------------------------------------------|
A|--------------------------------------------------|
E|--------------------------------------------------|

Synth keeps playing the chord progression - it's buried in the mix,
but it provides the foundation that keeps the whole thing going.
On the last time through, sustain the last chord after all the
other instruments have stopped:
e|-5----5----7---------8--------|
B|-6----6----8--------10--------|
G|-7----7----9--------10--------| x6
D|-7----7----9--------10--------|
A|-5---------7---------8--------|
E|------0-----------------------|


Outro:
Synth:
e|-4----4----1----1----6----4----1----1----4----4----1----1----6----4----------------|
B|-4----6----1----3----8----6----1----3----4----6----1----3----8----6----12----14----|
G|-6----6----1----3----8----6----1----3----6----6----1----3----8----6----11----13----|
D|-6----6----3----3----8----6----3----3----6----6----3----3----8----6-----9----11----|
A|-6----4----3----1----6----4----3----1----6----4----3----1----6----4-----9----11----|
E|-4---------1-------------------1---------4---------1-------------------------------|

Another synth plays this little arpeggio right at the end:
e|-8---------------------|
B|----11--8--------------|
G|----------10--8--------|
D|-----------------------|
A|-----------------------|
E|-----------------------|


Verse:
"Nothing that has happened so far has been anything we could control,
I have just been waiting for the perfect time to tell you that I know,
Every man was happy until happiness is suddenly a goal,
I'll just be here waiting 'til the Doctor calls and then I'll let you know"
Guitar:
e|-4----4----1----1----6----4----1----1----|
B|-4----6----1----3----8----6----1----3----|
G|-6----6----1----3----8----6----1----3----| x4
D|-6----6----3----3----8----6----3----3----|
A|-6----4----3----1----6----4----3----1----|
E|-4---------1-------------------1---------|

Synth guitar:
e|-11--13--11----11-13-11-10----10--11----------------------------|
B|--------------------------------------11--14--14--13--11--------|
G|----------------------------------------------------------------| x4
D|----------------------------------------------------------------|
A|----------------------------------------------------------------|
E|----------------------------------------------------------------|

Fade out.



************************************

| /   slide up
| \   slide down
| h   hammer-on
| p   pull-off
| ~   vibrato
| +   harmonic
| x   Mute note
| .   staccato
| b   Bend
| pb  Pre-bend
| br  Bend release
| pbr Pre-bend release
| brb Bend release bend

************************************

--------------------------------------------------------------------------------------
                                       Track 12
                                    Sun's Coming Up
--------------------------------------------------------------------------------------

Intro:
Piano:
e|-------------------------------------------------------------------|
B|----3-3-----2-2-3----1-1-----2-2-----3-3-----2-2-3----1-1-----2-2--|
G|----4-4-----2-2------2-2-----2-2-----4-4-----2-2------2-2-----2-2--|
D|-5-------4--------3-------4-------5-------4--------3-------4-------|
A|-------------------------------------------------------------------|
E|-------------------------------------------------------------------|


1st verse:
"All those things I ever thought would never end,
To think they're now all memories sends me 'round the bend,
To watch her airplane swaying, coming in to land,
There my world is hanging in someone else's hands,
And if I have done something, and you have to let me go,
Think of me as someone, someone that you know"
e|-------------------------------------3-3-----0-0--0--------2---|
B|----3-3-----2-2-3----1-1-----2-2-----5-5-----1-1-----1-----2---|
G|----4-4-----2-2------2-2-----2-2--5-------2-------------0--2---| x3
D|-5-------4--------3-------4--------------------------------X---|
A|-----------------------------------------------------------0---|
E|---------------------------------------------------------------|


"But if I don't hear something pretty soon from now,
I'll disconnect completely, see how that works out"
e|-------------------------------------3-3-----0-0--------------------|
B|----3-3-----2-2-3----1-1-----2-2-----5-5-----1-1--------------5-5---|
G|----4-4-----2-2------2-2-----2-2--5-------2----------5--4-----3-3---|
D|-5-------4--------3-------4-----------------------5--5--5-----5-5---|
A|-----------------------------------------------------------3--------|
E|--------------------------------------------------------------------|


e|----3-3-----0-0-----0-0--3---|
B|----5-5-----1-1-----1-1--5---|
G|-5-------2-------0-------3---|
D|-------------------------5---|
A|-------------------------3---|
E|-----------------------------|


2nd verse:
"I wasn't daring, not much a chancer,
Oh, my darling, why won't you answer?
7 a.m., midnight in Dover,
Sun's coming up now, I guess it's over"
e|----------------------------------------------------------------|
B|---3-3-----3-3-----3-3-----3-3-----1-1-----1-1-----3-3-----3-3--|
G|---3-3-----3-3-----3-3-----3-3-----2-2-----2-2-----3-3-----3-3--|   \
D|---5-5-----5-5-----5-5-----5-5-----3-3-----3-3-----5-5-----5-5--|    \
A|--------0-------6-------6---------------------------------------|     \
E|-3------------------------------1-------1-------3-------3-------|      |
                                                                         | x2
e|---------------------------------------------------------3--------|    |
B|---3-3-----3-3-----4-4-----4-4-----1-1-----1-1-----3--3-----3-----|   /
G|---3-3-----3-3-----5-5-----5-5-----2-2-----2-2-----3-----------3--|  /
D|---5-5-----5-5-----5-5-----5-5-----3-3-----3-3-----5--------------| /
A|--------0-------3-------3-----------------------------------------|
E|-3------------------------------1-------1-------3-----------------|


"Playing his guitar while he's dying of cancer,
Oh, my father, why won't you answer?"
e|----------------------------------------------------------------|
B|---3-3-----3-3-----3-3-----3-3-----1-1-----1-1-----3-3-----3-3--|
G|---3-3-----3-3-----3-3-----3-3-----2-2-----2-2-----3-3-----3-3--|
D|---5-5-----5-5-----5-5-----5-5-----3-3-----3-3-----5-5-----5-5--|
A|--------0-------6-------5---------------------------------------|
E|-3------------------------------1-------1-------3-------3-------|

e|---------------------------------------------------------3--------|
B|---3-3-----3-3-----4-4-----4-4-----1-1-----1-1-----3--3-----3-----|
G|---3-3-----3-3-----5-5-----5-5-----2-2-----2-2-----3-----------3--|
D|---5-5-----5-5-----5-5-----5-5-----3-3-----3-3-----5--------------|
A|--------0-------3-------3-----------------------------------------|
E|-3------------------------------1-------1-------3-----------------|


"7 a.m., midnight in Dover,
Sun's coming up now, I guess it's over"
e|----------------------------------------------------------------|
B|---3-3-----3-3-----3-3-----3-3-----1-1-----1-1-----3-3-----3-3--|
G|---3-3-----3-3-----3-3-----3-3-----2-2-----2-2-----3-3-----3-3--|
D|---5-5-----5-5-----5-5-----5-5-----3-3-----3-3-----5-5-----5-5--|
A|--------0-------6-------6---------------------------------------|
E|-3------------------------------1-------1-------3-------3-------|

e|---------------------------------------------------------3---|
B|---3-3-----3-3-----4-4-----4-4-----1-1-----1-1-----3--3------|
G|---3-3-----3-3-----5-5-----5-5-----2-2-----2-2-----3---------|
D|---5-5-----5-5-----5-5-----5-5-----3-3-----3-3-----5---------|
A|--------0-------3-------3------------------------------------|
E|-3------------------------------1-------1-------3------------|


Outro:
Hit the muted strings and
let the delay pedal echo:
Guitar:
e|-X----------|
B|-X----------|
G|-X----------|
D|-X----------|
A|-X----------|
E|-X----------|


Little bit before the main section:
e|---------------|
B|-0--------0h2--|
G|---------------|
D|---------------|
A|---------------|
E|---------------|


1st riff/lead:
e|-2--0--4b5r4-2-0h2--2--0----------------|
B|-4--2---------------4--2--4b5r4--2-0h2--|
G|-4--2---------------4--2----------------| x2
D|-4--2---------------4--2----------------|
A|-2--0---------------2--0----------------|
E|----------------------------------------|


Variations:
e|-2--0--4b5r4-2-0h2--2--0--4b5r4--2-0h2--|
B|-4--2---------------4--2----------------|
G|-4--2---------------4--2----------------|
D|-4--2---------------4--2----------------|
A|-2--0---------------2--0----------------|
E|----------------------------------------|


e|-2--0--7p4\2--0h2--2--0--4b5r4--2-0h2--|
B|-4--2--------------4--2----------------|
G|-4--2--------------4--2----------------|
D|-4--2--------------4--2----------------|
A|-2--0--------------2--0----------------|
E|---------------------------------------|


e|-2--0--4b5r4-2-0h2--2--0--4b5r4--2-0h2--|
B|-4--2---------------4--2----------------|
G|-4--2---------------4--2----------------|
D|-4--2---------------4--2----------------|
A|-2--0---------------2--0----------------|
E|----------------------------------------|


e|-2--0---------------2--0-------------|
B|-4--2--4b5r4-2-0h2--4--2-------------|
G|-4--2---------------4--2--4b6r4-2----|
D|-4--2---------------4--2----------4--|
A|-2--0---------------2--0-------------|
E|-------------------------------------|


e|-2--0--4b5r4-2-0h2--2--0----------------|
B|-4--2---------------4--2--4b5r4--2-0h2--|
G|-4--2---------------4--2----------------| x2
D|-4--2---------------4--2----------------|
A|-2--0---------------2--0----------------|
E|----------------------------------------|


e|-2--0--4b5r4-2-0h2--2--0----------------|
B|-4--2---------------4--2--4b5r4--0h2----|
G|-4--2---------------4--2----------------|
D|-4--2---------------4--2----------------|
A|-2--0---------------2--0----------------|
E|----------------------------------------|


End of first riff/lead:
e|-2--0------2--0------|
B|-4--2------4--2------|
G|-4--2------4--2------|
D|-4--2------4--2------|
A|-2--0------2--0------|
E|---------------------|


Pre-2nd riff/lead:
e|-2--------4----|
B|-4--------4----|
G|-4--------5----|
D|-4--------6----|
A|-2--------6----|
E|----------4----|


2nd riff/lead:
The 1st time through there's a lengthy
pause after the last chord. Presumably,
this is because Kevin was switching different
pedals on, because you can hear a pedal click on:
e|-6--4--2--------4--------------|
B|-8--6--4--------4--------------|
G|-8--6--4--------5--------------|
D|-8--6--4--------6--------------|
A|-6--4--2--------6--------------|
E|----------------4--------------|


Effects pedal gets switched on:
e|-6--4--2--------4----|
B|-8--6--4--------4----|
G|-8--6--4--------5----| x2
D|-8--6--4--------6----|
A|-6--4--2--------6----|
E|----------------4----|


Lick added between chords:
e|-6--4--2--2/4/6-7-9-11-13--4----|
B|-8--6--4-------------------4----|
G|-8--6--4-------------------5----| x2
D|-8--6--4-------------------6----|
A|-6--4--2-------------------6----|
E|---------------------------4----|


End with:
e|-6--4--2--2-------2----4----|
B|-8--6--4----4---4------4----|
G|-8--6--4------4--------5----|
D|-8--6--4---------------6----|
A|-6--4--2---------------6----|
E|-----------------------4----|

Song ends with a recording of waves crashing on a beach.



************************************

| /   slide up
| \   slide down
| h   hammer-on
| p   pull-off
| ~   vibrato
| +   harmonic
| x   Mute note
| .   staccato
| b   Bend
| pb  Pre-bend
| br  Bend release
| pbr Pre-bend release
| brb Bend release bend

************************************


And there you have it! Be sure to rate and comment on this album tab if you spot
any errors so I can fix them. Thanks!
comments
print report bad tab
6 comments total. Showing first comments.
+1 reply
white_snipes wrote on September 7 2013, 09:50 am

Amazing, thanks for taking the time to tab this out and posting it. I look forward to learning all these tracks.

0 reply
Psyche-Guitar wrote on September 7 2013, 09:01 pm

No worries man! Glad I could help you out! These songs are extremely fun to play and I had a blast tabbing them all out.

0 reply
shmoobie wrote on September 8 2013, 10:57 pm

thank you c: you obviously love tame impala as much as i do, if not more (probably so)
Do you have any idea what kind of pedals you can use to get that synthy sound that dom gets? Im always trying to get it out of my pedals while playing innerspeaker songs... but i cant. help?

I want to post or [tab]
guest
You may want to rate the tab now too:
select rating
Please do not post tabs as comments. Select "correction" instead!