Oops, an error
Loading. Please wait.

Music To Walk Home By Tab

ver2
ver2

Whole song

More versions @911Tabs.com
3,113 views 22 this week
1 commentread comment
1 2 3 4 5
excellent!
x 6
Autoscroll
+/-
esc
set tempo
stop
Hey! There's an official Ultimate Guitar app which is ideal
for learning songs when you're away from computer. Get the app
WARNING: You are trying to view
                                    content from Ultimate-Guitar.com
                                    in an unauthorized application,
                                    which is prohibited.

                                    Please use an official Ultimate
                                    Guitar Tabs application for iPhone,
                                    iPad or Android to access legitimate
                                    chords, guitar, bass, and drum tabs
                                    from Ultimate-Guitar.com database.

                                    Type "ultimate guitar tabs" in Apple
                                    App Store's or Android Market's
                                    search to find the application.
this is a complete copy of the other tab except in standard tuning, for all you lazy guitarists ;)

Verse
e|-10--10-10-10--10-10-10-—8--8--8---8--8--8---8--8--8---|
B|-10--10-10-10--10-10-10-—8--8--8---8--8--8---8--8--8---|
G|-11--11-11-11--11-11-11-—9--9--9---9--9--9---9—-9--9---|
D|-12--12-12-12--12-12-12--10-10-10--10-10-10--10-10-10--|
A|-12--12-12-12--12-12-12--10-10-10--10-10-10--10-10-10--|
E|-10--10-10-10--10-10-10-—8--8--8---8--8--8---8--8--8---|

Sometimes played as:

e|-10--10-10-10--10-10-10--12-12-12--12-12-12--12-12-12--|
B|-10--10-10-10--10-10-10--12-12-12--12-12-12--12-12-12--|
G|-11--11-11-11--11-11-11--12-12-12--12-12-12--12-12-12--|
D|-12--12-12-12--12-12-12--10-10-10--10-10-10--10-10-10--|
A|-12--12-12-12--12-12-12--------------------------------|
E|-10--10-10-10--10-10-10--------------------------------|

After three repeats:

e|-10--10-10-10--10-10-10--8--8--8---8--8--8---8--8--8---|
B|-10--10-10-10--10-10-10--10-10-10--10-10-10--10-10-10--|
G|-11--11-11-11--11-11-11--9--9--9---9--9--9---9—-9--9---|
D|-12--12-12-12--12-12-12--10-10-10--10-10-10--10-10-10--|
A|-12--12-12-12--12-12-12--8--8--8---8--8--8---8--8--8---|
E|-10--10-10-10--10-10-10--------------------------------|

----

'Can almost stand competing with the others...'
e|-5-5-5--5-5-5--5-5-5--5-x-x-5---5-5-5--5-5-5--5--------|
B|-7-7-7--7-7-7--7-7-7--7-x-x-5---5-5-5--5-5-5--5--------|
G|-6-6-6--6-6-6--6-6-6--6-x-x-5---5-5-5--5-5-5--5--------|
D|-7-7-7--7-7-7--7-7-7--7-x-x-7---7-7-7--7-7-7--7--------|
A|-5-5-5--5-5-5--5-5-5--5-x-x-7---7-7-7--7-7-7--7--------|
E|------------------------x-x-5---5-5-5--5-5-5--5--------|




e|-5-5-5--5-5-5--5-5-5--5-x-x-5--x----x-3--x------------------|
B|-7-7-7--7-7-7--7-7-7--7-x-x-5--x-5--x-3--x-7---7-7-7--7-7-7-|
G|-6-6-6--6-6-6--6-6-6--6-x-x-5--x-5--x-4--x-7---7-7-7--7-7-7-|
D|-7-7-7--7-7-7--7-7-7--7-x-x-7--x-5--x-5--x-7---7-7-7--7-7-7-|
A|-5-5-5--5-5-5--5-5-5--5-x-x-7--x-3--x-5--x-5---5-5-5--5-5-5-|
E|------------------------x-x-5--x----x-3--x------------------|


e|-5-5-5--5-5-5--5-5-5---3-3-3--3-3-3--3-3-3--3-3-3--x-x-5--x-x-7---x-x-----|
B|-5-5-5--5-5-5--5-5-5---3-3-3--3-3-3--3-3-3--3-3-3--x-x-5--x-x-7---x-x-10~-|
G|-5-5-5--5-5-5--5-5-5---4-4-4--4-4-4--4-4-4--4-4-4--x-x-5--x-x-7---x-x-10~-|
D|-7-7-7--7-7-7--7-7-7---5-5-5--5-5-5--5-5-5--5-5-5--x-x-7--x-x-9---x-x-10~-|
A|-7-7-7--7-7-7--7-7-7---5-5-5--5-5-5--5-5-5--5-5-5--x-x-7--x-x-9---x-x-8-~-|
E|-5-5-5--5-5-5--5-5-5---3-3-3--3-3-3--3-3-3--3-3-3--x-x-5--x-x-7-----------|

Return to the first verse. After that, there is this 'strange' part where
some synth comes in, pitch turns up or something. Then:

'I just don't know...'
e|-5---5~------5---7~--|
B|-7---5~------7---7~--|
G|-6---6~------6---7~--|
D|-7---7~------7---5~--|
A|-5---7~------5-------|
E|-----5~--------------|

Repeated a lot of times, until:

'You'll know soon...'
e|----------|
B|--7---5---|
G|--7---5---|
D|--7---5---|
A|--5---3---|
E|----------|

Also repeat a lot of times, 
the synth does something like this (second one is variation):
e|---------------------------------------------------------------------------|
B|-7h8p7h8p7h8h10p8h10p8-----------7h8p7h8p7h8h10p8h10/12\10~----------------|
G|-----------------------11~-------------------------------------------------|
D|---------------------------------------------------------------------------|
A|---------------------------------------------------------------------------|
E|---------------------------------------------------------------------------|

Then, the synth changes, so do the chords:
e|-1---1------0---0--|
B|-3---1------1---0--|
G|-4---2------2---0--|
D|-------------------|
A|-------------------|
E|-------------------|

When the synth stops (around 3:19), he fingerpicks the chords, all three
string at the same time

e|-1-1-1-1-1-1-1-1-1-1-1-1-0-0-0-0-0---0-0-0-0-0-0-0-0-0-0-0-0-0-0-----------|
B|-3-3-3-1-1-1-1-1-1-1-1-1-1-1-1-1-1---0-0-0-0-0-0-0-0-0-0-0-0-0-0-----------|
G|-4-4-4-2-2-2-2-2-2-2-2-2-2-2-2-2-2---0-0-0-0-0-0-0-0-0-0-0-0-0-0-----------|
D|---------------------------------------------------------------------------|
A|---------------------------------------------------------------------------|
E|---------------------------------------------------------------------------|

Again repeat it a couple of times. Then, the drums stop and the guitar is
something like this:

e|---------------------------------------------------------------------------|
B|---------------------------------------------------------------------------|
G|---------------------------------------------------------------------------|
D|---------------------------------------------------------------------------|
A|-5------4------4------4------7------5------5------5------5------4------4---|
E|----5h7----5h7----5h7----5h7----5h7----5h7----5h7----5h7----5h7----5h7-----|

e|---------------|
B|---------------|
G|---------------|
D|---------------|
A|-----4------7--|
E|-5h7----5h7----|

e|-5---5~------5---7~--|
B|-7---5~------7---7~--|
G|-6---6~------6---7~--|
D|-7---7~------7---5~--|
A|-5---7~------5-------|
E|-----5~--------------|

Repeat this one until the end. I think the synth follows the vocal lines:
e|---------------------------------------------------------------------------|
B|-7---8-7--5~----5---3-2--3~--\0~-------------------------------------------|
G|---------------------------------------------------------------------------|
D|---------------------------------------------------------------------------|
A|---------------------------------------------------------------------------|
E|---------------------------------------------------------------------------|

Also, the end riff.
e|------------------------------------|
B|------------------------------------|
G|------------------------------------|
D|------------------------------------|
A|---4-5-4---4---------4-5-4----------|
E|-7-------7---5~----7-------7-5-3~---|
comments
print report bad tab
1 comment total.
0 reply
Xnimez wrote on January 14 2013, 10:38 am

Hey, thanks for transcribing it to standard tuning. I was too lazy for that :P

I want to post or [tab]
guest
You may want to rate the tab now too:
select rating
Please do not post tabs as comments. Select "correction" instead!