Oops, an error
Loading. Please wait.

Tame Impala Ep Tab

3,238 views 18 this week
1 commentread comment
1 2 3 4 5
excellent!
x 7
add to favorites launch autoscroll
font size
0
reset
Autoscroll
+/-
esc
set tempo
stop
Contributor
Difficulty
intermediate
WARNING: You are trying to view
                                    content from Ultimate-Guitar.com
                                    in an unauthorized application,
                                    which is prohibited.

                                    Please use an official Ultimate
                                    Guitar Tabs application for iPhone,
                                    iPad or Android to access legitimate
                                    chords, guitar, bass, and drum tabs
                                    from Ultimate-Guitar.com database.

                                    Type "ultimate guitar tabs" in Apple
                                    App Store's or Android Market's
                                    search to find the application.
                          Tame Impala EP by Tame Impala
                    Released in 2008, written by Kevin Parker

This is where it all began; the first official release by my favourite band
of all-time. All of these tabs are my own work, and have been thoroughly checked
for accuracy and completeness. Every single sound on the EP made by the guitars
is here. I made sure to include everything you hear on the album in this tab,
including all the solos and psychedelic jams.

I hope you enjoy playing the songs and be sure to support Tame Impala in any
way possible. They more than deserve it!

Tracklist:
01. Desire Be, Desire Go
02. Skeleton Tiger
03. Half Full Glass of Wine
04. Forty One Mosquitoes Flying in Formation
05. Slide Through My Fingers
06. Wander

To quickly find a song you are looking for, just press 'Ctrl F' and type the name of
the song. Now without further ado...


--------------------------------------------------------------------------------------
                                       Track 01
                                 Desire Be, Desire Go
--------------------------------------------------------------------------------------

Fuzzy intro part:
Guitar 1:
e|-----------------------------------------|
B|-----------------------------------------|
G|---3b5r3-----5~~~~---6~~~~~~~~-6~~~~~~~~-|
D|----------3--3~~~~---4~~~~~~~~-----------|
A|-3--------3--------3---------------------|
E|-----------------------------------------|


Verse:
"Feel it come, I-I don't know
How long it's, go-o-onna
Stay with me, whoa-oa, I let
Desire be, de-esire go"
e|-6--8--6--6/8-6/8-6--4--|
B|-6--8--8--6/8-6/8-8--6--|
G|-6--8--8--6/8-6/8-8--5--| x6
D|-4--6--8--4/6-4/6-8--6--|
A|-------6----------6--4--|
E|------------------------|


Pre-chorus:
"Dare I face the real world"
e|-6--8--6--6/8-6/8-6--4--6--|
B|-6--8--8--6/8-6/8-8--6--6--|
G|-6--8--8--6/8-6/8-8--5--7--|
D|-4--6--8--4/6-4/6-8--6--8--|
A|-------6----------6--4--8--|
E|------------------------6--|

On the word "world" another
guitar does this bend:
e|------------|
B|-5b6--------|
G|------------|
D|------------|
A|------------|
E|------------|


Chorus:
"Everyday, back and forth, what's it for?
What's it for? Back and forth, everyday,
Everyday, back and forth, what's it for?
I don't know, I'll get out won't have to..."
e|------------------|
B|------------------|
G|------------------| x4
D|-5---7---8---10---|
A|-5---7---8---10---|
E|-3---5---6----8---|


"...che..."
e|------|
B|------|
G|------|
D|-6----|
A|-6----|
E|-4----|


Verse:
"...eck my watch, I-I don't have
The verve to be-elong to
This dead side, whoa-oa, why I
Ever tried, I-I don't know"
e|-6--8--6--6/8-6/8-6--4--|
B|-6--8--8--6/8-6/8-8--6--|
G|-6--8--8--6/8-6/8-8--5--| x6
D|-4--6--8--4/6-4/6-8--6--|
A|-------6----------6--4--|
E|------------------------|


Pre-chorus:
"Dare I face the real world"
e|-6--8--6--6/8-6/8-6--4--6--|
B|-6--8--8--6/8-6/8-8--6--6--|
G|-6--8--8--6/8-6/8-8--5--7--|
D|-4--6--8--4/6-4/6-8--6--8--|
A|-------6----------6--4--8--|
E|------------------------6--|

Halfway through the word "world" another
guitar does this slide:
e|------------|
B|-/6---------|
G|------------|
D|------------|
A|------------|
E|------------|


Chorus:
"Everyday, back and forth, what's it for?
What's it for? Back and forth, everyday,
Everyday, back and forth, what's it for?
I don't know, I forget, want to let..."
e|------------------|
B|------------------|
G|------------------| x4
D|-5---7---8---10---|
A|-5---7---8---10---|
E|-3---5---6----8---|


"...de-e..."
e|------|
B|------|
G|------|
D|-6----|
A|-6----|
E|-4----|


"...esire be, de-esire go"
e|-6--8--6--6/8-6/8-6--4--|
B|-6--8--8--6/8-6/8-8--6--|
G|-6--8--8--6/8-6/8-8--5--|
D|-4--6--8--4/6-4/6-8--6--|
A|-------6----------6--4--|
E|------------------------|


Pre-solo riff:
e|----------------------------------------------------------|
B|----------------------------------------------------------|
G|----------------------------------------------------8-----|
D|----------------------------------------------------8-----|
A|-6/8-8--8-8--6/8-8--8-8--9\8-8-9\8-8-8\6-6/8-8--8-8-8-----|
E|----------------------------------------------------------|


Guitar solo:
e|--------------------------------------------------------------------|
B|--------------------------------------------------------------------|
G|-1/3~~~~~~~~-1h3-1h3-1h3-1h3-1h3-1h3-1h3-1h3-1h3-1h3-1h3-1h3--1-h3--|
D|--------------------------------------------------------------------|
A|--------------------------------------------------------------------|
E|--------------------------------------------------------------------|

e|---------------------------------------------------------|
B|---------------------------------------------------------|
G|-\1------------------------------------------------------|
D|----4------6/8---6--4--1/3~~~~~~~~~~~~~~~~~~~~~~~~~~~~~~~|
A|---------------------------------------------------------|
E|---------------------------------------------------------|

e|-------------------------------------------------------------|
B|-------------------------------------------------------------|
G|-------------------------------------------------------------|
D|-------------------------------------------------------------|
A|-8--6-5-5-6--8--6-5-6/8-6--9---8--6-5-5-6--8--6-5-6/8-6--9---|
E|-------------------------------------------------------------|

e|--------------------------------------------------------------|
B|--------------------------------------------------------------|
G|---------------6------5-/6\5/6\5/6---6--\5--\3--6\5-6\5-3--1--|
D|-6/8----6/8---------------------------------------------------|
A|--------------------------------------------------------------|
E|--------------------------------------------------------------|


Verse chords again:
e|-6--8--6--6/8-6/8-6--4--|
B|-6--8--8--6/8-6/8-8--6--|
G|-6--8--8--6/8-6/8-8--5--| x4
D|-4--6--8--4/6-4/6-8--6--|
A|-------6----------6--4--|
E|------------------------|


Bridge:
"Feel,
Feel it come,
Feel it come,
Ohh..."
e|-------------------------------------------------|
B|-------------------------------------------------|
G|-------------------------------------------------| x4 (slightly palm muted)
D|-------------------------------------------------|
A|-9--9h11-9h11-9-----9h11-11-9-11p9----------9h11-|
E|----------------11-----------------11--9h11------|


Verse:
"Feel it come, I-I don't know
How long it's, go-o-onna
Stay with me, whoa-oa, I don't know
How long, I-I..."
e|-6--8--6--6/8-6/8-6--4--|
B|-6--8--8--6/8-6/8-8--6--|
G|-6--8--8--6/8-6/8-8--5--| x4
D|-4--6--8--4/6-4/6-8--6--|
A|-------6----------6--4--|
E|------------------------|

Fade out.


************************************

| /   slide up
| \   slide down
| h   hammer-on
| p   pull-off
| ~   vibrato
| +   harmonic
| x   Mute note
| b   Bend
| pb  Pre-bend
| br  Bend release
| pbr Pre-bend release
| brb Bend release bend

************************************

--------------------------------------------------------------------------------------
                                       Track 02
                                    Skeleton Tiger
--------------------------------------------------------------------------------------

Intro:
Guitar 1:
e|-7-7-7--5-5-5--5-5-5--10-10-10--|
B|-9-9-9--7-7-7--5-5-5--12-12-12--|
G|-9-9-9--7-7-7--6-6-6--12-12-12--| x4
D|-9-9-9--7-7-7--7-7-7--12-12-12--|
A|-7-7-7--5-5-5--7-7-7--10-10-10--|
E|---------------5-5-5------------|


Guitar 1 then plays the last chord of the progression in the lower octave:
e|-7-7-7--5-5-5--5-5-5--3-3-3--|
B|-9-9-9--7-7-7--5-5-5--3-3-3--|
G|-9-9-9--7-7-7--6-6-6--4-4-4--| x2
D|-9-9-9--7-7-7--7-7-7--5-5-5--|
A|-7-7-7--5-5-5--7-7-7--5-5-5--|
E|---------------5-5-5--3-3-3--|


Synth guitar comes in:
Guitar 1:
e|-7-7-7--5-5-5--5-5-5--3-3-3--|
B|-9-9-9--7-7-7--5-5-5--3-3-3--|
G|-9-9-9--7-7-7--6-6-6--4-4-4--| x2
D|-9-9-9--7-7-7--7-7-7--5-5-5--|
A|-7-7-7--5-5-5--7-7-7--5-5-5--|
E|---------------5-5-5--3-3-3--|

Synth guitar:
e|---------------------|
B|-7b9r7--5------------|
G|-----------6b8r6--4--| x2
D|---------------------|
A|---------------------|
E|---------------------|


Verse:
Guitar 1:
e|-5-5-5-5-5-5-5-5-5-5--7.-7.-7.--|
B|-6-6-6-6-6-6-6-6-6-6--8.-8.-8.--|
G|-7-7-7-7-7-7-7-7-7-7--9.-9.-9.--| x2
D|-7-7-7-7-7-7-7-7-7-7--9.-9.-9.--|
A|-5-5-5-5-5-5-5-5-5-5--7.-7.-7.--|
E|--------------------------------|

Guitar 2 plays this small fill:
e|-5h7-/9-/10--|
B|-------------|
G|-------------|
D|-------------|
A|-------------|
E|-------------|


"Now that all these walls are down,
Wonder what I'll tell you"
Guitar 1:
e|-5-5-5-5-5-5-5-5-5-5--7.-7.-7.--|
B|-6-6-6-6-6-6-6-6-6-6--8.-8.-8.--|
G|-7-7-7-7-7-7-7-7-7-7--9.-9.-9.--| x2
D|-7-7-7-7-7-7-7-7-7-7--9.-9.-9.--|
A|-5-5-5-5-5-5-5-5-5-5--7.-7.-7.--|
E|--------------------------------|


Chorus:
"You can do what you want as long,
As the cotton is high and strong,
We should be like this all the time,
For the earth one day will die"
Guitar 1 plays the last chord of the progression in the higher octave:
e|-7-7-7--5-5-5--5-5-5--10-10-10--|
B|-9-9-9--7-7-7--5-5-5--12-12-12--|
G|-9-9-9--7-7-7--6-6-6--12-12-12--| x4
D|-9-9-9--7-7-7--7-7-7--12-12-12--|
A|-7-7-7--5-5-5--7-7-7--10-10-10--|
E|---------------5-5-5------------|

Guitar 2 plays the last chord of the progression in the lower octave:
e|-7-7-7--5-5-5--5-5-5--3-3-3--|
B|-9-9-9--7-7-7--5-5-5--3-3-3--|
G|-9-9-9--7-7-7--6-6-6--4-4-4--| x4
D|-9-9-9--7-7-7--7-7-7--5-5-5--|
A|-7-7-7--5-5-5--7-7-7--5-5-5--|
E|---------------5-5-5--3-3-3--|


Verse:
Guitar 1:
e|-5-5-5-5-5-5-5-5-5-5--7.-7.-7.--|
B|-6-6-6-6-6-6-6-6-6-6--8.-8.-8.--|
G|-7-7-7-7-7-7-7-7-7-7--9.-9.-9.--| x2
D|-7-7-7-7-7-7-7-7-7-7--9.-9.-9.--|
A|-5-5-5-5-5-5-5-5-5-5--7.-7.-7.--|
E|--------------------------------|

Guitar 2 plays this small fill:
e|-5h7-/9-/10--|
B|-------------|
G|-------------|
D|-------------|
A|-------------|
E|-------------|


"Count the number of beings you are,
See how long it takes you"
Guitar 1:
e|-5-5-5-5-5-5-5-5-5-5--7.-7.-7.--|
B|-6-6-6-6-6-6-6-6-6-6--8.-8.-8.--|
G|-7-7-7-7-7-7-7-7-7-7--9.-9.-9.--| x2
D|-7-7-7-7-7-7-7-7-7-7--9.-9.-9.--|
A|-5-5-5-5-5-5-5-5-5-5--7.-7.-7.--|
E|--------------------------------|


Chorus:
"You can do what you want as long,
As the cotton is high and strong,
We should be like this all the time,
For the earth one day will die"
Guitar 1:
e|-7-7-7--5-5-5--5-5-5--3-3-3--|
B|-9-9-9--7-7-7--5-5-5--3-3-3--|
G|-9-9-9--7-7-7--6-6-6--4-4-4--| x4
D|-9-9-9--7-7-7--7-7-7--5-5-5--|
A|-7-7-7--5-5-5--7-7-7--5-5-5--|
E|---------------5-5-5--3-3-3--|

Guitar 2:
e|-7-7-7--5-5-5--5-5-5--10-10-10--|
B|-9-9-9--7-7-7--5-5-5--12-12-12--|
G|-9-9-9--7-7-7--6-6-6--12-12-12--| x4
D|-9-9-9--7-7-7--7-7-7--12-12-12--|
A|-7-7-7--5-5-5--7-7-7--10-10-10--|
E|---------------5-5-5------------|


Instrumental:
Guitar 1:
e|-7-7-7--5-5-5--5-5-5--10-10-10--|
B|-9-9-9--7-7-7--5-5-5--12-12-12--|
G|-9-9-9--7-7-7--6-6-6--12-12-12--| x4
D|-9-9-9--7-7-7--7-7-7--12-12-12--|
A|-7-7-7--5-5-5--7-7-7--10-10-10--|
E|---------------5-5-5------------|

Synth guitar:
e|---------------------------------------------------------------------------------------|
B|-7b9r7--5--------------7b9r7--5--------------7b9r7--5--------------7b9r7--5------------|
G|-----------6b8r6--4--------------6b8r6--4--------------6b8r6--4--------------6b8r6--2--|
D|---------------------------------------------------------------------------------------|
A|---------------------------------------------------------------------------------------|
E|---------------------------------------------------------------------------------------|


Solo section:
It's a bit hard to tab out both guitars together and time them out perfectly, but I've
tried to roughly show when each guitar plays what part, in relation to each other.

Guitar 1:
e|-7-7-7--5-5-5--5-5-5--3-3-3--|
B|-9-9-9--7-7-7--5-5-5--3-3-3--|
G|-9-9-9--7-7-7--6-6-6--4-4-4--|
D|-9-9-9--7-7-7--7-7-7--5-5-5--|
A|-7-7-7--5-5-5--7-7-7--5-5-5--|
E|---------------5-5-5--3-3-3--|

Synth guitar:
e|-------------------------|
B|-7b9r7---5----------3-5--|
G|-------------2--4-6------|
D|-------------------------|
A|-------------------------|
E|-------------------------|


Guitar 1:
e|-----------------------------------|
B|-----------------------------------|
G|-----------------------------------| x4
D|-2---------------------------------|
A|-2---------------------------------|
E|-0--0-0-0-0-0-0-0-0-0-0-0-0-0-0-0--|

Synth guitar:
e|-------------------------------------------------|
B|-7b9r7--5---------3-------------------------3----|
G|-----------6b6.5-------2----4--1-b2----2---------|
D|-------------------------------------------------|
A|-------------------------------------------------|
E|-------------------------------------------------|


Guitar 1:
e|-------------------------|
B|-------------------------|
G|-9--9--9--9--9--9--9--9--|
D|-9--9--9--9--9--9--9--9--|
A|-7--7--7--7--7--7--7--7--|
E|-------------------------|

Synth guitar:
e|-------------------------|
B|-------------------------|
G|-------------------------|
D|-3-----------------------|
A|-------------------------|
E|-------------------------|


Guitar 1:
e|-------------------------|
B|-------------------------|
G|-7--7--7--7--7--7--7--7--|
D|-7--7--7--7--7--7--7--7--|
A|-5--5--5--5--5--5--5--5--|
E|-------------------------|

Synth guitar:
e|-------------------------|
B|-------------------------|
G|-4-/2-2------------------|
D|-------------------------|
A|-------------------------|
E|-------------------------|


Guitar 1:
e|-----------------------------------------|
B|-----------------------------------------|
G|-----------------------------------------|
D|-----------------------------------------|
A|-----------------------------------------|
E|-0~~~~~~~~~~~~~~~~~~~~~~~~~~~~~~~~~~~~~~~|

Synth guitar:
e|-----------------------------------------|
B|-----------------------------------------|
G|------------------4-/7-/9----------------|
D|-----------------------------------------|
A|-----------------------------------------|
E|-----------------------------------------|


Guitar 1:
e|-----------------------------------------------------------|
B|-----------------------------5-----------------------------|
G|-----------------------------7b9---------------------------|
D|-----5~~~~~~~~~~-------------------------------------------|
A|-/7--------------------------------------------------------|
E|----------------3--------------------3------------0--------|

Synth guitar:
e|------------------------5---------------------------------------------------|
B|------------------5-6-8-----12\--6-5----6\5-3-3/5---1-/3--0-h1/3------------|
G|----------------7-----------------------------------------------------------|
D|----------------------------------------------------------------------------|
A|----------------------------------------------------------------------------|
E|----------------------------------------------------------------------------|


Guitar 1:
e|-----------------------------------|
B|-------------------------------7---|
G|---------7p5h7p5-7p5-7---------7---|
D|---------------------------0---0---|
A|-----------------------------------|
E|-----------------------------------|

Synth guitar:
e|--------------------------------------11\---|
B|--------------------------------------------|
G|-6pb7-r6---------------7--/10---------------|
D|--------------------------------------------|
A|--------------------------------------------|
E|--------------------------------------------|


Guitar 1:
e|--------------------------------------------5--------|
B|-------------------------------------------7---------|
G|----7-7------------7-7--------------------7----------|
D|----7-7------------7-7-------------------7-----------|
A|-5------5-5-5-5-5------5-5-5-5-5--------5------------|
E|-----------------------------------------------------|

Synth guitar:
e|-----------------------------------|
B|-7-----------------0---------------|
G|-------------------2b4-------------|
D|-----------------------------------|
A|-----------------------------------|
E|-----------------------------------|


Guitar 1:
e|----------------------5-----------------------------------|
B|----------------------7---------------7-------------------|
G|----------------------7---------------7-------------------|
D|----------------------7---------------7-------------------|
A|----------------------5------5----------------------------|
E|----------------------------------------------------------|

Synth guitar:
e|----------------------------------------------------------|
B|--------------------------3----------------------------3--|
G|-2-4-2-4-2-4--2-4-2-4-2-4-----2-4-2-4-2-4--2-4-2-4-2-4----|
D|----------------------------------------------------------|
A|----------------------------------------------------------|
E|----------------------------------------------------------|


Guitar 1:
e|------0--------------0----------------------|
B|-----0---------------0----------------------|
G|----1----------------1------------1b2-------|
D|---2-----------------2----------------------|
A|--2------------------2----------------------|
E|-0-------------------0-----------------0----|

Synth guitar:
e|--------------------------------------------|
B|--------------------------------------------|
G|-2h4-2h4-2h4-2h4-2h4-2h4-2-1----------------|
D|-----------------------------2--3b4---------|
A|--------------------------------------------|
E|--------------------------------------------|


Guitar 1:
e|-----------0-----------------------------------------------------------|
B|----------0------------------------------------------------------------|
G|---------1-------------------------------------------------------------|
D|--------2--------------------------------------------------------------|
A|----------------------------7-------------------------5----------------|
E|-----------------------------------------------------------------------|

Synth guitar:
e|---------------------8-------------------------------------------------|
B|-----------------------8----8-----8---8---8---8---8--------------------|
G|-2------------------------------10--10--10--10--10------6-7-6-7-6-7-6--|
D|-----------------------------------------------------------------------|
A|-----------------------------------------------------------------------|
E|-----------------------------------------------------------------------|


Guitar 1:
e|---------------------------------------------------------------------------------|
B|---------------------------------------------------------------------------------|
G|-7p5-7p5-7p5-7p5-7p5-7p5-7p5-7p5---7p5-7p5-7p5-7p5-7p5-7p5-7p5---7p5-7-b9---0----|
D|----------------------------------------------------------------------------0----|
A|---------------------------------5-----------------------------5-----------------|
E|---------------------------------------------------------------------------------|

Synth guitar:
e|---------------------------------------------------------------------------------|
B|---------------------------------------------------------------------------------|
G|-7p5-7p5-7p5-7p5-7p5-7p5-7p5-7p5-------------------------------------------------|
D|---------------------------------------------------------------------------------|
A|---------------------------------------------------------------------------------|
E|---------------------------------------------------------------------------------|


Guitar 1:
e|---------------------|
B|---------------------|
G|-7---7--7--/19-------|
D|---------------------|
A|------------------17-|
E|---------------------|

Synth guitar:
e|---------------------|
B|-7b9r7--5------------|
G|-----------6b8r6--4--|
D|---------------------|
A|---------------------|
E|---------------------|


Chorus:
Guitar 1:
e|-7-7-7--5-5-5--5-5-5--10-10-10--|
B|-9-9-9--7-7-7--5-5-5--12-12-12--|
G|-9-9-9--7-7-7--6-6-6--12-12-12--| x4
D|-9-9-9--7-7-7--7-7-7--12-12-12--|
A|-7-7-7--5-5-5--7-7-7--10-10-10--|
E|---------------5-5-5------------|

Synth guitar - slight variation on the riff:
e|---------------------------------------------|
B|-7b9r7--5--------------7b9r7--5--------------|
G|-----------6b8r6--4--------------6b8r6--4-2--| x2
D|---------------------------------------------|
A|---------------------------------------------|
E|---------------------------------------------|


"You can do what you want as long,
As the cotton is high and strong"
Guitar 1:
e|-7-7-7--5-5-5--5-5-5--3-3-3--7-7-7--5-5-5--5-5-5--10-10-10--|
B|-9-9-9--7-7-7--5-5-5--3-3-3--9-9-9--7-7-7--5-5-5--12-12-12--|
G|-9-9-9--7-7-7--6-6-6--4-4-4--9-9-9--7-7-7--6-6-6--12-12-12--|
D|-9-9-9--7-7-7--7-7-7--5-5-5--9-9-9--7-7-7--7-7-7--12-12-12--|
A|-7-7-7--5-5-5--7-7-7--5-5-5--7-7-7--5-5-5--7-7-7--10-10-10--|
E|---------------5-5-5--3-3-3----------------5-5-5------------|

Synth guitar moves up and octave and then back:
e|-14b16r14--12----------------------------------------|
B|---------------14b16r14--12----7b9r7--5--------------|
G|-----------------------------------------6b8r6--4-2--|
D|-----------------------------------------------------|
A|-----------------------------------------------------|
E|-----------------------------------------------------|


"We should be like this all the time,
For the earth one day will die"
Guitar 1:
e|-7-7-7--5-5-5--5-5-5--3-3-0--0-0-0--5-5-5--5-5-5--10-10-10--|
B|-9-9-9--7-7-7--5-5-5--3-3-0--0-0-0--7-7-7--5-5-5--12-12-12--|
G|-9-9-9--7-7-7--6-6-6--4-4-1--1-1-1--7-7-7--6-6-6--12-12-12--|
D|-9-9-9--7-7-7--7-7-7--5-5-2--2-2-2--7-7-7--7-7-7--12-12-12--|
A|-7-7-7--5-5-5--7-7-7--5-5-2--2-2-2--5-5-5--7-7-7--10-10-10--|
E|---------------5-5-5--3-3-0--0-0-0---------5-5-5------------|

Synth guitar:
e|----------------------------------------|
B|-7b9r7--5--------------7b9r7--5---------|
G|-----------6b8r6--4--------------6b8----|
D|----------------------------------------|
A|----------------------------------------|
E|----------------------------------------|


Guitar 1:
e|-7-7-7--5-5-5--5-5-5--10-10-10--|
B|-9-9-9--7-7-7--5-5-5--12-12-12--|
G|-9-9-9--7-7-7--6-6-6--12-12-12--|
D|-9-9-9--7-7-7--7-7-7--12-12-12--|
A|-7-7-7--5-5-5--7-7-7--10-10-10--|
E|---------------5-5-5------------|

Synth guitar:
e|--------------------------------|
B|--------------------------------|
G|-2------------------------------|
D|--------------------------------|
A|--------------------------------|
E|--------------------------------|


Outro:
Synth guitar:
e|-------8b10---------------------|
B|---5-6--------------------------|
G|-7--------------2---------------|
D|----------------3---------------|
A|--------------------------------|
E|--------------------------------|


************************************

| /   slide up
| \   slide down
| h   hammer-on
| p   pull-off
| ~   vibrato
| +   harmonic
| x   Mute note
| .   staccato
| b   Bend
| pb  Pre-bend
| br  Bend release
| pbr Pre-bend release
| brb Bend release bend

************************************

--------------------------------------------------------------------------------------
                                       Track 03
                                Half Full Glass of Wine
--------------------------------------------------------------------------------------

Intro:
The bends in the main riffs are quarter step bends (where it says .5), which is
basically bending to halfway between the two notes. It's used a lot in blues playing
(listen to the main riff to Spoonful by Cream to get a good example). The bend is
only slight, so don't over-think it.

Guitar 1:
e|-----------------------------------------------|
B|-----------------------------------------------|
G|-----------------------------------------------|
D|-----6b6.5------6b6.5------6b6.5------6b6.5----|
A|-8-8-------8--8-------8--8-------8--8-------8--|
E|-----------------------------------------------|

Guitar 1:
e|---------------------------------------------|
B|---------------------------------------------|
G|---------------------------------------------|
D|---6b6.5------6b6.5------6b6.5------6b6.5----|
A|-8-------8--8-------8--8-------8--8-------8--|
E|---------------------------------------------|

Guitar 1:
e|---------------------------------------------|
B|---------------------------------------------|
G|---------------------------------------------|
D|---6b6.5------6b6.5------6b6.5------6b6.5----|
A|-8-------8--8-------8--8-------8--8-------8--|
E|---------------------------------------------|

Guitar 1 - the riff slows down at the last two repeats:
e|--------------------------------------------------|
B|--------------------------------------------------|
G|--------------------------------------------------|
D|---6b6.5------6b6.5-------6b6.5---------6b6.5-----|
A|-8-------8--8-------8--8---------8---8---------8--|
E|--------------------------------------------------|

Guitar 2 does this on the second bend in the riff above:
e|--------------------------------------------------|
B|--------------------------------------------------|
G|--------------10-b12------------------------------|
D|--------------------------------------------------|
A|--------------------------------------------------|
E|--------------------------------------------------|


Main riff:
e|-------------------------------------------------------------------------------------|
B|-------------------------------------------------------------------------------------|
G|----------------------------------------------------------------------------9--7--9--| x2
D|----------------------------------------------------------10---------------10--8-10--|
A|-----6b6.5------6b6.5------6b6.5------6b6.5------6b6.5-------10----6-8-10------------|
E|-8-8-------8--8-------8--8-------8--8-------8--8-------8--------8--------------------|


Verse:
"Said you wouldn't be home late tonight"
e|-------------------|
B|-------------------|
G|-------------------|
D|-------------------|
A|-------------------|
E|-8--8-8--8-8--8-8--|


Riff:
e|-------------------------------------------------|
B|-------------------------------------------------|
G|-------------------------------------------------|
D|-------------------------------------------------|
A|-------6b6.5------6b6.5------6b6.5------6b6.5----|
E|-6-8-8-------8--8-------8--8-------8--8-------8--|


Verse:
"I gave up waiting at seventeen past midnight"
e|-------------------|
B|-------------------|
G|-------------------|
D|-------------------|
A|-------------------|
E|-8--8-8--8-8--8-8--|


Alternate riff:
e|----------------------------------------|
B|----------------------------------------|
G|---------8b8.5----------------9--9\7-7--|
D|-8-10-10-------10-------------X--X\X-X--|
A|-------------------8--9--10--10-10\8-8--|
E|------------------------------8--8\6-6--|


Verse:
"Now my only company's a half full glass of wine"
e|--8---8--8---8--8---8--8----8--8--8---8--8---8---8--8--|
B|-10--10-10--10-10--10-10---10-10-10--10-10--10--10-10--|
G|-10--10-10--10-10--10-10---10-10-10--10-10--10--10-10--|
D|-10--10-10--10-10--10-10---10-10-10--10-10--10--10-10--|
A|--8---8--8---8--8---8--8----8--8--8---8--8---8---8--8--|
E|-------------------------------------------------------|


Riff:
e|-----------------------------------------------|
B|-----------------------------------------------|
G|-----------------------------------------------|
D|-----------------------------------------------|
A|-----6b6.5------6b6.5------6b6.5------6b6.5----|
E|-8-8-------8--8-------8--8-------8--8-------8--|


Verse:
"Leave me no choice but to plot my revenge,
You leave me no choice but to plot my revenge"
Guitar 1:
e|---------------------------------------------------------------------|
B|---------------------------------------------------------------------|
G|---------------------------------------------------------------------|
D|---------------------------------------------------------------------|
A|---------------------------------------------------------------------|
E|-8--8-8--8-8--8-8--8-8--8-8--8-8--8-8--8-8--8-8--8-8--8-8--8-8--8-8--|

Guitar 2 plays this little lick quietly in the background:
e|---------------------------------------------------------------------|
B|---------------------------------------------------------------------|
G|----------------------------8-10b12--12br10-8------------------------|
D|----------------------------------------------10~--------------------|
A|---------------------------------------------------------------------|
E|---------------------------------------------------------------------|


Then strum this chord:
e|--8---8--8---8--8---8--8\--|
B|-10--10-10--10-10--10-10\--|
G|-10--10-10--10-10--10-10\--|
D|-10--10-10--10-10--10-10\--|
A|--8---8--8---8--8---8--8\--|
E|---------------------------|


Main riff:
e|-------------------------------------------------------------------------------------|
B|-------------------------------------------------------------------------------------|
G|----------------------------------------------------------------------------9--7--9--| x2
D|----------------------------------------------------------10---------------10--8-10--|
A|-----6b6.5------6b6.5------6b6.5------6b6.5------6b6.5-------10----6-8-10------------|
E|-8-8-------8--8-------8--8-------8--8-------8--8-------8--------8--------------------|


Chorus:
"It's been so long since I held your hand,
You don't know how hard it can be"
e|--------------8--------------6--|
B|-------------10--------------6--|
G|-------------10--------------7--| x3
D|---------5---10----------5---8--|
A|-----5--------8------5-------8--|
E|-3-3---3---3-----3-3---3---3-6--|

And then you play:
e|--------------8--3-3--3-3--3-3--3-3--|
B|-------------10--3-3--3-3--3-3--3-3--|
G|-------------10--4-4--4-4--4-4--4-4--|
D|---------5---10--5-5--5-5--5-5--5-5--|
A|-----5--------8--5-5--5-5--5-5--5-5--|
E|-3-3---3---3-----3-3--3-3--3-3--3-3--|


Main riff:
e|-------------------------------------------------------------------------------------|
B|-------------------------------------------------------------------------------------|
G|----------------------------------------------------------------------------9--7--9--| x2
D|----------------------------------------------------------10---------------10--8-10--|
A|-----6b6.5------6b6.5------6b6.5------6b6.5------6b6.5-------10----6-8-10------------|
E|-8-8-------8--8-------8--8-------8--8-------8--8-------8--------8--------------------|


Verse:
"Thank god I've been blessed with a patient mind"
e|-------------------|
B|-------------------|
G|-------------------|
D|-------------------|
A|-------------------|
E|-8--8-8--8-8--8-8--|


Riff:
e|-------------------------------------------------|
B|-------------------------------------------------|
G|-------------------------------------------------|
D|-------------------------------------------------|
A|-------6b6.5------6b6.5------6b6.5------6b6.5----|
E|-6-8-8-------8--8-------8--8-------8--8-------8--|


Verse:
"'Cause what I wanna happen won't happen in a very long time"
Guitar 1:
e|-------------------|
B|-------------------|
G|-------------------|
D|-------------------|
A|-------------------|
E|-8--8-8--8-8--8-8--|

Guitar 2 plays this lick:
e|------------------------------------------|
B|------------------------------------------|
G|------------------8-10-10b12-10b12-10b12--|
D|-------------8h10-------------------------|
A|------------------------------------------|
E|------------------------------------------|


Alternate riff:
e|----------------------------------------|
B|----------------------------------------|
G|---------8b8.5----------------9--9\7-7--|
D|-8-10-10-------10-------------X--X\X-X--|
A|-------------------8--9--10--10-10\8-8--|
E|------------------------------8--8\6-6--|


Verse:
"Now my only company's a half full glass of wine"
e|--8---8--8---8--8---8--8----8--8--8---8--8---8---8--8--|
B|-10--10-10--10-10--10-10---10-10-10--10-10--10--10-10--|
G|-10--10-10--10-10--10-10---10-10-10--10-10--10--10-10--|
D|-10--10-10--10-10--10-10---10-10-10--10-10--10--10-10--|
A|--8---8--8---8--8---8--8----8--8--8---8--8---8---8--8--|
E|-------------------------------------------------------|


Riff:
e|-----------------------------------------------|
B|-----------------------------------------------|
G|-----------------------------------------------|
D|-----------------------------------------------|
A|-----6b6.5------6b6.5------6b6.5------6b6.5----|
E|-8-8-------8--8-------8--8-------8--8-------8--|


Quiet instrumental breakdown:
"Leave me no choice but to plot my revenge"
Guitar 1:
e|---------------------------------------------------------------------|
B|---------------------------------------------------------------------|
G|---------------------------------------------------------------------|
D|---------------------------------------------------------------------|
A|---------------------------------------------------------------------|
E|-8--8-8--8-8--8-8--8-8--8-8--8-8--8-8--8-8--8-8--8-8--8-8--8-8--8-8--|

Guitar 2 plays this little lick:
e|---------------------------------------------------------------------|
B|---------------------------------------------------------------------|
G|----------------------------8-10-10b12--8~---------------------------|
D|-----------------------8h10------------------------------------------|
A|---------------------------------------------------------------------|
E|---------------------------------------------------------------------|


"Leave me no choice but to plot my revenge,
(whispered) You leave me no choice but to plot my revenge"
Guitar 1:
e|---------------------------------------------------------------------------------|
B|---------------------------------------------------------------------------------|
G|---------------------------------------------------------------------------------|
D|---------------------------------------------------------------------------------|
A|---------------------------------------------------------------------------------|
E|-8-8--8-8--8-8--8-8--8-8--8-8--8-8--8-8--8-8--8-8--8-8--8-8--8-8--8-8--8-8--8-8--|

Guitar 2 plays these licks:
e|---------------------------------------------------------------------------------|
B|---------------------------------------------------------------------------------|
G|-3h5p3h5p3h5p3h5p3h5-p3-------------10b12----8~----------------------------------|
D|---------------------------------------------------------------------------------|
A|---------------------------------------------------------------------------------|
E|---------------------------------------------------------------------------------|


Then strum this chord:
e|--8--8---8--8---8--8---8--8---8--8---8--8---8--8---8--8--|
B|-10-10--10-10--10-10--10-10--10-10--10-10--10-10--10-10--|
G|-10-10--10-10--10-10--10-10--10-10--10-10--10-10--10-10--|
D|-10-10--10-10--10-10--10-10--10-10--10-10--10-10--10-10--|
A|--8--8---8--8---8--8---8--8---8--8---8--8---8--8---8--8--|
E|---------------------------------------------------------|


Main riff:
e|-------------------------------------------------------------------------------------|
B|-------------------------------------------------------------------------------------|
G|----------------------------------------------------------------------------9--7--9--| x2
D|----------------------------------------------------------10---------------10--8-10--|
A|-----6b6.5------6b6.5------6b6.5------6b6.5------6b6.5-------10----6-8-10------------|
E|-8-8-------8--8-------8--8-------8--8-------8--8-------8--------8--------------------|


Chorus:
"It's been so long since I held your hand,
You don't know how hard it can be"
e|--------------8--------------6--|
B|-------------10--------------6--|
G|-------------10--------------7--| x3
D|---------5---10----------5---8--|
A|-----5--------8------5-------8--|
E|-3-3---3---3-----3-3---3---3-6--|

And then you play:
e|--------------8--|
B|-------------10--|
G|-------------10--|
D|---------5---10--|
A|-----5--------8--|
E|-3-3---3---3-----|


Instrumental outro:
e|-3-3--3-3--3-3--3-3---3-3-3--3-3--3--3-3--|
B|-3-3--3-3--3-3--3-3---3-3-3--3-3--3--3-3--|
G|-4-4--4-4--4-4--4-4---4-4-4--4-4--4--4-4--| x2
D|-5-5--5-5--5-5--5-5---5-5-5--5-5--5--5-5--|
A|-5-5--5-5--5-5--5-5---5-5-5--5-5--5--5-5--|
E|-3-3--3-3--3-3--3-3---3-3-3--3-3--3--3-3--|


e|--8--8---8--8---8--8---8--8--6-6--6-6--6-6--6-6--|
B|--8--8---8--8---8--8---8--8--8-8--8-8--6-6--6-6--|
G|--9--9---9--9---9--9---9--9--8-8--8-8--7-7--7-7--|
D|-10-10--10-10--10-10--10-10--8-8--8-8--8-8--8-8--|
A|-10-10--10-10--10-10--10-10--6-6--6-6--8-8--8-8--|
E|--8--8---8--8---8--8---8--8------------6-6--6-6--|

e|--8--8---8--8---8--8--3--6--6-6--6-6--6-6--6-6--|
B|--8--8---8--8---8--8--3--6--8-8--8-8--6-6--6-6--|
G|--9--9---9--9---9--9--4--7--8-8--8-8--7-7--7-7--| x3
D|-10-10--10-10--10-10--5--8--8-8--8-8--8-8--8-8--|
A|-10-10--10-10--10-10--5--8--6-6--6-6--8-8--8-8--|
E|--8--8---8--8---8--8--3--6------------6-6--6-6--|


Guitar solo - there are a couple of very small variations which I will tab:
e|------------------------------------------|
B|------------------------------------------|
G|-10b12-10b12-10b12-10b12r10--8------------|
D|-------------------------------10-8-10-8--|
A|------------------------------------------|
E|------------------------------------------|

e|---------------------------------------------|
B|---------------------------------------------|
G|-10b12-10b12-10b12-10b12r10--8---------------| x3
D|-------------------------------10-8----8-10--|
A|------------------------------------10-------|
E|---------------------------------------------|

e|-------------------------------------------|
B|-------------------------------------------|
G|-10b12-10b12-10b12-10b12r10--8-------------|
D|-------------------------------10-8-10-10--|
A|-------------------------------------------|
E|-------------------------------------------|

And then drum solo!


************************************

| /   slide up
| \   slide down
| h   hammer-on
| p   pull-off
| ~   vibrato
| +   harmonic
| x   Mute note
| .   staccato
| b   Bend
| pb  Pre-bend
| br  Bend release
| pbr Pre-bend release
| brb Bend release bend

************************************

--------------------------------------------------------------------------------------
                                       Track 04
                       Forty One Mosquitoes Flying in Formation
--------------------------------------------------------------------------------------

Intro:
"Lazy bones and no concern sees forty one mosquitoes flying in formation,
I'm alright, but my pet cockroach died of starvation"
e|---2-----2-----2---2-----2-----2---3-------1-------3-------5-----|
B|-----3-----3---------1-----1---------3-------1-------3-------4---|
G|-2-----2-----2---2-----2-----2---4-----4-2-----2-3-----3-5-----5-| x2
D|-----------------------------------------------------------------|
A|-----------------------------------------------------------------|
E|-----------------------------------------------------------------|


Verse:
"Sleep 'til late, I won't mind if we do nothing today,
Come and stay, bring your friends, who needs floor space anyway?
So do you not want me to come over?
So do you not want me to come over?"
e|-------------------------------------------------------------|
B|-------------------------------------------------------------|
G|----------------------------------------------------------8--| x4
D|----------------------------------------------------8--------|
A|-5--5--3-5-3--5--5--3-5-3----------5---------3--6-6---6-8----|
E|---------------------------3-3-5/7---1-1-3/5-----------------|


Then you hit this note:
e|----------|
B|----------|
G|----------|
D|----------|
A|-5--------|
E|----------|


Pre-chorus:
"Not much we know, so off we go"
e|------------------------------------------------|
B|-8--8---8-8---8---8-8--8-8-8-8-8-8-8-8-8-8-8-8--|
G|-7----7---7-7---7---7--7---7---7---7---7---7----|
D|-8--------8---------8--8---8---8---8---8---8----|
A|------------------------------------------------|
E|------------------------------------------------|


Chorus:
"Ah-ah, ah-ah"
e|-------------------|
B|-------------------|
G|-------------------| x4
D|-------------------|
A|---------8/10------|
E|-8\6--6--------10--|


And then with power chords:
"Ah-ah, ah-ah"
e|---------------------|
B|---------------------|
G|----------10-12------| x8
D|-10-8--8--10-12--12--|
A|-10-8--8---8-10--12--|
E|--8-6--6---------10--|


Fingerpicked part:
e|---2-----2-----2---2-----2-----2---3-------1-------3-------5-----|
B|-----3-----3---------1-----1---------3-------1-------3-------4---|
G|-2-----2-----2---2-----2-----2---4-----4-2-----2-3-----3-5-----5-|
D|-----------------------------------------------------------------|
A|-----------------------------------------------------------------|
E|-----------------------------------------------------------------|

Guitar 2 plays the "so do you not want
me to come over?" melody with the above riff:
e|-----------------------------------|
B|-7----7----------------------------|
G|---------7-------------------------|
D|------------7-/8-7-5-7-8-10-12--0--|
A|-----------------------------------|
E|-----------------------------------|


Pre-verse:
"The other side of the land, they love my brain, they don't waste time,
And they don't wait, they can do what they want, as long as I don't have to concentrate"
e|---2-----2-----2---2-----2-----2---3-------1-------3-------5-----|
B|-----3-----3---------1-----1---------3-------1-------3-------4---|
G|-2-----2-----2---2-----2-----2---4-----4-2-----2-3-----3-5-----5-| x2
D|-----------------------------------------------------------------|
A|-----------------------------------------------------------------|
E|-----------------------------------------------------------------|

Guitar 2 plays the same melody again, but only for the first
time the fingerpicking part is played in the pre-verse:
e|-----------------------------------|
B|-7----7----------------------------|
G|---------7-------------------------|
D|------------7-/8-7-5-7-8-10-12--0--|
A|-----------------------------------|
E|-----------------------------------|


Verse:
"Broken drums, thriving dreams, not much else between these walls,
One more spliff, I am already gone but duty calls,
So do you not want me to come over?
So do you not want me to come over?"
e|-------------------------------------------------------------|
B|-------------------------------------------------------------|
G|----------------------------------------------------------8--| x4
D|----------------------------------------------------8--------|
A|-5--5--3-5-3--5--5--3-5-3----------5---------3--6-6---6-8----|
E|---------------------------3-3-5/7---1-1-3/5-----------------|


Then you hit this note:
e|----------|
B|----------|
G|----------|
D|----------|
A|-5--------|
E|----------|


Pre-chorus:
"Not much we know, so off we go"
e|------------------------------------------------|
B|-8--8---8-8---8---8-8--8-8-8-8-8-8-8-8-8-8-8-8--|
G|-7----7---7-7---7---7--7---7---7---7---7---7----|
D|-8--------8---------8--8---8---8---8---8---8----|
A|------------------------------------------------|
E|------------------------------------------------|


Chorus:
"Ah-ah, ah-ah"
e|-------------------|
B|-------------------|
G|-------------------| x4
D|-------------------|
A|---------8/10------|
E|-8\6--6--------10--|


And then with power chords:
"Ah-ah, ah-ah"
e|---------------------|
B|---------------------|
G|----------10-12------| x4
D|-10-8--8--10-12--12--|
A|-10-8--8---8-10--12--|
E|--8-6--6---------10--|


And then a wah guitar comes in and joins guitar 1:
e|---------------------|
B|---------------------|
G|----------10-12------| x4
D|-10-8--8--10-12--12--|
A|-10-8--8---8-10--12--|
E|--8-6--6---------10--|


Pre-solo:
e|----------|
B|----------|
G|----------|
D|-5--------|
A|-5--------|
E|-3--------|


Solo:
Guitar 1 plays this behind the solo:
e|-------------------|
B|-------------------|
G|-------------------| x8
D|------8--------12--|
A|------8--8/10--12--|
E|-8\6--6--------10--|

Guitar 2 plays this solo:
e|-------------------------------------------------------------------------------|
B|-------------------------------------------------------------------------------|
G|-------8\7-7\5-5/7--7/8\7\5/7--7-/12--\7-7/-12--7------------------------------|
D|---------------------------------------------------12\5--5/12--12\9--0-h1-1/2--|
A|-5///--------------------------------------------------------------------------|
E|-------------------------------------------------------------------------------|

e|-------------------------------------------------------------------------------|
B|-------------------------------------------------------------------------------|
G|-8\7-7/8\7\5/7--2-/3--3-\2--2-/3--7\2-2--8-\7--8-\7--8-\7--8-\7--7/11----------|
D|-------------------------------------------------------------------------------|
A|-------------------------------------------------------------------------------|
E|-----------------------------------------------------------------------10\\\---|



************************************

| /   slide up
| \   slide down
| h   hammer-on
| p   pull-off
| ~   vibrato
| +   harmonic
| x   Mute note
| .   staccato
| b   Bend
| pb  Pre-bend
| br  Bend release
| pbr Pre-bend release
| brb Bend release bend

************************************

--------------------------------------------------------------------------------------
                                       Track 05
                               Slide Through My Fingers
--------------------------------------------------------------------------------------

Intro:
e|---------------------|
B|-6-4-3---------------|
G|-------5-/3--1---0---|
D|---------------------|
A|---------------------|
E|---------------------|

And then:
e|-------------------------------|
B|-------------------------------|
G|-------------------------------| x2
D|-------------------------------|
A|-------------------------------|
E|-3-3-3-3--3.--3.--3.--3.--3-3--|


Verse:
"When I get up I've dreamt too long,
Everything else is half as strong,
I could see though, outside my head,
They got it right, I got it wrong"
e|-------------------------------|
B|-------------------------------|
G|-------------------------------| x4
D|-------------------------------|
A|-------------------------------|
E|-3-3-3-3--3.--3.--3.--3.--3-3--|


Melody is played on guitar:
e|-------------------------------|
B|-6-6-6-6--4.--3.--1.--3-3------|
G|-------------------------------| x4
D|-------------------------------|
A|-------------------------------|
E|-------------------------------|

Guitar 2 keeps the rhythm going in the background:
e|-------------------------------|
B|-------------------------------|
G|-------------------------------| x4
D|-------------------------------|
A|-------------------------------|
E|-3-3-3-3--3.--3.--3.--3.--3-3--|


Then guitar plays this little lead:
e|-------------------------------------------------------------------------|
B|-3-----------------12-13/15\13-12-13-12----------------------------------|
G|----------10-12-13----------------------13-12-10-13-12--10-12-13-13b15~--|
D|-------------------------------------------------------------------------|
A|-------------------------------------------------------------------------|
E|-------------------------------------------------------------------------|

Guitar 2 continues the rhythm:
e|-------------------------------|
B|-------------------------------|
G|-------------------------------| x2
D|-------------------------------|
A|-------------------------------|
E|-3-3-3-3--3.--3.--3.--3.--3-3--|


Chorus:
"I've let too much of it slide through my fingers,
Fear that has fouled all the love I could bring her"
e|--------------------------------------------|
B|-3---4---6--3---4---6--4---6---4--3--1------|
G|-4---5---7--4---5---7--5---7---5--4--2------| x2
D|-5---6---8--5---6---8--6---8---6--5--3------|
A|-5---6---8--5---6---8--6---8---6--5--3------|
E|--------------------------------------------|


Back to the rhythmic strumming:
e|-------------------------------|
B|-------------------------------|
G|-------------------------------| x2
D|-------------------------------|
A|-------------------------------|
E|-3-3-3-3--3.--3.--3.--3.--3-3--|


Verse:
"Shook off her optimistic hand,
I am too fixed on what I've planned,
Who is the one who can't let go?
I will miss out, hell, don't I know?"
e|-------------------------------|
B|-------------------------------|
G|-------------------------------| x4
D|-------------------------------|
A|-------------------------------|
E|-3-3-3-3--3.--3.--3.--3.--3-3--|


Melody is played on guitar:
e|-------------------------------|
B|-6-6-6-6--4.--3.--1.--3-3------|
G|-------------------------------| x4
D|-------------------------------|
A|-------------------------------|
E|-------------------------------|

Guitar 2 keeps the rhythm going in the background:
e|-------------------------------|
B|-------------------------------|
G|-------------------------------| x4
D|-------------------------------|
A|-------------------------------|
E|-3-3-3-3--3.--3.--3.--3.--3-3--|


Another guitar plays this lick just before the chorus:
e|-------------------|
B|-------------------|
G|--10-12-13-13b15~--|
D|-------------------|
A|-------------------|
E|-------------------|


Chorus:
"I've let too much of it slide through my fingers,
Fear that has fouled all the love I could bring her"
e|--------------------------------------------|
B|-3---4---6--3---4---6--4---6---4--3--1------|
G|-4---5---7--4---5---7--5---7---5--4--2------| x2
D|-5---6---8--5---6---8--6---8---6--5--3------|
A|-5---6---8--5---6---8--6---8---6--5--3------|
E|--------------------------------------------|


Solo section:
Guitar 1:
e|----------------------------------------------------|
B|----------------------------10----------------------|
G|----------------------------12b14----14-14-14-14r12-|
D|----------------------------------------------------|
A|----------------10~~~~~~~~--------------------------|
E|-3~~~~~~~~-3/10-------------------------------------|

Guitar 2:
e|-----------------------------------------------10/13-11\10------|
B|-15--15-13-12-13-12----12---------11-13-11----------------------|
G|--------------------13----12---13----------12--------------12\--|
D|----------------------------------------------------------------|
A|----------------------------------------------------------------|
E|----------------------------------------------------------------|


Guitar 1:
e|------------------------------------------------------------|
B|---------------------------------------------------6---4----|
G|-12~~12-12-12~~--10-b12----r10--10-8h10p8p7~~~~~-7-----7----|
D|------------------------------------------------------------|
A|------------------------------------------------------------|
E|------------------------------------------------------------|

Guitar 2:
e|---------------------------------------------------------------------------------|
B|-15h16-15h16-15h16-15h16-15h16-15h16-13-12--15h16-15h16-15h16-13-15h16-15h16-----|
G|-----------------------------------------------------------------------------12--|
D|---------------------------------------------------------------------------------|
A|---------------------------------------------------------------------------------|
E|---------------------------------------------------------------------------------|

e|----------------------------------------------------------|
B|-15h16-15h16-15h16-15h16-15h16-15h16-13-12-12-13-13b15----|
G|----------------------------------------------------------|
D|----------------------------------------------------------|
A|----------------------------------------------------------|
E|----------------------------------------------------------|


Guitar 1:
e|-------------------------------------------------------------------------------------|
B|-1/3-3-3-1/3-3-3-1/3-3-3-1/3-3-3-1/3-3-3--1/3-3-3-1/3-3-3-1/3-3-3-1/3-3-3-3-3/4-3-3--|
G|-------------------------------------------------------------------------------------|
D|-------------------------------------------------------------------------------------|
A|-------------------------------------------------------------------------------------|
E|-------------------------------------------------------------------------------------|

Guitar 2:
e|-----------------------------------------------|
B|----------12-13/15\13-12-13-12-----------------|
G|-10-12-13----------------------13-12-10-13-12--| x2
D|-----------------------------------------------|
A|-----------------------------------------------|
E|-----------------------------------------------|


Guitar 1:
e|--------------------------------------------|
B|--------------------------------------------|
G|--------------------------------------------|
D|---------9-10b12r10-9-9h10p9----------------|
A|-8-10-11---------------------11-10-8-11-10--|
E|--------------------------------------------|

Guitar 2:
e|-----------------------------------------------|
B|----------12-13/15\13-12-13-12-----------------|
G|-10-12-13----------------------13-12-10-13-12--|
D|-----------------------------------------------|
A|-----------------------------------------------|
E|-----------------------------------------------|


Guitar 1:
e|------------------------------------------0-|
B|-7----------------8-----------------------0-|
G|-9b11-11-11-11-11-10b12-12-12-12-12-12-12-0-|
D|--------------------------------------------|
A|--------------------------------------------|
E|--------------------------------------------|

Guitar 2:
e|--------------------------------------------|
B|--------------------------------------------|
G|-12-12-12-12-12-12-12-12-12-12-12-12-12-12--|
D|--------------------------------------------|
A|--------------------------------------------|
E|--------------------------------------------|


Chorus:
"I've let too much of it slide through my fingers,
Fear that has fouled all the love I could bring her"
e|--------------------------------------------|
B|-3---4---6--3---4---6--4---6---4--3--1------|
G|-4---5---7--4---5---7--5---7---5--4--2------| x2
D|-5---6---8--5---6---8--6---8---6--5--3------|
A|-5---6---8--5---6---8--6---8---6--5--3------|
E|--------------------------------------------|

Another guitar arpeggiates the chords:
e|-3---4---6--3---4---6--4---6---4--3--1------|
B|--3---4---6--3---4---6--4---6---4-3--1---1--|
G|---4---5------4---5------5---7--------2-2-1-| x2
D|---------------------------------------3----|
A|--------------------------------------------|
E|--------------------------------------------|


Outro:
"I've let too much of it slide through my fingers,
Fear that has fouled all the songs I could sing her,
I've let too much of it slide through my fingers"
e|--------------------------------------------|
B|-3---4---6--3---4---6--4---6---4--3--1------|
G|-4---5---7--4---5---7--5---7---5--4--2------| x4
D|-5---6---8--5---6---8--6---8---6--5--3------|
A|-5---6---8--5---6---8--6---8---6--5--3------|
E|--------------------------------------------|

e|-----------------------------------------------------------------3-3-1-1---------|
B|-1/3-3-3-1/3-3-3-1/3-3-3-1/3-3-3-1/3-3-3-1/3-3-3-1/3-3-3-1/3-3-3---------4-4-----|
G|-----------------------------------------------------------------------------3-3-| x4
D|---------------------------------------------------------------------------------|
A|---------------------------------------------------------------------------------|
E|---------------------------------------------------------------------------------|

Fade out.


************************************

| /   slide up
| \   slide down
| h   hammer-on
| p   pull-off
| ~   vibrato
| +   harmonic
| x   Mute note
| .   staccato
| b   Bend
| pb  Pre-bend
| br  Bend release
| pbr Pre-bend release
| brb Bend release bend

************************************

--------------------------------------------------------------------------------------
                                       Track 06
                                        Wander
--------------------------------------------------------------------------------------

Intro - the first note in this riff is actually an octave lower, but I've tabbed it
in standard tuning for simplicity. To get that low octave, just tune the low E string
to D and then play the open string:
e|--------------------------------|
B|--------------------------------|
G|----------------4--5--4h5p4---4-| x4
D|----------4h5h7-------------7---|
A|-5----4h5-----------------------|
E|----7---------------------------|


Verse:
"Save your fragile mama's heart,
And though she will come for you,
But I wander"
e|--------------------------------|
B|--------------------------------|
G|----------------4--5--4h5p4---4-| x7
D|----------4h5h7-------------7---|
A|-5----4h5-----------------------|
E|----7---------------------------|


Pre-chorus:
e|-------------------------|
B|-------------------------|
G|----7-5-4----------7.-7--|
D|----------7-5-4----7.-7--|
A|-5--------------7--5.-5--|
E|-------------------------|


Chorus:
"And I wonder,
Just how far will you need to be,
For shaking talk so easily,
For hours on end I wander,
Still I don't even..."
e|-------------------------------------------------------|
B|-------------------------------------------------------|
G|--------------------------------9-9-9-9-9--9-9-9-------| x4
D|-9-9-9-9-9--9-9-9-----4h6p4-----9-9-9-9-9--9-9-9--7.-7-|
A|-9-9-9-9-9--9-9-9--4.-------6---7-7-7-7-7--7-7-7--7.-7-|
E|-7-7-7-7-7--7-7-7---------------------------------5.-5-|


Then play this chord:
"...know her"
e|-2----2----|
B|-2----2----|
G|-2---------|
D|-X---------|
A|-0---------|
E|-----------|


Verse:
"Feel just like I need to be,
Back where I was,
Before I couldn't do that,
And I wander"
e|--------------------------------|
B|--------------------------------|
G|----------------4--5--4h5p4---4-| x7
D|----------4h5h7-------------7---|
A|-5----4h5-----------------------|
E|----7---------------------------|


Pre-chorus:
e|-------------------------|
B|-------------------------|
G|----7-5-4----------7.-7--|
D|----------7-5-4----7.-7--|
A|-5--------------7--5.-5--|
E|-------------------------|


Chorus:
"And I wonder,
Just how far will you need to be,
For shaking talk so easily,
For hours on end I wander,
Still I don't even know"
e|-------------------------------------------------------|
B|-------------------------------------------------------|
G|--------------------------------9-9-9-9-9--9-9-9-------| x4
D|-9-9-9-9-9--9-9-9-----4h6p4-----9-9-9-9-9--9-9-9--7.-7-|
A|-9-9-9-9-9--9-9-9--4.-------6---7-7-7-7-7--7-7-7--7.-7-|
E|-7-7-7-7-7--7-7-7---------------------------------5.-5-|


Jazzy instrumental section:
First this:
e|-2----2----2----2h4p2h4p2--|
B|-2----2----2----2----------|
G|-2----2----2----2----------|
D|---------------------------|
A|---------------------------|
E|---------------------------|


Then this:
e|-3-\2-----|
B|-3-\2-----|
G|-3-\2-----| x8
D|----------|
A|----------|
E|-------2--|


And then this:
"How it keep a lid on me,
How it keep a lid on me"
e|-4-\2-----|
B|-4-\2-----|
G|-4-\2-----| x4
D|----------|
A|----------|
E|-------2--|


Solo 1:
"How it keeps a lid on me,
How it keeps a lid on me,
How it keeps a lid on me"
Guitar 2:
e|---------------------------------------------------------------------------------|
B|---------------------------------------------4-5-5/7--5p4\2---2/4\2-2/4\2p0--0---|
G|-----------4--6-6/8.--6------------------4h6-------------------------------------|
D|-4h6---4h6----------------7p6\4---4h6-7------------------------------------------|
A|---------------------------------------------------------------------------------|
E|---------------------------------------------------------------------------------|

e|-----------------------------------------------------------------------------|
B|--------------------------------5/7\5---4h5\2--------------------------------|
G|---------4--6/8.-6---6/8\6--4------------------------------------------------|
D|-6p4-6------------------------------------------4h6--6b7r6--4---4~---4b5r4---|
A|-----------------------------------------------------------------------------|
E|-----------------------------------------------------------------------------|

Guitar 1 - this is the rhythm that is played behind the solo:
e|-4-\2-----|
B|-4-\2-----|
G|-4-\2-----| x8
D|----------|
A|----------|
E|-------2--|

e|-2--2-2-2-2-2--2-2-2-2-2--2-2-2-2-2--4----|
B|-2--2-2-2-2-2--2-2-2-2-2--2-2-2-2-2--4----|
G|-2--2-2-2-2-2--2-2-2-2-2--2-2-2-2-2--4----| x2
D|------------------------------------------|
A|------------------------------------------|
E|------------------------------------------|

e|----------4-\2----2--2-2--|
B|----------4-\2----2--2-2--|
G|----------4-\2----2--2-2--|
D|--------------------------|
A|--------------------------|
E|-2---2--------------------|


Then the solo stops and guitar 1 and 2 both play this:
e|-2--2-2-2-2-2--2-2-2-2-2--2-2-2-2-2--4----|
B|-2--2-2-2-2-2--2-2-2-2-2--2-2-2-2-2--4----|
G|-2--2-2-2-2-2--2-2-2-2-2--2-2-2-2-2--4----| x4
D|------------------------------------------|
A|------------------------------------------|
E|------------------------------------------|


Solo 2:
Guitar 2:
e|-------------------------------------------------------------------------------|
B|-------------------------------------------------------------------------------|
G|--------------------------------------------------------4-6/8---6/8-6/8\6--4---|
D|-4h6------6b7r6b7r6b7r6b7r6b7r6------6h7p6h7p6h7p6-----------------------------|
A|-------------------------------------------------------------------------------|
E|-------------------------------------------------------------------------------|

e|-----------------------------------------------9---7--------------------------|
B|-------------------------------5-7-7/9--7-------------9-9b10--10r9-7-5--5/7---|
G|--------------------4-6/8--6--------------------------------------------------|
D|-7-6-4--6---4-4-4-6-----------------------------------------------------------|
A|------------------------------------------------------------------------------|
E|------------------------------------------------------------------------------|

e|-----------------------------------|
B|-----------------------------------|
G|-7-/8---8b9r8-6---4h6-6b7r6-4------|
D|-----------------------------------|
A|-----------------------------------|
E|-----------------------------------|

Guitar 1 - plays this rhythm behind the solo:
e|-4-\2-----|
B|-4-\2-----|
G|-4-\2-----| x8
D|----------|
A|----------|
E|-------2--|

e|-2--2-2--2-2-----2-------------------2--2-2--2-2-2-2---2-2-2-2-2-2-2--------|
B|-2--4-4--4-4-------4-4-4-4-4----4-4--4--4-4--4-4-4-4---4-4-4-4-4-4-4--------|
G|-------------------4-4-4-4-4--4------4--4-4--4-4-4-4---4-4-4-4-4-4-4--4.-4--|
D|-------------------4-4-4-4-4---------4--4-4--4-4-4-4---4-4-4-4-4-4-4--4.-4--|
A|-------------------------------------2--2-2--2-2-2-2---2-2-2-2-2-2-2--2.-2--|
E|--------------4-------------------------------------------------------------|


Chorus:
"And I wonder
Just how far will you need to be,
For shaking tough so easily,
For hours on end I wander"
e|-------------------------------------------------------|
B|-------------------------------------------------------|
G|--------------------------------9-9-9-9-9--9-9-9-------| x4
D|-9-9-9-9-9--9-9-9-----4h6p4-----9-9-9-9-9--9-9-9--7.-7-|
A|-9-9-9-9-9--9-9-9--4.-------6---7-7-7-7-7--7-7-7--7.-7-|
E|-7-7-7-7-7--7-7-7---------------------------------5.-5-|


Outro:
"How it keeps a lid on me,
How it keeps a lid on me (and I wonder),
How it keeps a lid on me (Just how far will you need to be),
How it keeps a lid on me (for shaking tough so easily),
How it keeps a lid on me (for hours on end I wonder),
How it keeps a lid on me,
How it keeps a lid on me,
How it keeps a lid on me"
e|-------------------------------------------------------|
B|-------------------------------------------------------|
G|-----------------------------9-9-9-9-9--9-9-9----------| x4
D|-9-9-9-9-9--9-9-9--9--9-9-9--9-9-9-9-9--9-9-9--7--7-7/-|
A|-9-9-9-9-9--9-9-9--9--9-9-9--7-7-7-7-7--7-7-7--7--7-7/-|
E|-7-7-7-7-7--7-7-7--7--7-7-7--------------------5--5-5/-|


Studio banter:
One guitar quietly keeps playing the chorus progression.
"Jay: What were you saying?
Kevin: [laughing] That was like, the worst cymbal ever.
Jay: I don't understand what you're trying to tell me.
Kevin: Sounds like...pubic hair.
Jay: [laughing] You could have waited!
*Jay plays loud drum fill on cymbals*
Kevin: What, Gumby?
Jay: I said, I'm sick of you taking over. 
Kevin: Oh.
Jay: I want to record the drums on all our albums, alright? [Kevin laughs] Modular?
Hear that?"



************************************

| /   slide up
| \   slide down
| h   hammer-on
| p   pull-off
| ~   vibrato
| +   harmonic
| x   Mute note
| .   staccato
| b   Bend
| pb  Pre-bend
| br  Bend release
| pbr Pre-bend release
| brb Bend release bend

************************************


And there you have it! Be sure to rate and comment on this album tab if you spot
any errors so I can fix them. Thanks!
comments
print report bad tab
1 comment total.
0 reply
Rensa wrote on July 9 2014, 03:11 pm

Freaking awesome! Really appreciate your work man :)

I want to post or [tab]
guest
You may want to rate the tab now too:
select rating
Please do not post tabs as comments. Select "correction" instead!