Oops, an error
Loading. Please wait.

Safe And Sound Tab

ver5
ver5

Whole song

Interactive

More versions @911Tabs.com
7,061 views 21 this week
1 commentread comment
1 2 3 4 5
worth learning
x 2
Autoscroll
+/-
esc
set tempo
stop
Contributor
Hey! There's an official Ultimate Guitar app which is ideal
for learning songs when you're away from computer. Get the app
WARNING: You are trying to view
                                    content from Ultimate-Guitar.com
                                    in an unauthorized application,
                                    which is prohibited.

                                    Please use an official Ultimate
                                    Guitar Tabs application for iPhone,
                                    iPad or Android to access legitimate
                                    chords, guitar, bass, and drum tabs
                                    from Ultimate-Guitar.com database.

                                    Type "ultimate guitar tabs" in Apple
                                    App Store's or Android Market's
                                    search to find the application.

Capo 7
Intro:
e ---------------1h-0------------------------------------|
b ---------------3--------------------------1------------|
g ---------2------------2--------------------------------|
d --0---------------------------------2-----2------------|
a -----------------------------0-------------------------|
E -------------------------------------------------------|

 -------------------------------------------------------|
 --------------------------------------------------1----|
 --0h-2--2------2------0----------------0---------------|
 --3-----3------3-------------0h-2--2-------------2-----|
 -----------------------------3-----3-------0h-3--------|
 -------------------------------------------------------|

 --------------1h-0-------------------------------------|
 --------------3------------------------1---------------|
 --------2-----------2----------------------------------|
 --0------------------------------2-----2---------------|
 ---------------------------0---------------------------|
 -------------------------------------------------------|

 -------------------------------------------------------|
 --------------1------------1---------------------------|
 --2-----2-----------2----------------------------------|
 --3-----3----------------------------------------------|
 ---------------------------3---------------------------|
 -------------------------------------------------------|

Verse:
 --0h-1-----------1h-0--------------0-------------------|
 --3--------------3-----------------1-------------------|
 --------------2--------------2-------------------------|
 --0--------0-----------2-------------------------------|
 -----------------------0-------------------------------|
 -------------------------------------------------------|

 -------------------------------------------------------|
 -----------------------------------------------1-------|
 --0h-2--2-----2-----0--------------0-------------------|
 --3-----3-----3-----------0h-2--2-----------2----------|
 --------------------------3-----3-----0h-3-------------|
 -------------------------------------------------------|

 --------------1h-0-------------------------------------|
 --------------3-----------------------1----------------|
 --------2-----------2-----------------2----------------|
 --0-----------------------------2----------------------|
 --------------------------0----------------------------|
 -------------------------------------------------------|

 -------------------------------------------------------|
 --------------1--------1-----------1-------------------|
 --2-----2-----------2----------------------------------|
 --3-----3--------------------2-------------------------|
 -----------------------3-----------3-------------------|
 -------------------------------------------------------|

 --0h-1-----------1h-0--------------0-------------------|
 --3--------------3-----------------1-------------------|
 --------------2--------------2-------------------------|
 --0--------0-----------2-------------------------------|
 -----------------------0-------------------------------|
 -------------------------------------------------------|

 -------------------------------------------------------|
 -----------------------------------------1-------------|
 --0h-2--2--2--0--------------0-------------------------|
 --3-----3--3--------0h-2--2-----------2----------------|
 --------------------3-----3-----0h-3-------------------|
 -------------------------------------------------------|

 -------------------------------------------------------|
 --------------0--------1-----------3-------------------|
 --------------0----------------------------------------|
 --------0-----------0--2-----2-----------2-------------|
 -------------------------------------------------------|
 --0----------------------------------------------------|

 --------------------0----------------------------------|
 --------1-----3----------------------------------------|
 --2--------------------2-------------------------------|
 -------------------------------------------------------|
 -------------------------------------------------------|
 -------------------------------------------------------|

Chorus:
 --------------------------------------0----------------|
 --1-----------1-----------3----------------------------|
 --2-----------2--------2-----------------------0-------|
 --------3-----------3-----------3-----------0----------|
 -------------------------------------------------------|
 -------------------------------------------------------|

 --------------3h-0-----------0-------------------------|
 --1--------------------3--------3-----1----------------|
 -------------------------------------------------------|
 --------2-----------2----------------------------------|
 --3----------------------------------------------------|
 -----------------------3-------------------------------|

 --------------------------------------0----------------|
 --------------1-----------3----------------------------|
 --0h-2--------2--------2-----------------------0-------|
 --3-----3-----------3-----------3-----------0----------|
 -------------------------------------------------------|
 -------------------------------------------------------|

 --------------3h-0-----------------0-------------------|
 --1--------------------------3--------3-----1----------|
 -------------------------------------------------------|
 --------2--------------2-------------------------------|
 --3--------------------------3-------------------------|
 -------------------------------------------------------|

 --------------------------------------0----------------|
 --------------1-----------3----------------------------|
 --0h-2--------2--------2-----------------------0-------|
 --3-----3-----------3-----------3-----------0----------|
 -------------------------------------------------------|
 -------------------------------------------------------|

 --------------3h-0-----------------0-------------------|
 --1--------------------------3--------3-----1----------|
 -------------------------------------------------------|
 --------2--------------2-------------------------------|
 --3--------------------------3-------------------------|
 -------------------------------------------------------|

 ----------0-----------------0---1----------------------|
 --------------1----------------------------------------|
 -------------------------------------------------------|
 ------2-----------------2------------------------------|
 --0----------------------------------------------------|
 --------------------3----------------------------------|

 --------------0----------------------------------------|
 ------1---3--------------------------------------------|
 --2---------------2------------------------------------|
 -------------------------------------------------------|
 -------------------------------------------------------|
 -------------------------------------------------------|

Verse 2:
 --0h-1--------1h-0-------------0-----------------------|
 --3-----------3-----0h-1--1----1-----------------------|
 -----------2--------2----------------------------------|
 --0-----0----------------------------------------------|
 -------------------------------------------------------|
 -------------------------------------------------------|

 -------------------------------------------------------|
 -----------------------------------------------1-------|
 --0h-2--2-----2-----0--------------0-------------------|
 --3-----3-----3-----------0h-2--2-----------2----------|
 --------------------------3-----3-----0h-3-------------|
 -------------------------------------------------------|

 --------------1h-0------------------0-------------------|
 --------------3-----------0h-1--1---1-------------------|
 --------2-----------2-----2-----------------------------|
 --0-----------------------------------------------------|
 --------------------------------------------------------|
 --------------------------------------------------------|

 -------------------------------------------------------|
 --------------1-----------1----------------------------|
 --------------------2----------------------------------|
 --2-----2----------------------------------------------|
 --3-----3-----------------3----------------------------|
 -------------------------------------------------------|

 --0-----1--------0-------------------------------------|
 --3-----3-----1--1-------------------------------------|
 --------------2----------------------------------------|
 --0--0-----0--------2----------------------------------|
 -------------------------------------------------------|
 -------------------------------------------------------|

 -------------------------------------------------------|
 -----------------------------------------------1-------|
 --0h-2--2-----2-----0---------------0------------------|
 --3-----3-----3-----------0h--2--2----------2----------|
 --------------------------3------3-----0h-3------------|
 -------------------------------------------------------|

 --------------1h-0-------------------------------------|
 --------------3-----------------------1----------------|
 --------2-----------2----------------------------------|
 --0-----------------------------2-----2----------------|
 --------------------------0----------------------------|
 -------------------------------------------------------|

 -------------------------------------------------------|
 --------------1--------1-----------1-------------------|
 --2-----2-----------2----------------------------------|
 --3-----3--------------------2-------------------------|
 -----------------------3-----------3-------------------|
 -------------------------------------------------------|

 ---0h-1--------1h-0--------------0---------------------|
 ---3-----------3-----0h-1--1-----1---------------------|
 ------------2--------2---------------------------------|
 ---0-----0---------------------------------------------|
 -------------------------------------------------------|
 -------------------------------------------------------|

 -------------------------------------------------------|
 -----------------------------------------------------1-|
 --0h-2--2-----2-----0-----------------0----------------|
 --3-----3-----3-----------0h-2-----2--------------2----|
 --------------------------3--------3--------0h-3-------|
 -------------------------------------------------------|

 -------------------------------------------------------|
 --------------0-----------1-----------3----------------|
 --------------0----------------------------------------|
 --------0-----------0-----2-----2-----------2----------|
 -------------------------------------------------------|
 --0----------------------------------------------------|

 --------------------0----------------------------------|
 --------1-----3----------------------------------------|
 --2-----------------------2----------------------------|
 -------------------------------------------------------|
 -------------------------------------------------------|
 -------------------------------------------------------|

 -------------------------------------------------------|
 -------------------------------------------------------|
 -------------------------------------------------------|
 -------------------------------------------------------|
 -------------------------------------------------------|
 -------------------------------------------------------|

Chorus:
 --------------------------3--3--3--3--3--3--3----------|
 --1--1--1--1--3--3--3--3--3--3--3--3--3--3--3----------|
 --2--2--2--2--2--2--2--2--0--0--0--0--0--0--0----------|
 --3--3--3--3--3--3--3--3--2--2--2--2--0--0--0----------|
 --------------------------3--3--3--3--2--2--2----------|
 --------------------------------------3--3--3----------|

 --------------------------3--3--3--3--3--3--3----------|
 --1--1--1--1--3--3--3--3--3--3--3--3--3--3--3----------|
 --2--2--2--2--2--2--2--2--0--0--0--0--0--0--0----------|
 --3--3--3--3--3--3--3--3--2--2--2--2--0--0--0----------|
 --------------------------3--3--3--3--2--2--2----------|
 --------------------------------------3--3--3----------|

 --------------------------3--3--3--3--3--3--3----------|
 --1--1--1--1--3--3--3--3--3--3--3--3--3--3--3----------|
 --2--2--2--2--2--2--2--2--0--0--0--0--0--0--0----------|
 --3--3--3--3--3--3--3--3--2--2--2--2--0--0--0----------|
 --------------------------3--3--3--3--2--2--2----------|
 --------------------------------------3--3--3----------|

Am        C       G
(Safe     and     Sound)

 --3-----------3----------------------3-----------------|
 --1-----------1----------3-----------------------------|
 --------------2--------2-2--------------------0--------|
 --3-----3-----------3----------3-----------0-----------|
 -------------------------------------------------------|
 -------------------------------------------------------|

 --3-----3----------------------------------------------|
 --------1-----3----------------------------------------|
 --------------0----------------------------------------|
 -----2-----2-------------------------------------------|
 --3-----------2----------------------------------------|
 -------------------------------------------------------|

 --3-----------3-----------------------3----------------|
 --1-----------1-----------3----------------------------|
 --------------2--------2--2--------------------0-------|
 --3-----3-----------3-----------3-----------0----------|
 -------------------------------------------------------|
 -------------------------------------------------------|

 --3-----------3h-0-------------------------------------|
 --------------1-----------3----------------------------|
 -----------------------0--0----------------------------|
 --------2-----------2----------------------------------|
 --3-----------------------2----------------------------|
 -------------------------------------------------------|

 --------------------------3--3--3--3--3--3--3----------|
 --1--1--1--1--3--3--3--3--3--3--3--3--3--3--3----------|
 --2--2--2--2--2--2--2--2--0--0--0--0--0--0--0----------|
 --3--3--3--3--3--3--3--3--2--2--2--2--0--0--0----------|
 --------------------------3--3--3--3--2--2--2----------|
 --------------------------------------3--3--3----------|

 --------------------------3--3--3--3--3--3--3----------|
 --1--1--1--1--3--3--3--3--3--3--3--3--3--3--3----------|
 --2--2--2--2--2--2--2--2--0--0--0--0--0--0--0----------|
 --3--3--3--3--3--3--3--3--2--2--2--2--0--0--0----------|
 --------------------------3--3--3--3--2--2--2----------|
 --------------------------------------3--3--3----------|

 --------------------------3--3--3--3--3--3--3----------|
 --1--1--1--1--3--3--3--3--3--3--3--3--3--3--3----------|
 --2--2--2--2--2--2--2--2--0--0--0--0--0--0--0----------|
 --3--3--3--3--3--3--3--3--2--2--2--2--0--0--0----------|
 --------------------------3--3--3--3--2--2--2----------|
 --------------------------------------3--3--3----------|

 --------3-----3----------------------------------------|
 --1-----3-----3----------------------------------------|
 --2-----0-----0----------------------------------------|
 --3-----2-----0----------------------------------------|
 --------3-----2----------------------------------------|
 --------------3----------------------------------------|

Please rate - worked very hard on this tab. thanks
comments
We did not receive enough feedback on this tab! Please rate:
print report bad tab
1 2 3 4 5
1 comment total.
0 reply
tyjamo wrote on November 2 2012, 02:08 pm

Please ignore the tuning, I know i put it backwards I just don't know how to fix it

I want to post or [tab]
guest
You may want to rate the tab now too:
select rating
Please do not post tabs as comments. Select "correction" instead!