Oops, an error
Loading. Please wait.

You Belong With Me Bass Tab

ver2
ver2

Whole song

Interactive

More versions @911Tabs.com
4,433 views 3 this week
no commentswrite comment
1 2 3 4 5
excellent!
x 1
Autoscroll
+/-
esc
set tempo
stop
Contributor
Hey! There's an official Ultimate Guitar app which is ideal
for learning songs when you're away from computer. Get the app
WARNING: You are trying to view
                                    content from Ultimate-Guitar.com
                                    in an unauthorized application,
                                    which is prohibited.

                                    Please use an official Ultimate
                                    Guitar Tabs application for iPhone,
                                    iPad or Android to access legitimate
                                    chords, guitar, bass, and drum tabs
                                    from Ultimate-Guitar.com database.

                                    Type "ultimate guitar tabs" in Apple
                                    App Store's or Android Market's
                                    search to find the application.
Song: You Belong With Me
Artist: Taylor Swift
Album: Fearless (2008)
Tabbed by Jim L.
If you have any suggestions, corrections, etc. please e-mail them to 

i s h o o t j o o (at) h o t m a i l (dot) c o m

^ That's to prevent (automated) spam.
[The time notations go along with the music video]
[Yes. I'm a guy, and I tabbed this. :3]

Edited rhythm issues. Note that the verse timing noted below is 
different from the timing in the chorus.


Verse {0:09}
 # You're on the phone with your...
G|-----------------------------------------------------------------|
D|-----------------------------------------------------------------|
A|-9-------9-------9-------9---------------------------------------|
E|---------------------------------9-------9-------9-------9-/-----|
   1 & 2 & 3 & 4 & 1 & 2 & 3 & 4 & 1 & 2 & 3 & 4 & 1 & 2 & 3 & 4 &

G|-----------------------------------------------------------------|
D|-----------------------------------------------------------------|
A|---------------------------------2-------2-------2-----------2h4-|
E|-4-------4-------4-------4---------------------------------------|
   1 & 2 & 3 & 4 & 1 & 2 & 3 & 4 & 1 & 2 & 3 & 4 & 1 & 2 & 3 & 4 &

G|-----------------------------------------------------------------|
D|-----------------------------------------------------------------|
A|-9-------9-------9-------9---9h11--------------------------------|
E|---------------------------------9-------9-------9-------9-/-----|
   1 & 2 & 3 & 4 & 1 & 2 & 3 & 4 & 1 & 2 & 3 & 4 & 1 & 2 & 3 & 4 &

G|-----------------------------------------------------------------|
D|-----------------------------------------------------------------|
A|---------------------------------2-------2-------2-------2h4p2---|
E|-4-------4-------4-------4---2h4---------------------------------|
   1 & 2 & 3 & 4 & 1 & 2 & 3 & 4 & 1 & 2 & 3 & 4 & 1 & 2 & 3 & 4 &


Pre-Chorus {0:38}
 # She wears short shorts...
G|-----------------4-----------4-----------------------------------|
D|-6-----------4h6---------------6p4-----------4h6-----------------|
A|-------------------------------------------------4-----------4/--|
E|-----------------------------------------------------------------|
   1 & 2 & 3 & 4 & 1 & 2 & 3 & 4 & 1 & 2 & 3 & 4 & 1 & 2 & 3 & 4 &

G|-----------------------------------------------------------------|
D|-----------------------------------------------------------------|
A|-----------------2---------------4---------------------------4---|
E|-4-----------2h4-------------------------------------------------|
   1 & 2 & 3 & 4 & 1 & 2 & 3 & 4 & 1 & 2 & 3 & 4 & 1 & 2 & 3 & 4 &


Chorus {0:53}
 # If you could see that...
G|-----------------------------------------------------------------|
D|-----------------------------------------------------------------|
A|-----------------------------------------------------------------|
E|-2---2---2---2---2---2---2---2---2---2---2---2---2---2---2---2---|
   1 + & + 2 + & + 3 + & + 4 + & + 1 + & + 2 + & + 3 + & + 4 + & +

G|-----------------------------------------------------------------|
D|-----------------------------------------------------------------|
A|-4---4---4---4---4---4---4---4---4---4---4---4---4---4---4---4---|
E|-----------------------------------------------------------------|
   1 + & + 2 + & + 3 + & + 4 + & + 1 + & + 2 + & + 3 + & + 4 + & +

G|-----------------------------------------------------------------|
D|-----------------------------------------------------------------|
A|-----------------------------------------------------------------|
E|-4---4---4---4---4---4---4---4---4---4---4---4---4---4---4---4---|
   1 + & + 2 + & + 3 + & + 4 + & + 1 + & + 2 + & + 3 + & + 4 + & +

G|-----------------------------------------------------------------|
D|-----------------------------------------------------------------|
A|-2---------------------------------------------------------------|
E|-----------------------------------------------------------------|
   1 + & + 2 + & + 3 + & + 4 + & + 1 + & + 2 + & + 3 + & + 4 + & +


Break [The awesome banjo part]

G|-----------------------------------------------------------------|
D|-----------------------------------------------------------------|
A|-----------------------------------------------------------------|
E|-2---------------------------------------------------------------|
   1 + & + 2 + & + 3 + & + 4 + & + 1 + & + 2 + & + 3 + & + 4 + & +


Verse {1:11}
 #Walking the streets with...
G|-----------------------------------------------------------------|
D|-----------------------------------------------------------------|
A|-9-------9-------9-------9---------------------------------------|
E|---------------------------------9-------9-------9-------9-/-----|
   1 & 2 & 3 & 4 & 1 & 2 & 3 & 4 & 1 & 2 & 3 & 4 & 1 & 2 & 3 & 4 &

G|-----------------------------------------------------------------|
D|-----------------------------------------------------------------|
A|---------------------------------2-------2-------2-----------2h4-|
E|-4-------4-------4-------4---------------------------------------|
   1 & 2 & 3 & 4 & 1 & 2 & 3 & 4 & 1 & 2 & 3 & 4 & 1 & 2 & 3 & 4 &

G|-----------------------------------------------------------------|
D|-----------------------------------------------------------------|
A|-9-------9-------9-------9---9h11--------------------------------|
E|---------------------------------9-------9-------9-------9-/-----|
   1 & 2 & 3 & 4 & 1 & 2 & 3 & 4 & 1 & 2 & 3 & 4 & 1 & 2 & 3 & 4 &

G|-----------------------------------------------------------------|
D|-----------------------------------------------------------------|
A|---------------------------------2-------2-------2-------2h4p2---|
E|-4-------4-------4-------4---2h4---------------------------------|
   1 & 2 & 3 & 4 & 1 & 2 & 3 & 4 & 1 & 2 & 3 & 4 & 1 & 2 & 3 & 4 &


Pre-Chorus {1:41}
 #She wears high heels...
G|-----------------------------------------------------------------|
D|---------------------------------4-------4---4h6-----------------|
A|-----------------2-----2-2---/-------------------4-----------4/--|
E|-4-------4---2h4-------------------------------------------------|
   1 & 2 & 3 & 4 & 1 & 2 & 3 & 4 & 1 & 2 & 3 & 4 & 1 & 2 & 3 & 4 &

G|-----------------------------------------------------------------|
D|-----------------------------------------------------------------|
A|-----------------2-------2-------4-------------/-4-----------4/--|
E|-4-------4---2h4-------------------------------------------------|
    1 & 2 & 3 & 4 & 1 & 2 & 3 & 4 & 1 & 2 & 3 & 4 & 1 & 2 & 3 & 4 &


Chorus {1:56}
 # If you could see that...
G|-----------------------------------------------------------------|
D|-----------------------------------------------------------------|
A|-----------------------------------------------------------------|
E|-2---2---2---2---2---2---2---2---2---2---2---2---2---2---2---2---|
   1 + & + 2 + & + 3 + & + 4 + & + 1 + & + 2 + & + 3 + & + 4 + & +

G|-----------------------------------------------------------------|
D|-----------------------------------------------------------------|
A|-4---4---4---4---4---4---4---4---4---4---4---4---4---4---4---4---|
E|-----------------------------------------------------------------|
   1 + & + 2 + & + 3 + & + 4 + & + 1 + & + 2 + & + 3 + & + 4 + & +

G|-----------------------------------------------------------------|
D|-----------------------------------------------------------------|
A|-----------------------------------------------------------------|
E|-4---4---4---4---4---4---4---4---4---4---4---4---4---4---4---4---|
   1 + & + 2 + & + 3 + & + 4 + & + 1 + & + 2 + & + 3 + & + 4 + & +

G|-----------------------------------------------------------------|
D|-----------------------------------------------------------------|
A|-2---2---2---2---2---2---2---2---2---2---2---2---2---2h4-2-------|
E|-----------------------------------------------------------------|
   1 + & + 2 + & + 3 + & + 4 + & + 1 + & + 2 + & + 3 + & + 4 + & +

{2:10}
 # Standing by and waiting...
G|-----------------------------------------------------------------|
D|-4---4---4---4---4---4---4---4---4---4---4---4---4---4---4---4---|
A|-----------------------------------------------------------------|
E|-----------------------------------------------------------------|
   1 + & + 2 + & + 3 + & + 4 + & + 1 + & + 2 + & + 3 + & + 4 + & +

G|-----------------------------------------------------------------|
D|-----------------------------------------------------------------|
A|-4---4---4---4---4---4---4---4---4---4---4---4---4---4---4---4---|
E|-----------------------------------------------------------------|
   1 + & + 2 + & + 3 + & + 4 + & + 1 + & + 2 + & + 3 + & + 4 + & +

G|-----------------------------------------------------------------|
D|-----------------------------------------------------------------|
A|-----------------------------------------------------------------|
E|-4---4---4---4---4---4---4---4---4---4---4---4---4---4---4---4---|
   1 + & + 2 + & + 3 + & + 4 + & + 1 + & + 2 + & + 3 + & + 4 + & +

G|-----------------------------------------------------------------|
D|-----------------------------------------------------------------|
A|-2---2---2---2---2---2---2---2---2---2---2---2---2---2---2---2---|
E|-----------------------------------------------------------------|
   1 + & + 2 + & + 3 + & + 4 + & + 1 + & + 2 + & + 3 + & + 4 + & +


Guitar Solo {2:25}
G|-----------------------------------------------------------------|
D|-4---4---4---4---4---4---4---4---4---4---4---4---4---4---4---4---|
A|-----------------------------------------------------------------|
E|-----------------------------------------------------------------|
   1 + & + 2 + & + 3 + & + 4 + & + 1 + & + 2 + & + 3 + & + 4 + & +

G|-----------------------------------------------------------------|
D|-----------------------------------------------------------------|
A|-4---4---4---4---4---4---4---4---4---4---4---4---4---4---4---4---|
E|-----------------------------------------------------------------|
   1 + & + 2 + & + 3 + & + 4 + & + 1 + & + 2 + & + 3 + & + 4 + & +

G|-----------------------------------------------------------------|
D|-----------------------------------------------------------------|
A|-----------------------------------------------------------------|
E|-4---4---4---4---4---4---4---4---4---4---4---4---4---4---4---4---|
   1 + & + 2 + & + 3 + & + 4 + & + 1 + & + 2 + & + 3 + & + 4 + & +

G|-----------------------------------------------------------------|
D|-----------------------------------------------------------------|
A|-2---2---2---2---2---2---2---2-------2---2---2---2---2---2-------|
E|-----------------------------------------------------------------|
   1 + & + 2 + & + 3 + & + 4 + & + 1 + & + 2 + & + 3 + & + 4 + & +


Bridge {2:40} [This part is tricky]
 # Driving to my house...
G|-----------------------------------------------------------------|
D|-----------------------------------------------------------------|
A|---------------------------------4---4---4---4---4---4---4---4---|
E|-2---2---2---2---2---2---2---2-----------------------------------|
   1 + & + 2 + & + 3 + & + 4 + & + 1 + & + 2 + & + 3 + & + 4 + & +

G|-----------------------------------------------------------------|
D|-4---4---4---4---4---4---4---4-----------------------------------|
A|---------------------------------4---4---4---4---4---4---4---4---|
E|-----------------------------------------------------------------|
   1 + & + 2 + & + 3 + & + 4 + & + 1 + & + 2 + & + 3 + & + 4 + & +

G|-----------------------------------------------------------------|
D|-----------------------------------------------------------------|
A|---------------------------------2---2---2---2---2---2---2---2---|
E|-4---4---4---4---4---4---4---4-----------------------------------|
   1 + & + 2 + & + 3 + & + 4 + & + 1 + & + 2 + & + 3 + & + 4 + & +

G|-----------------------------------------------------------------|
D|-----------------------------------------------------------------|
A|---------------------------------4-------------------------------|
E|-2---2---2---2---2---2---2---2-----------------------------------|
   1 + & + 2 + & + 3 + & + 4 + & + 1 + & + 2 + & + 3 + & + 4 + & +

G|---------------------------------|
D|---------------------------------|
A|---------------------------------|
E|---------------------------------|
   1 + & + 2 + & + 3 + & + 4 + & + 

G|-----------------------------------------------------------------|
D|-----------------------------------------------------------------|
A|-----------------------------------------------------------------|
E|-----------------------------------------------------------------|
   1 + & + 2 + & + 3 + & + 4 + & + 1 + & + 2 + & + 3 + & + 4 + & +

G|-----------------------------------------------------------------|
D|-----------------------------------------------------------------|
A|-----------------------------------------------------------------|
E|-----------------------------------------------------------------|
   1 + & + 2 + & + 3 + & + 4 + & + 1 + & + 2 + & + 3 + & + 4 + & +

{3:04}
 # See...
G|-----------------------------------------------------------------|
D|-----------------------------------------------------------------|
A|-----------------------------------------------------------------|
E|-4---------------------------------------------------------------|
   1 + & + 2 + & + 3 + & + 4 + & + 1 + & + 2 + & + 3 + & + 4 + & +

 # Me...
G|-----------------------------------------------------------------|
D|-------------------------------------------------9---9---8---6---|
A|-2---2---2---2---2---2---2---2---2---2---2---2-/-----------------|
E|-----------------------------------------------------------------|
   1 + & + 2 + & + 3 + & + 4 + & + 1 + & + 2 + & + 3 + & + 4 + & +


Final Chorus {3:11}
 # Standing by your window...
G|-----------------------------------------------------------------|
D|-4---4---4---4---4---4---4---4---4---4---4---4---4---4---4---4---|
A|-----------------------------------------------------------------|
E|-----------------------------------------------------------------|
   1 + & + 2 + & + 3 + & + 4 + & + 1 + & + 2 + & + 3 + & + 4 + & +

G|-----------------------------------------------------------------|
D|-----------------------------------------------------------------|
A|-4---4---4---4---4---4---4---4---4---4---4---4---4---4---4---4---|
E|-----------------------------------------------------------------|
   1 + & + 2 + & + 3 + & + 4 + & + 1 + & + 2 + & + 3 + & + 4 + & +

G|-----------------------------------------------------------------|
D|-----------------------------------------------------------------|
A|-------------0---0---0---2---2---2---6---6---6---6---6---6---6---|
E|-4---4---4-------------------------------------------------------|
   1 + & + 2 + & + 3 + & + 4 + & + 1 + & + 2 + & + 3 + & + 4 + & +

G|-----------------------------------------------------------------|
D|-------------------------------------4---4---4---4---4---4---4/--|
A|-2---2---2---4---4---4---6---6---6-------------------------------|
E|-----------------------------------------------------------------|
   1 + & + 2 + & + 3 + & + 4 + & + 1 + & + 2 + & + 3 + & + 4 + & +

 #You belong with me...
G|-----------------------------------------------------------------|
D|-----------------------------------------------------------------|
A|-----------------------------------------------------------------|
E|-2---2---2---2---2---2---2---2---2---2---2---2---2---2---2---2---|
   1 + & + 2 + & + 3 + & + 4 + & + 1 + & + 2 + & + 3 + & + 4 + & +

G|-----------------------------------------------------------------|
D|-----------------------------------------------------------------|
A|-4---4---4---4---4---4---4---4---4---4---4---4---4---4---4---4---|
E|-----------------------------------------------------------------|
   1 + & + 2 + & + 3 + & + 4 + & + 1 + & + 2 + & + 3 + & + 4 + & +

G|-----------------------------------------------------------------|
D|-----------------------------------------------------------------|
A|-----------------------------------------------------------------|
E|-4---4---4---4---4---4---4---4---4---4---4---4---4---4---4---4---|
   1 + & + 2 + & + 3 + & + 4 + & + 1 + & + 2 + & + 3 + & + 4 + & +

G|-----------------------------------------------------------------|
D|-----------------------------------------------------------------|
A|-2---2---2---2-------2---2---2-------2---2---2-------2---2-------|
E|-----------------------------------------------------------------|
   1 + & + 2 + & + 3 + & + 4 + & + 1 + & + 2 + & + 3 + & + 4 + & +

G|-----------------------------------------------------------------|
D|-----------------------------------------------------------------|
A|-----------------------------------------------------------------|
E|-2---------------------------------------------------------------|
   1 + & + 2 + & + 3 + & + 4 + & + 1 + & + 2 + & + 3 + & + 4 + & +


/ 	=	Slide
h	=	hammer on
p	=	pull off

That's all the notations I use on this, I think.
comments
We did not receive enough feedback on this tab! Please rate:
print report bad tab
1 2 3 4 5
I want to post or [tab]
guest
You may want to rate the tab now too:
select rating
Please do not post tabs as comments. Select "correction" instead!