Oops, an error
Loading. Please wait.

Stove By A Whale Tab

779 views 3 this week
1 commentread comment
1 2 3 4 5
worth learning
x 1
add to favorites launch autoscroll
font size
0
reset
Autoscroll
+/-
esc
set tempo
stop
Contributor
Tuning
D A D G B E
WARNING: You are trying to view
                                    content from Ultimate-Guitar.com
                                    in an unauthorized application,
                                    which is prohibited.

                                    Please use an official Ultimate
                                    Guitar Tabs application for iPhone,
                                    iPad or Android to access legitimate
                                    chords, guitar, bass, and drum tabs
                                    from Ultimate-Guitar.com database.

                                    Type "ultimate guitar tabs" in Apple
                                    App Store's or Android Market's
                                    search to find the application.
-------------------------------------------------------------------------------
		   STOVE BY A WHALE - Ted Leo & the Pharmacists
-------------------------------------------------------------------------------
Tabbed by: Ben Aitken
Email: ben.j.aitken@gmail.com

Tuning: DADGBE

G1&2 Main riff
e|---------------------------------------------------------------------------|
B|---------------------------------------------------------------------------|
G|---------------------------------------------------------------------------|
D|---------------------------------------------------------------------------|
A|---------------------------------------------------------------------------|
E|--5h7----5h7--5h7----0--0----0-----5h7----5h7--5h7----0--0----0------------|

G1&2 Verse
e|---------------------------------------------------------------------------|
B|---------------------------------------------------------------------------|
G|--7----7--7----7--7----7--7----7--7----7--7----7--7----7--4----------------|
D|--7----7--7----7--7----7--7----7--7----7--7----7--7----7--4----------------|
A|--5----5--5----5--5----5--5----5--5----5--5----5--5----5--2----------------|
E|--0----0--0----0--0----0--0----0--0----0--0----0--0----0-------------------|
    pm....................................................

e|---------------------------------------------------------------------------|
B|---------------------------------------------------------------------------|
G|--7----7--7----7--7----7--4----7----7--7----7--7----7--7----7--------------|
D|--7----7--7----7--7----7--4----7----7--7----7--7----7--7----7--------------|
A|--5----5--5----5--5----5--2----5----5--5----5--5----5--5----5--------------|
E|--0----0--0----0--0----0-------0----0--0----0--0----0--0----0--------------|
    pm....................       pm............................

G1
e|---------------------------------------------------------------------------|
B|---------------------------------------------------------------------------|
G|---------------------------------------------------------------------------|
D|--4----4--4----4--4----4--4----4--4----4--4----4--4----4--3----------------|
A|--2----2--2----2--2----2--2----2--2----2--2----2--2----2--1----------------|
E|---------------------------------------------------------------------------|
    pm.......................................................

G2
e|---------------------------------------------------------------------------|
B|--5-------5-------5-------5-------5-------5-------5------------------------|
G|--4-------4-------4-------4-------4-------4-------4------------------------|
D|---------------------------------------------------------------------------|
A|---------------------------------------------------------------------------|
E|---------------------------------------------------------------------------|

G1
e|----------------------------------------------------------------0--0--0----|
B|-------------------------------------------------------2--2--2--2--2--2----|
G|-------------------------------------------0--0--0--0--0--0--0--0--0--0----|
D|--2----2--2----2--2----2--2----2--2--2--2--2--2--2--2--2--2--2--2--2--2----|
A|--0----0--0----0--0----0--0----0--0--0--0--0--0--0--0--0--0--0--0--0--0----|
E|---------------------------------------------------------------------------|
    pm.....................................

G2
e|------------------------------------------------------------------0--0--0--|
B|------------------------------------------2--------2--------2-----2--2--2--|
G|---------------------------------------0-----0--0-----0--0-----0--0--0--0--|
D|---------------------------------------------------------------------------|
A|---------------------------------------------------------------------------|
E|---------------------------------------------------------------------------|

Chorus
e|---0----0--0----0--0----0--0----0--0----0--3--2--0-------------------------|
B|--/5----5--5----5--5----5--5----5--5----5-----------3--0-------------------|
G|----------------------------------------------------------2----------------|
D|---------------------------------------------------------------------------|
A|---------------------------------------------------------------------------|
E|---------------------------------------------------------------------------|

Ending rhythm
e|---------------------------------------------------------------------------|
B|---------------------------------------------------------------------------|
G|--7----7--7----7--7----7--7----7--7----7--7----7--7----7--4----------------|
D|--7----7--7----7--7----7--7----7--7----7--7----7--7----7--4----------------|
A|--5----5--5----5--5----5--5----5--5----5--5----5--5----5--2----------------|
E|--0----0--0----0--0----0--0----0--0----0--0----0--0----0-------------------|
    pm....................................................

e|---------------------------------------------------------------------------|
B|---------------------------------------------------------------------------|
G|--7----7--7----7--7----7--7----7--7----7--7----7--7----7--7----7--7--------|
D|--7----7--7----7--7----7--7----7--7----7--7----7--7----7--7----7--7--------|
A|--5----5--5----5--5----5--5----5--5----5--5----5--5----5--5----5--5--------|
E|--0----0--0----0--0----0--0----0--0----0--0----0--0----0--0----0--0--------|
    pm...............................................................

Ending lead 4:33
e|--------------------------------------------------10--9h10p10--------------|
B|-------------------------10--10/12--10--------10---------------12----------|
G|------7--7------7--9/11----------------------------------------------------|
D|--/9-----------------------------------------------------------------------|
A|---------------------------------------------------------------------------|
E|---------------------------------------------------------------------------|

e|---------------------------------------------------------------------------|
B|--10--12--10---------------------------10--12-------10--10h12--10----------|
G|--------------11\9\7---------7--9/11------------------------------11\9--7--|
D|---------------------------------------------------------------------------|
A|---------------------------------------------------------------------------|
E|---------------------------------------------------------------------------|

e|---------------------------------------------------------------------------|
B|---------------------------------------------------------------------------|
G|--------7--9----11--11/12----11--9--7---------------------7--7-------------|
D|---------------------------------------9\7--7--------7/9-------------------|
A|---------------------------------------------------------------------------|
E|---------------------------------------------------------------------------|

5:00
e|----------------------------9----------12------10------10--9\7-------------|
B|--------------------10---------10----------10-------------------10--7------|
G|--7--9--9/11----11------11---------11----------------------------------9---|
D|---------------------------------------------------------------------------|
A|---------------------------------------------------------------------------|
E|---------------------------------------------------------------------------|

e|---------------------------------------------------------------------------|
B|---------------------------------------------------------------------------|
G|--7-----7--7-----7-------7-----9b11r9--7-----7-----7--7--------------------|
D|-----9--------------7/9-----9-------------9-----9--------------------------|
A|---------------------------------------------------------------------------|
E|---------------------------------------------------------------------------|

e|---------------------------------------------------------------------------|
B|---------------------------------------------------------------------------|
G|--7--7--7h9--7----7h11--7---7h9--7----11p7--9p7--11p7--9p7--11p7--9--------|
D|---------------------------------------------------------------------------|
A|---------------------------------------------------------------------------|
E|---------------------------------------------------------------------------|

e|---------------------------------------------------------------------------|
B|---------------------------------------------------------------------------|
G|--9b11-----7--7----7----------------11-----11-----11-----11-----11\10--7---|
D|--------9-------------9--7--7----7------7------7------7------7-------------|
A|---------------------------------------------------------------------------|
E|---------------------------------------------------------------------------|

5:20
e|---------------------------------------------------------------------------|
B|----------0------------7--7--7--7----------0--------------15-----15\-------|
G|----------7-----/6--6--6--6--6--6----------7---------/14--14-----14\-------|
D|----------7------------7--7--7--7----------7------------------0------------|
A|-/5--------------------------------/5--------------------------------------|
E|--0---------------------------------0--------------------------------------|

e|---------------------------------------------------------------------------|
B|-----------------/7--7--7--7--7--7-----------------------------------------|
G|---7------7------/6--6--6--6--6--6-------------2-----4b6r4--2-----2--------|
D|---7------7------/7--7--7--7--7--7--7------/4-----4------------4-----4--2--|
A|--/5------5-------------------------5--------------------------------------|
E|---0------0-------------------------0--------------------------------------|

e|---------------------------------------------------------------------------|
B|---------------------------------------------------------------------------|
G|---------------------------------------------------------------------------|
D|-----------0-----2----0-----0----------------------------------------------|
A|--5-----0-----0----------2-----2--5-------------------------5--0--5--5--0--|
E|--------------0-----------------------------0----0--0----0-----------------|
					      pm............

e|---------------------------------------------------------------------------|
B|---------------------------------------------------------------------------|
G|----------------7--x--7/9--7------------------------7-----9b11--7-----7----|
D|------------------------------9--7-----7--------/9-----9-----------9-------|
A|--5--5------------------------------9--------0-----------------------------|
E|---------------------------------------------------------------------------|

e|---------------------------------------------------------------------------|
B|----------------7--------7--------7-----8--7-------------------------------|
G|--7--7-------7-----7--7-----7--7-----7--------9--7-----7-----7\------------|
D|---------------------------------------------------------------------------|
A|---------------------------------------------------------------------------|
E|---------------------------------------------------------------------------|

5:49
e|---------------------------------------------------------------------------|
B|--------------------------15\----------------------------15\---------------|
G|--------------------------14\----------------------------14\---------------|
D|---------------------------------------------------------------------------|
A|---------------------------------------------------------------------------|
E|--/9--12--9--0----0--0-----------/9--12--9--0----0--0----------------------|

2x
e|--------------------------14\----------------------------14\---------------|
B|--------------------------15\----------------------------15\---------------|
G|--------------------------14\----------------------------14\---------------|
D|---------------------------------------------------------------------------|
A|---------------------------------------------------------------------------|
E|--/9--12--9--0----0--0-----------/9--12--9--0----0--0----------------------|

e|---------------------------------------------------------------------------|
B|--------------------------15\---------15-----------------------------------|
G|--------------------------14\---------14\----------------------------------|
D|---------------------------------------------------------------------------|
A|---------------------------------------------------------------------------|
E|--/9--12--9--0----0--0-------------------------------/9--12--9---0---------|

6:15
e|------------------------------------------------------------------------------|
B|------------------------------------------------------------------------------|
G|--2-------2-------2-------2-------4----2--0--2----0-----0---------------------|
D|--0----4-------4-------4-------4--0------------------4-------4--2---2h4p2--0--|
A|--0---------------------------------------------------------------------------|
E|--0---------------------------------------------------------------------------|

e|------------------------------------------------------------------------------|
B|---------------------------------------2--3-----------------------------------|
G|--2-------2-------2-------2-------4----------2p0-----0------------------------|
D|--0----4-------4-------4-------4------------------4-------4--2h4p2--0---------|
A|--0---------------------------------------------------------------------------|
E|--0---------------------------------------------------------------------------|

e|---------------------------------------------------------------------------|
B|---------------------------------------------------------------------------|
G|-------------2h4----2--0--2----2--0-------------------------------0--------|
D|--4----2--0--------------------------4--2----0--2----2----2--4-------------|
A|---------------------------------------------------------------------------|
E|---------------------------------------------------------------------------|

e|---------------------------------------------------------------------------|
B|---------------------------------------------------------------------------|
G|--0------------------------------------------------------------------------|
D|-----4--2--0--2--4--0--2--4--0--2--4--0--2--4--0--2--4--0--2--4--0--2--4---|
A|---------------------------------------------------------------------------|
E|---------------------------------------------------------------------------|

e|------------------------------------------------------------------------------|
B|------------------------------------------------------------------------------|
G|--------------------2------------2-------2-------4----2--0--2--0-----0--------|
D|--0--2--4--0--2--4-------4------------4-------4-------------------4-----4--2--|
A|----------------------------0-------------------------------------------------|
E|----------------------------0-------------------------------------------------|

e|-------------------------------------------------------------------------------|
B|-----------------------------------------------------2--3----------------------|
G|--------------2-------2-------2---------2-------4----------2----0-----0--------|
D|--2h4p2--0---------4-------4-------4---------4---------------------4-----4--2--|
A|-------------------------------------------------------------------------------|
E|-------------------------------------------------------------------------------|

e|-------------------------------------------------------------------------------|
B|-------------------------------------------------------------------------------|
G|-------------------------4----2--0--2----2--0--------------------------0----0--|
D|--2h4p2--0----4----2--0------------------------4--2----0-2--2----0--4----------|
A|-------------------------------------------------------------------------------|
E|-------------------------------------------------------------------------------|

e|---------------------------------------------------------------------------|
B|---------------------------------------------------------------------------|
G|---------------------------------------------------------------------------|
D|--4--2--0--2--4--0--2--4--0--2--4--0--2--4--0--2--4--0--2--4--0--2--4------|
A|--------------------------0--------0--------0--------0--------0------------|
E|--------------------------0--------0--------0--------0--------0------------|
Repeat until end

| /  slide up
| \  slide down
| h  hammer-on
| p  pull-off
| ~  vibrato
| +  harmonic
| x  Mute note
===============================================================================
comments
We did not receive enough feedback on this tab! Please rate:
print report bad tab
1 2 3 4 5
1 comment total.
0 reply
Icabobster wrote on June 25 2009, 10:48 pm

I know in the info you put the tuning as Drop D, but please change the tab so that it actually correlates.

I want to post or [tab]
guest
You may want to rate the tab now too:
select rating
Please do not post tabs as comments. Select "correction" instead!