Oops, an error
Loading. Please wait.

Hibernation Tab

3,598 views 12 this week
2 commentsread comments
1 2 3 4 5
excellent!
x 3
Autoscroll
+/-
esc
set tempo
stop
Contributor
WARNING: You are trying to view
                                    content from Ultimate-Guitar.com
                                    in an unauthorized application,
                                    which is prohibited.

                                    Please use an official Ultimate
                                    Guitar Tabs application for iPhone,
                                    iPad or Android to access legitimate
                                    chords, guitar, bass, and drum tabs
                                    from Ultimate-Guitar.com database.

                                    Type "ultimate guitar tabs" in Apple
                                    App Store's or Android Market's
                                    search to find the application.
-------------------------------------------------------------------------------
                             Hibernation - Ted Nugent
-------------------------------------------------------------------------------
Original Tabber: Unknown
Email: chrisjardine12@hotmai.com

Tuning: Eb Ab Db Gb Bb eb

|-------------------|----------------------|--------------------------|
|-------------------|----------------------|--------------------------|
|-------------------|---------------5---5--|--------------------------|
|--8------------8/--|--6------------6---6--|--8------------8--8-8-8/--|
|---------------8/--|---------------6---6--|---------------8--8-8-8/--|
|---------------6/--|---------------4---4--|---------------6--6-6-6/--|
   <<<<<<<<<           <<<<<<<<<              <<<<<<<<<
                                              w/toggle switch

(3:25)
|--13b15r13b15r13b15r13b15r13b15r13b15r13b14r13b14r13b15r13b15r13-----|
|---------------------------------------------------------------------|
|---------------------------------------------------------------------|
|---------------------------------------------------------------------|
|---------------------------------------------------------------------|
|---------------------------------------------------------------------|
   <<<<<<<<<

|--13-14-11-13-13-14-9-11-13-9-11-6-9-4-6-7---4-6-----------|
|-------------------------------------------8-----8-4-3-4-6-|
|-----------------------------------------------------------|
|-----------------------------------------------------------|
|-----------------------------------------------------------|
|-----------------------------------------------------------|
all volume swelled

(4:08)
|----------------------------------------------------------------|
|--6b8r6b8r6b8r6b8r6b8r6b8r6b8r6b8r6b8r6b8r6b8r6b8r6b8r6b8r6b8r--|
|----------------------------------------------------------------|
|----------------------------------------------------------------|
|----------------------------------------------------------------|
|----------------------------------------------------------------|


|--14-13-14-9--14-13-14-11-9-11-13-9-11-6-4-7-6-9-11-14-14--|
|-----------------------------------------------------------|
|-----------------------------------------------------------|
|-----------------------------------------------------------|
|-----------------------------------------------------------|
|-----------------------------------------------------------|

(4:48)
|-13b15r13b15r13b15r13b15r13b15r13b15r13b15r13b15r13b15r13b15r13b15r13b15r-|
|--------------------------------------------------------------------------|
|--------------------------------------------------------------------------|
|--------------------------------------------------------------------------|
|--------------------------------------------------------------------------|
|--------------------------------------------------------------------------|
hold note until 5:53

[B] (5:13)
Tempo: 80 beats/min
Bass arr. for gtr.
||-----------------|--------------|-----------------|----------------------||
||-----------------|--------------|-----------------|----------------------||
||o----------------|--------------|-----------------|---------------------o||
||o---5h6p5---/8---|-----5h6p5----|----3---4--4--6--|---------------------o||
||--6-------6------|---6-------6--|--4---4----------|----------------------||
||-----------------|--------------|-----------------|-6-6-6-6-6-6-6-6-6-6--||

[C] Verse (5:53)       [D] Theme (6:04)
Gtr. 1                   Gtr. 1 plays progression throughout
                         Gtr. 2
||--6-------|--4-------||--------------|--8--6-----------------------||
||--6-------|--4-------||------6-------|-------8-6-------------------||
||o-7-------|--5------o||o-5/7------7--|-----------/8--5-3--3-3-----o||
||o-8-------|--6------o||o-------------|------------------------5/6-o||
||--8-------|--6-------||--------------|-----------------------------||
||--6-------|--4-------||--------------|-----------------------------||


|------------------|--/8--6----------------------|
|------6---8-------|--------8-6-6\4--------------|
|--5/7--------5/7--|-------------------5-3-------|
|------------------|------------------------5/6--|
|------------------|-----------------------------|
|------------------|-----------------------------|


|------------------|--/8--6----------------------||-----------------------||
|------6---8-------|--------8-6-6\4--------------||-----------------------||
|--5/7--------5/7--|-------------------5-3-------||o-0h3-3-3-3-3-3h5p3p0-o||
|------------------|------------------------5/6--||o---------------------o||
|------------------|-----------------------------||-----------------------||
|------------------|-----------------------------||-----------------------||

% (D.S.)

||-----------------------||---------------------------------|
||-----------------------||---------------------------------|
||o-0h3-5-5-5-5-5-5p3p0-o||--5b7-7-7r5-5-5-5-5b7-7-7r5-5-5--|
||o---------------------o||---------------------------------|
||-----------------------||---------------------------------|
||-----------------------||---------------------------------|


|---------------------------------|-----------------|-----------------|
|---------------------------------|-----------------|-----------------|
|--5b7-7-5b7-7-7-5b7-7-7-7r5-5-5--|-0h3-3-3-3-0-3h5-|-0-3-3-3-3-0-3h5-|
|---------------------------------|-----------------|-----------------|
|---------------------------------|-----------------|-----------------|
|---------------------------------|-----------------|-----------------|

                To Coda
|--------------------||-----------------|-/8--6-------------------------|
|--------------4-----||------6--6h8-----|-------8-6-6h8p6---------------|
|--0h3-3-3-3p0---5---||--5/7--------7---|-----------------8--5\3--------|
|--------------------||-----------------|-------------------------5/6---|
|--------------------||-----------------|-------------------------------|
|--------------------||-----------------|-------------------------------|

                                                                 D.S al Coda
|-----------------8-8-8-8-8-8-8-8-8-8-|-8p6---------------------------8\--||
|------6--6h8-------------------------|-----8-6-6h8p6-----------------8\--||
|--5/7--------7-----------------------|---------------8-5h8p5-5\3---------||
|-------------------------------------|---------------------------5/6-----||
|-------------------------------------|-----------------------------------||
|-------------------------------------|-----------------------------------||


      (+) Coda
      [E] Guitar Solo (Gtr. 1 still plays progression)

      |--------------|---------------------|-------------|-----------------|
      |--6h8---6-----|--3h4-3----3h4--3----|--4h6--4h6-4-|-1h2-1---/13--13-|
      |--7-----------|-(3)----3---------3--|--5----5-----|-------1-/13--13-|
      |--------------|---------------------|-------------|-----------------|
      |--------------|---------------------|-------------|-----------------|
      |--------------|---------------------|-------------|-----------------|


|--------------|---------------------|-------------|-----------------------|
|--6h8---6-----|--3h4-3----3h4--3----|--4h6--4h6-4-|-1h2-1---/13-13-13-13--|
|--7-----------|-(3)----3---------3--|--5----5-----|-------1-/13-13-13-13--|
|--------------|---------------------|-------------|-----------------------|
|--------------|---------------------|-------------|-----------------------|
|--------------|---------------------|-------------|-----------------------|


|---------------------------------|--------------------|-------------------|
|---------------------------------|--18----------------|-------------------|
|--------15-17-18r17-18r17-18r17--|-----19r17---15-15--|-------------------|
|--15h17--------------------------|--------------------|--17-20p18-20p18---|
|---------------------------------|--------------------|-------------------|
|---------------------------------|--------------------|-------------------|


|-----------------------|------------------------------------|-------------|
|--------18------18-----|-----------------------18-----------|-18b20-18-18-|
|--17b19====r17--17b19--|-----15-17-17b19-17b19----19r17--15-|-------------|
|-----------------------|--17--------------------------------|-------------|
|-----------------------|------------------------------------|-------------|
|-----------------------|------------------------------------|-------------|


|-------------------||-------------16--16b18r16b18-|-16b18-----------------|
|--18---------------||-----------------------------|-------18r16-/14-------|
|-----19r17--15-----||o------18h20-----------------|-----------------15----|
|---------------18--||o18h20-----------------------|--------------------15-|
|-------------------||-----------------------------|-----------------------|
|-------------------||-----------------------------|-----------------------|

                             *   *  *
|---------------------------------------||-----13b15r13b15r13-15r13--------|
|------------16------------21b23-21-21--||---11---------------15r13-11-11\-|
|-1313131313----1717171717-------17-17-o||/12------------------------------|
|--------------------------------------o||---------------------------------|
|---------------------------------------||---------------------------------|
|---------------------------------------||---------------------------------|
*=bend 2nd time only

|-----------------------|--------------------------|-----------------------|
|----13-14p13-14p13-/13-|-13b15--------------------|-13-16\15-13-/13-13-13-|
|-/13-------------------|-------15p13--------------|-------------/13-13-13-|
|-/13-------------------|-------------15-//-//-//--|-----------------------|
|-----------------------|--------------------------|-----------------------|
|-----------------------|--------------------------|-----------------------|


|-----------------------|--------------|-------------------|---------------|
|-6-----6----6--6----6--|-6h8p6---6----|-4----4-4-4----4-4-|-4h6p4---4-----|
|-8b10--8b10-10-8b10-10-|-7-----7-5h7--|-6b8--8-8-6b8--8-8-|-5-----5-3h5---|
|-----------------------|--------------|-------------------|---------------|
|-----------------------|--------------|-------------------|---------------|
|-----------------------|--------------|-------------------|---------------|


|-----------------------|--------------|----------------|------------------|
|-6-----6----6--6----6--|-6h8p6---6----|-4------7-------|-9--------12------|
|-8b10--8b10-10-8b10-10-|-7-----7-5h7--|-6b8----9b11----|-11b13----14b16---|
|-----------------------|--------------|----------------|------------------|
|-----------------------|--------------|----------------|------------------|
|-----------------------|--------------|----------------|------------------|

[F]                    _________________________ _________________________
                       | 1.,-5.,               | | 6.
                                  (play 6 times)
||--8p6----------------|-6p4------------------||-6h8-6h8-6h8-6h8-6h8-6h8-|
||------8p6------------|-----6p4--------------||-------------------------|
||o---------7-//-//-//-|---------5-//-//-//--o||-------------------------|
||o--------------------|---------------------o||-------------------------|
||---------------------|----------------------||-------------------------|
||---------------------|----------------------||-------------------------|

                                         T         T tr~~~~~~~
|-6h8~~~-------|-8p6----------------|-------------------------|
|--------------|-----8p6------------|-------------------------|
|--------------|---------7-//-//-//-|-13h17p13--13h(17)-------|
|--------------|--------------------|-------------------------|
|--------------|--------------------|-------------------------|
|--------------|--------------------|-------------------------|


[G]

|-------------------------------------|-------------------------|
|-16p15-16p15-16p15-18p15-18p15-------|--------------------18---|
|-------------------------------15-15-|--------13h15/17b19------|
|-------------------------------------|--13h15------------------|
|-------------------------------------|-------------------------|
|-------------------------------------|-------------------------|


|-------------------------------------------|--------------------|
|-14p13-14p13-14p13-16p13-16p13-------------|-16b18--------------|
|-------------------------------13-------13-|-------17r15--13~~--|
|----------------------------------13/15----|--------------------|
|-------------------------------------------|--------------------|
|-------------------------------------------|--------------------|


|-------------------------------------|------------------------------------|
|-16p15-16p15-16p15-18p15-18p15-------|-------------------------18---------|
|-------------------------------15-15-|-------15p13-15p13-17b19----17-15\--|
|-------------------------------------|-13h15------------------------------|
|-------------------------------------|------------------------------------|
|-------------------------------------|------------------------------------|


|--------------------------|----------------------------------|
|-/13-13-13-14-16-16-16-14-|-16161616141414141313131313131313-|
|-/13-13-13-13-13-13-13-13-|-13131313131313131313131313131313-|
|--------------------------|----------------------------------|
|--------------------------|----------------------------------|
|--------------------------|----------------------------------|

[H]

|--------------------|------------------------------------|
|-/15~~--------------|-----------15\13-----13---------13--|
|-/15----------------|--------15--------------13---13-----|
|-/15----------------|-----15----------/13----------------|
|--------------------|-/13--------------------------------|
|--------------------|------------------------------------|

   .
|--18----15------------------------------------|--------15---------------|
|----------15--------16p15-----------------15--|--15/16----16-\13--------|
|------------15---15-------17p15----15--17-----|------------------13-----|
|--------------------------------15------------|---------------------13--|
|----------------------------------------------|-------------------------|
|----------------------------------------------|-------------------------|


|-----------------------------------|--4}---------------------------------|
|-----------------------------------|--4}---------------------------------|
|--19r17-15-17b19-17b19-17-17b19~~--|--5}---------15h17-15----15h17-15----|
|-----------------------------------|--6}------------------18----------18-|
|-----------------------------------|--6}---------------------------------|
|-----------------------------------|--4}---------------------------------|


|------------------------|------------------------|-----------------------|
|------------------------|--18--------------------|--18b21-18~~-------16--|
|--17b19r17-15-17b19~~~--|-----19r17-15-17-13-----|-----------------------|
|------------------------|--------------------13--|-----------------------|
|------------------------|------------------------|-----------------------|
|------------------------|------------------------|-----------------------|


|---------------------------------|---------------------------------|
|--15h16--14-13--14--16-----------|-18b21--18-18-18-18b20-----------|
|------------------------------15-|-----------------------19r17-15--|
|------------------------13/15----|---------------------------------|
|---------------------------------|---------------------------------|
|---------------------------------|---------------------------------|


|-----------------------------------------|-------------------|
|-----------------------------------------|-------------------|
|--15h17-15----15h17-15-----15--17--15----|--15h17--15--------|
|-----------18----------18-------------18-|-------------15----|
|-----------------------------------------|-------------------|
|-----------------------------------------|-------------------|

[I]
fingerstyle     .  . .  .  .   .  .                 .   .     . 
|-----------------------------------------|---------------------------|
|-----15\13----13-11-9--11-13-15-13-11----|-11/16--13--11-9---11-13---|
|-----------------------------------------|---------------------------|
|--15----13----13-12-10-12-13-15-13-12----|-12/17--13--12-10--12-13---|
|-----------------------------------------|---------------------------|
|-----------------------------------------|---------------------------|

                .  .  .  .  .      .  .  .  .  .  .  .  .  .  .  .  .  
|-------------------------------|---------------------------------------|
|--13/15-----13/15-13-11-13-15--|--13-11-13-11-9--11-13-11-9--13-11-9---|
|-------------------------------|---------------------------------------|
|--13/15-----13/15-13-12-13-15--|--13-12-13-12-10-12-13-12-10-13-12-10--|
|-------------------------------|---------------------------------------|
|-------------------------------|---------------------------------------|


|-------------------|-------------------|--15h18-15-15-13h15-13----15-13---|
|-11-11-13-15-11-13-|-15\13-11-9--11-13-|-----------------------15-------15|
|-------------------|-------------------|----------------------------------|
|-12-12-13-15-12-13-|-15\13-12-10-12-13-|----------------------------------|
|-------------------|-------------------|----------------------------------|
|-------------------|-------------------|----------------------------------|


|-------------------------|-13h15-13h15--13h15-13h15-13h15-13h15-13h15--|
|-------------------------|-15----15-----15----15----15----15----15-----|
|-------------------------|---------------------------------------------|
|--15h17p15-13------------|---------------------------------------------|
|--------------15-13-\11--|---------------------------------------------|
|-------------------------|---------------------------------------------|

        tr~~~                                        .  .   .
|------------------------|------------------|------------------|
|------------------------|--------11--------|---------------9--|
|--15p(13)------13-------|--10b12----12r10--|--8-----8--10-----|
|------------13----------|------------------|----/10-----------|
|------------------15~~--|------------------|------------------|
|------------------------|------------------|------------------|

   .  .                .
|--------------13------13-------|-----------------------------------|
|--11-13-15-16------16----16-15-|--15h16-15----15h16-16-------------|
|-------------------------------|-----------17-----------13---13h15-|
|-------------------------------|-----------------------------------|
|-------------------------------|-----------------------------------|
|-------------------------------|-----------------------------------|


|--------------------------------|----------------------------|
|--------------------------------|----------------------------|
|--------------------------------|-------------------10r8--6--|
|--15--17-17h18-17-15-13-12--12--|-12h13-11-10-11-13----------|
|--------------------------------|----------------------------|
|--------------------------------|----------------------------|


|-----------------------------------------------|--------------------|
|------------------------------------11------11-|------9-----9-------|
|--8b10--1010101010101010-6-8-6-8b10----8b10----|--6h8---6h8---8p6---|
|-----------------------------------------------|------------------6-|
|-----------------------------------------------|--------------------|
|-----------------------------------------------|--------------------|

[J]
                                        (play 6 times)
||--8p6-------------------|-6p4---------------------||
||------8p6---------------|-----6p4-----------------||
||o---------7-//-//-//-//-|---------5-//-//-//-//--o||
||o-----------------------|------------------------o||
||------------------------|-------------------------||
||------------------------|-------------------------||

[K]

||--6-----6-----6-----6-----6---------6-|-4-----4-----4-----4-----4------4-||
||--6-----6-----6-----6-----6---------6-|-4-----4-----4-----4-----4------4-||
||o-7-----7-----7-----7-----8---------7-|-5-----5-----5-----5-----6------5o||
||o-8-----8-----8-----8-----8---------8-|-6-----6-----6-----6-----6------6o||
||--8-----8-----8-----8-----8---------8-|-6-----6-----6-----6-----6------6-||
||--6-x-x-6-x-x-6-x-x-6-x-x-6-x-x-x-x-6-|-4-x-x-4-x-x-4-x-x-4-x-x-4-x-x--4-||


|----------------|----------------------------------|
|----------------|----------------------------------|
|------rest------|--5-------5-------5-------5-------|
|----------------|----6---6---6---6---6---6---6---6-|
|----------------|------6-------6-------6-------6---|
|----------------|----------------------------------|


|----------------------------------|-----------------------------------|
|----------------------------------|--4-4-4-4-7-7-7-7-9-9-9-9-9-9-9-9--|
|--7-------7-------7-------7-------|--5-5-5-5-5-5-5-5-5-5-5-5-5-5-5-5--|
|----8---8---8---8---8---8---8---8-|--6-6-6-6-6-6-6-6-6-6-6-6-6-6-6-6--|
|------8-------8-------8-------8---|-----------------------------------|
|----------------------------------|-----------------------------------|
                  __________________ ___________________
                  |1.              | |2.
||----------------|----------------||----------16------|
||--/15-----------|--/13-----------||--13------13------|
||o-/15-----7-----|--/13-----5----o||--13------13------|
||o--/------8-----|---/------6----o||--/-------/-------|
||---/------8-----|---/------6-----||--/-------/-------|
||---/------6-----|---/------4-----||--/-------/-------|


||------------------------|------------------------------------||
||------------------------|------------------------------------||
||o-15------15--17-----15-|-13--13----------------------------o||
||o-15--15--15--15--15-15-|-13--13h15p13-------13----13----13-o||
||------17----------------|--------------15-13-11-13-11-13-11--||
||------------------------|------------------------------------||


|-----------------------|-----------------------|
|-----------------------|-----------------------|
|--0h3-3-3-3-3-3h5p3p0--|--0h3-3-3-3-3-3h5p3p0--|
|-----------------------|-----------------------|
|-----------------------|-----------------------|
|-----------------------|-----------------------|


||-----------------------||---------------------------------|
||-----------------------||---------------------------------|
||o-0h3-5-5-5-5-5-5p3p0-o||--5b7-7-7r5-3-3-3-5b7-7-7r5-3-3--|
||o---------------------o||---------------------------------|
||-----------------------||---------------------------------|
||-----------------------||---------------------------------|


|-------------16-16-16-16--||--8p6----------------|--6p4-----------------||
|--1--1--1--1/13-13-13-13--||------8p6------------|------6p4-------------||
|--1--1--1--1/13-13-13-13--||o---------7-//-//-//-|----------5-//-//-//-o||
|--------------------------||o--------------------|---------------------o||
|--------------------------||---------------------|----------------------||
|--------------------------||---------------------|----------------------||

[L]

Doubled 8va                                                   (play 4 times)
||---------------|--------------------|--------------|--------------------||
||---------------|--------------------|--------------|--------------------||
||o--------------|--------------------|--------------|-------------------o||
||o--------------|--------------------|--------------|-------------------o||
||--5555-5-6-8---|--5--555-6-88885555-|-6666-6-4-3---|-6--666-4-33333333--||
||--6666-6-6-6---|--6--666-6-66666666-|-4444-4-4-4---|-4--444-4-44444444--||

        tr~~~~~       tr~~~~~
||-------------|-------------||---------------|---------------------|
||-------------|-------------||---------------|---------------------|
||o------------|------------o||--10-----------|--8/10/12/13---------|
||o-10h(12)----|--10h(13)---o||---------------|---------------------|
||-------------|-------------||---------------|---------------------|
||-------------|-------------||---------------|---------------------|


|---------------|------------------------------|------------------------|
|---------------|------------------------------|-----------------21p10--|
|--12/13/15-----|--13h15p13/15/17\15\13/15/17--|--17--17--17h19---------|
|---------------|------------------------------|------------------------|
|---------------|------------------------------|------------------------|
|---------------|------------------------------|------------------------|


|------------------|------------------------------|
|------------------|-20-20\16-16\13--20--16-------|
|--20-17-20-19-17--|-------------------------17---|
|------------------|------------------------------|
|------------------|------------------------------|
|------------------|------------------------------|


|--------------------------------|-----------------------------------|
|--20-19-18-20-19-18-20-19-18-20-|-20\16-16\13-13---20--16-----20-19-|
|--------------------------------|-------------------------17--------|
|--------------------------------|-----------------------------------|
|--------------------------------|-----------------------------------|
|--------------------------------|-----------------------------------|



|----------------------------------------||-------------------------||
|-18-20-19-18-20-19-18-20p19-19-19-19p18-||--18b20r18b20r18b20r18b--||
|----------------------------------------||o-----------------------o||
|----------------------------------------||o-----------------------o||
|----------------------------------------||-------------------------||
|----------------------------------------||-------------------------||

[M] Outro

||-------------||-----------------||--6----------------||--6--------------||
||--18---------||--18b20r18b21~~--||--6----------------||--6--------------||
||o-----------o||o---------------o||--7----------------||o-7-------------o||
||o-----------o||o---------------o||--8------------x/--||o-8-------------o||
||-------------||-----------------||--8------------x/--||--8--------------||
||-------------||-----------------||--6------------x/--||--6--------------||
                                                           tp

|--22p20p18-22p20p18-22p20p18-22p20p18-22p20p18-22p20p18-22p20p18-22p20p18-|
|--------------------------------------------------------------------------|
|--------------------------------------------------------------------------|
|--------------------------------------------------------------------------|
|--------------------------------------------------------------------------|
|--------------------------------------------------------------------------|


||------------------||---------------------|--6\-----------------||
||--/15----/15------||--15-----------------|--6\-----------------||
||o-----15-----15--o||--15-----------------|--7\-----------------||
||o-----15-----15--o||--15-----------------|--8\-----------------||
||------------------||---------------------|--8\-----------------||
||------------------||---------------------|--6\-----------------||


| <  compression/sustain
| /  slide up
| \  slide down
| h  hammer-on
| p  pull-off
| ~  vibrato
| +  harmonic
| x  Mute note
===============================================================================
comments
We did not receive enough feedback on this tab! Please rate:
print report bad tab
1 2 3 4 5
2 comments total.
0 reply
travislausch wrote on February 23 2007, 08:58 pm

I'm the original tabber. Took me a couple days about 5 years ago to finish it, it did. I think I still have the paper I wrote with this on it.

I should fix it up a bit though, it's been a long time.

0 reply
DC42 wrote on March 4 2012, 05:04 pm

Outstanding effort and work. Thanks!

I want to post or [tab]
guest
You may want to rate the tab now too:
select rating
Please do not post tabs as comments. Select "correction" instead!