Oops, an error
Loading. Please wait.

Con Tab

ver4
ver4

Whole song

Interactive

More versions @911Tabs.com
26,653 views 54 this week
4 commentsread comments
1 2 3 4 5
excellent!
x 8
Autoscroll
+/-
esc
set tempo
stop
Hey! There's an official Ultimate Guitar app which is ideal
for learning songs when you're away from computer. Get the app
WARNING: You are trying to view
                                    content from Ultimate-Guitar.com
                                    in an unauthorized application,
                                    which is prohibited.

                                    Please use an official Ultimate
                                    Guitar Tabs application for iPhone,
                                    iPad or Android to access legitimate
                                    chords, guitar, bass, and drum tabs
                                    from Ultimate-Guitar.com database.

                                    Type "ultimate guitar tabs" in Apple
                                    App Store's or Android Market's
                                    search to find the application.
Here is the whole song for both guitars - Tegan's guitar seems to be in a weird open
CGDGBD, but with a capo on fret 1, and the tab for Guitar 1 is in relation to the capo. I
out this part by listening, watching live acoustic sets, and The Con chapter off the 
You can be kind of loose with the open strings, because they all generally fit.

The second guitar (played by Sara live) is kind of a mixture between what I hear on the
and what I see Sara playing in acoustic clips when they play without a bassist.

This tab was created using Power Tab Editor


   Gtr I
     E  E  E  E  E  E  E E   E E E E E E E E  6x
||-------------------------|------------------||-|
||o----------------------0-|-0---------------o||-|
||---0--0--0--0--0--0--0-0-|-0-0-0-0-0-0-0-0--||-|
||---x--x--x--x--x--x--x-0-|-0-x-x-x-x-x-x-x--||-|
||o-12-12-12-12-12-11-11---|---5-5-5-5-7-7-7-o||-|
||-------------------------|------------------||-|

"Calm down.."
     E  E  E  E  E  E  E  E   E E E E E E E E
||--------------------------|-----------------|
||o-------------------------|-----------------|
||---0--0--0--0--0--0--0--0-|-0-0-0-0-0-0-0-0-|
||---x--x--x--x--x--x--x--x-|-x-x-x-x-x-x-x-x-|
||o-12-12-12-12-11-11-11-11-|-5-5-5-5-7-7-7-7-|
||--------------------------|-----------------|
|
|   Gtr II
|    E  E  E  E  E  E  E  E   E E E E E E
||--------------------------|-----------------|
||o-------------------------|-----------------|
||--------------------------|-6-6-----8-8-----|
||---3--3--------3--3-------|-6-6-----8-8-----|
||o--3--3--------3--3-------|-4-4-----6-6-----|
||---1--1--------1--1-------|-----------------|


   E  E  E  E  E  E  E  E   E E E E E E E E
|-------------------------|------------------||-|
|-------------------------|-----------------o||-|
|--0--0--0--0--0--0--0--0-|-0-0-0-0-0-0-0-0--||-|
|--x--x--x--x--x--x--x--x-|-x-x-x-x-x-x-x-x--||-|
|-12-12-12-12-11-11-11-11-|-5-5-5-5-7-7-7-7-o||-|
|-------------------------|------------------||-|
|
| Gtr II
|  E  E  E  E  E  E  E  E   E E E E E E E E
|-------------------------|------------------||-|
|-------------------------|-----------------o||-|
|-------------------------|-6-6-----5-5------||-|
|--3--3--------3--3-------|-6-6-----6-6------||-|
|--3--3--------3--3-------|-4-4-----3-3-----o||-|
|--1--1--------1--1-------|------------------||-|


"Coming around..."
  E E E E E E E E   E E E E E E E E   E E E E E E E E   E E E E E E E E
|-----------------|-----------------|-----------------|-----------------|
|-0-0-0-0-0-0-0-0-|-0-0-0-0-0-0-0-0-|-0-0-0-0-0-0-0-0-|-0-0-0-0-0-0-0-0-|
|-0-0-0-0-0-0-0-0-|-0-0-0-0-0-0-0-0-|-0-0-0-0-0-0-0-0-|-0-0-0-0-0-0-0-0-|
|-x-x-x-x-x-x-x-x-|-x-x-x-x-x-x-x-x-|-x-x-x-x-x-x-x-x-|-x-x-x-x-x-x-x-x-|
|-5-5-5-5-5-5-5-5-|-5-5-5-5-5-5-5-5-|-7-7-7-7-7-7-7-7-|-7-7-7-7-7-7-7-7-|
|-----------------|-----------------|-----------------|-----------------|
|
| E E E E E E E E   E E E E E E E E   E E E E E E E E   E E E E E E E E
|-----------------|-----------------|-----------------|-----------------|
|-----------------|-----------------|-----------------|-----------------|
|-6-6-6-6-6-6-6-6-|-6-6-6-6-6-6-6-6-|-8-8-8-8-8-8-8-8-|-8-8-8-8-8-8-8-8-|
|-6-6-6-6-6-6-6-6-|-6-6-6-6-6-6-6-6-|-8-8-8-8-8-8-8-8-|-8-8-8-8-8-8-8-8-|
|-4-4-4-4-4-4-4-4-|-4-4-4-4-4-4-4-4-|-6-6-6-6-6-6-6-6-|-6-6-6-6-6-6-6-6-|
|-----------------|-----------------|-----------------|-----------------|


  E E E E   E E E E E E E E   E E E E E E E E
|---------|-----0-0-----0-0-|-----0-0-----0-0-|
|-0-0-0-0-|-0-0-0-0-0-0-0-0-|-0-0-0-0-0-0-0-0-|
|-0-0-0-0-|-0-0-0-0-0-0-0-0-|-0-0-0-0-0-0-0-0-|
|-x-x-x-x-|-x-x-0-0-x-x-0-0-|-x-x-0-0-x-x-0-0-|
|-7-7-7-7-|-5-5-0-0-5-5-0-0-|-5-5-0-0-5-5-0-0-|
|---------|-----------------|-----------------|
|
| E E E E   E E E E E E E E   E E E E E E E E
|---------|-----------------|-----------------|
|---------|-----------------|-----------------|
|-8-8-8-8-|-----------------|-----------------|
|-8-8-8-8-|-6-6-----6-6-----|-6-6-----6-6-----|
|-6-6-6-6-|-4-4-6-6-4-4-6-6-|-4-4-6-6-4-4-6-6-|
|---------|-----4-4-----4-4-|-----4-4-----4-4-|


  E E E E E E E E   E E E E E E E E   E E E E E E E E   E E E E E E E E
|-----------------|-----------------|-----0-0-----0-0-|-----0-0-----0-0-|
|-0-0-0-0-0-0-0-0-|-0-0-0-0-0-0-0-0-|-0-0-0-0-0-0-0-0-|-0-0-0-0-0-0-0-0-|
|-0-0-0-0-0-0-0-0-|-0-0-0-0-0-0-0-0-|-0-0-0-0-0-0-0-0-|-0-0-0-0-0-0-0-0-|
|-x-x-x-x-x-x-x-x-|-x-x-x-x-x-x-x-x-|-x-x-0-0-x-x-0-0-|-x-x-0-0-x-x-0-0-|
|-7-7-7-7-7-7-7-7-|-7-7-7-7-7-7-7-7-|-5-5-0-0-5-5-0-0-|-5-5-0-0-5-5-0-0-|
|-----------------|-----------------|-----------------|-----------------|
|
| E E E E E E E E   E E E E E E E E   E E E E E E E E   E E E E E E E E
|-----------------|-----------------|-----------------|-----------------|
|-----------------|-----------------|-----------------|-----------------|
|-8-8-8-8-8-8-8-8-|-8-8-8-8-8-8-8-8-|-----------------|-----------------|
|-8-8-8-8-8-8-8-8-|-8-8-8-8-8-8-8-8-|-6-6-----6-6-----|-6-6-----6-6-----|
|-6-6-6-6-6-6-6-6-|-6-6-6-6-6-6-6-6-|-4-4-6-6-4-4-6-6-|-4-4-6-6-4-4-6-6-|
|-----------------|-----------------|-----4-4-----4-4-|-----4-4-----4-4-|


  E E E E E E  E  E    E  E  E  E  E E E E   E E E E E E E E   E E E E E E E E
|-------------------|----------------0-0-0-|-----------------|-----------------|
|-------------------|----------------0-0-0-|-0-0-0-0-0-0-0-0-|-0-0-0-0-0-0-0-0-|
|-0-0-0-0-0-0--0--0-|--0--0--0--0--0-0-0-0-|-0-0-0-0-0-0-0-0-|-0-0-0-0-0-0-0-0-|
|-x-x-x-x-x-x--x--x-|--x--x--x--x--x-0-0-0-|-x-x-x-x-x-x-x-x-|-x-x-x-x-x-x-x-x-|
|-7-7-7-9-9-9-11-11-|-12-12-12-12-12-0-0-0-|-5-5-5-5-5-5-5-5-|-5-5-5-5-5-5-5-5-|
|-------------------|----------------0-0-0-|-----------------|-----------------|
|
| E E E E E E  E  E    E  E  E  E  E E E E   E E E E E E E E   E E E E E E E E
|-------------------|----------------------|-----------------|-----------------|
|-------------------|----------------------|-----------------|-----------------|
|-------------------|----------------------|-----------------|-----------------|
|-------------------|----------------6-6-6-|-6-6-6-6-6-6-6-6-|-6-6-6-6-6-6-6-6-|
|-6-6-6-8-8-8-10-10-|-11-11-11-11-11-6-6-6-|-4-4-4-4-4-4-4-4-|-4-4-4-4-4-4-4-4-|
|-------------------|----------------4-4-4-|-----------------|-----------------|


Second verse
     E  E  E  E  E  E  E E   E E E E E E E E  4x
||-------------------------|------------------||-|
||o----------------------0-|-0---------------o||-|
||---0--0--0--0--0--0--0-0-|-0-0-0-0-0-0-0-0--||-|
||---x--x--x--x--x--x--x-0-|-0-x-x-x-x-x-x-x--||-|
||o-12-12-12-12-12-11-11---|---5-5-5-5-7-7-7-o||-|
||-------------------------|------------------||-|


"Calm down"
     E  E  E  E  E  E  E  E   E E E E E E E E
||--------------------------|-----------------|
||o-------------------------|-----------------|
||---0--0--0--0--0--0--0--0-|-0-0-0-0-0-0-0-0-|
||---x--x--x--x--x--x--x--x-|-x-x-x-x-x-x-x-x-|
||o-12-12-12-12-11-11-11-11-|-5-5-5-5-7-7-7-7-|
||--------------------------|-----------------|
|
|    E  E  E  E  E  E  E  E   E E E E E E
||--------------------------|-----------------|
||o-------------------------|-----------------|
||--------------------------|-6-6-----8-8-----|
||---3--3--------3--3-------|-6-6-----8-8-----|
||o--3--3--------3--3-------|-4-4-----6-6-----|
||---1--1--------1--1-------|-----------------|


   E  E  E  E  E  E  E  E   E E E E E E E E
|-------------------------|------------------||-|
|-------------------------|-----------------o||-|
|--0--0--0--0--0--0--0--0-|-0-0-0-0-0-0-0-0--||-|
|--x--x--x--x--x--x--x--x-|-x-x-x-x-x-x-x-x--||-|
|-12-12-12-12-11-11-11-11-|-5-5-5-5-7-7-7-7-o||-|
|-------------------------|------------------||-|
|
|  E  E  E  E  E  E  E  E   E E E E E E E
|-------------------------|------------------||-|
|-------------------------|-----------------o||-|
|-------------------------|-6-6-----5-5------||-|
|--3--3--------3--3-------|-6-6-----6-6------||-|
|--3--3--------3--3-------|-4-4-----3-3-----o||-|
|--1--1--------1--1-------|------------------||-|

"Coming around"
  E E E E E E E E   E E E E E E E E   E E E E E E E E   E E E E E E E E
|-----------------|-----------------|-----------------|-----------------|
|-0-0-0-0-0-0-0-0-|-0-0-0-0-0-0-0-0-|-0-0-0-0-0-0-0-0-|-0-0-0-0-0-0-0-0-|
|-0-0-0-0-0-0-0-0-|-0-0-0-0-0-0-0-0-|-0-0-0-0-0-0-0-0-|-0-0-0-0-0-0-0-0-|
|-x-x-x-x-x-x-x-x-|-x-x-x-x-x-x-x-x-|-x-x-x-x-x-x-x-x-|-x-x-x-x-x-x-x-x-|
|-5-5-5-5-5-5-5-5-|-5-5-5-5-5-5-5-5-|-7-7-7-7-7-7-7-7-|-7-7-7-7-7-7-7-7-|
|-----------------|-----------------|-----------------|-----------------|
|
| E E E E E E E E   E E E E E E E E   E E E E E E E E   E E E E E E E E
|-----------------|-----------------|-----------------|-----------------|
|-----------------|-----------------|-----------------|-----------------|
|-6-6-6-6-6-6-6-6-|-6-6-6-6-6-6-6-6-|-8-8-8-8-8-8-8-8-|-8-8-8-8-8-8-8-8-|
|-6-6-6-6-6-6-6-6-|-6-6-6-6-6-6-6-6-|-8-8-8-8-8-8-8-8-|-8-8-8-8-8-8-8-8-|
|-4-4-4-4-4-4-4-4-|-4-4-4-4-4-4-4-4-|-6-6-6-6-6-6-6-6-|-6-6-6-6-6-6-6-6-|
|-----------------|-----------------|-----------------|-----------------|


  E E E E   E E E E E E E E   E E E E E E E E
|---------|-----0-0-----0-0-|-----0-0-----0-0-|
|-0-0-0-0-|-0-0-0-0-0-0-0-0-|-0-0-0-0-0-0-0-0-|
|-0-0-0-0-|-0-0-0-0-0-0-0-0-|-0-0-0-0-0-0-0-0-|
|-x-x-x-x-|-x-x-0-0-x-x-0-0-|-x-x-0-0-x-x-0-0-|
|-7-7-7-7-|-5-5-0-0-5-5-0-0-|-5-5-0-0-5-5-0-0-|
|---------|-----------------|-----------------|
|
| E E E E   E E E E E E E E   E E E E E E E E
|---------|-----------------|-----------------|
|---------|-----------------|-----------------|
|-8-8-8-8-|-----------------|-----------------|
|-8-8-8-8-|-6-6-----6-6-----|-6-6-----6-6-----|
|-6-6-6-6-|-4-4-6-6-4-4-6-6-|-4-4-6-6-4-4-6-6-|
|---------|-----4-4-----4-4-|-----4-4-----4-4-|


  E E E E E E E E   E E E E E E E E   E E E E E E E E   E E E E E E E E
|-----------------|-----------------|-----0-0-----0-0-|-----0-0-----0-0-|
|-0-0-0-0-0-0-0-0-|-0-0-0-0-0-0-0-0-|-0-0-0-0-0-0-0-0-|-0-0-0-0-0-0-0-0-|
|-0-0-0-0-0-0-0-0-|-0-0-0-0-0-0-0-0-|-0-0-0-0-0-0-0-0-|-0-0-0-0-0-0-0-0-|
|-x-x-x-x-x-x-x-x-|-x-x-x-x-x-x-x-x-|-x-x-0-0-x-x-0-0-|-x-x-0-0-x-x-0-0-|
|-7-7-7-7-7-7-7-7-|-7-7-7-7-7-7-7-7-|-5-5-0-0-5-5-0-0-|-5-5-0-0-5-5-0-0-|
|-----------------|-----------------|-----------------|-----------------|
|
| E E E E E E E E   E E E E E E E E   E E E E E E E E   E E E E E E E E
|-----------------|-----------------|-----------------|-----------------|
|-----------------|-----------------|-----------------|-----------------|
|-8-8-8-8-8-8-8-8-|-8-8-8-8-8-8-8-8-|-----------------|-----------------|
|-8-8-8-8-8-8-8-8-|-8-8-8-8-8-8-8-8-|-6-6-----6-6-----|-6-6-----6-6-----|
|-6-6-6-6-6-6-6-6-|-6-6-6-6-6-6-6-6-|-4-4-6-6-4-4-6-6-|-4-4-6-6-4-4-6-6-|
|-----------------|-----------------|-----4-4-----4-4-|-----4-4-----4-4-|


  E E E E E E  E  E    E  E  E  E  E E E E   E E E E E E E E   E E E E E E E E
|-------------------|----------------0-0-0-|-----------------|-----------------|
|-------------------|----------------0-0-0-|-0-0-0-0-0-0-0-0-|-0-0-0-0-0-0-0-0-|
|-0-0-0-0-0-0--0--0-|--0--0--0--0--0-0-0-0-|-0-0-0-0-0-0-0-0-|-0-0-0-0-0-0-0-0-|
|-x-x-x-x-x-x--x--x-|--x--x--x--x--x-0-0-0-|-x-x-x-x-x-x-x-x-|-x-x-x-x-x-x-x-x-|
|-7-7-7-9-9-9-11-11-|-12-12-12-12-12-0-0-0-|-5-5-5-5-5-5-5-5-|-5-5-5-5-5-5-5-5-|
|-------------------|----------------0-0-0-|-----------------|-----------------|
|
| E E E E E E  E  E    E  E  E  E  E E E E   E E E E E E E E   E E E E E E E E
|-------------------|----------------------|-----------------|-----------------|
|-------------------|----------------------|-----------------|-----------------|
|-------------------|----------------------|-----------------|-----------------|
|-------------------|----------------6-6-6-|-6-6-6-6-6-6-6-6-|-6-6-6-6-6-6-6-6-|
|-6-6-6-8-8-8-10-10-|-11-11-11-11-11-6-6-6-|-4-4-4-4-4-4-4-4-|-4-4-4-4-4-4-4-4-|
|-------------------|----------------4-4-4-|-----------------|-----------------|


"Encircle me"
    E E E E E E  E  E    E  E  E  E  E E E E
||--------------------|----------------0-0-0-|
||o-------------------|----------------0-0-0-|
||--0-0-0-0-0-0--0--0-|--0--0--0--0--0-0-0-0-|
||--x-x-x-x-x-x--x--x-|--x--x--x--x--x-0-0-0-|
||o-7-7-7-9-9-9-11-11-|-12-12-12-12-12-0-0-0-|
||--------------------|----------------0-0-0-|
|
|   W                    H           E E E E
||--------------------|----------------------|
||o-------------------|----------------------|
||--------------------|----------------------|
||--------------------|----------------6-6-6-|
||o-------------------|----------------6-6-6-|
||--------------------|----------------4-4-4-|


  E E E E E E E E   E E E E E E E E   4x
|-----------------|-------------------||
|-0-0-0-0-0-0-0-0-|-0-0-0-0-0-0-0-0--o||
|-0-0-0-0-0-0-0-0-|-0-0-0-0-0-0-0-0---||
|-x-x-x-x-x-x-x-x-|-x-x-x-x-x-x-x-x---||
|-5-5-5-5-5-5-5-5-|-5-5-5-5-5-5-5-5--o||
|-----------------|-------------------||
|
|                                     4x
|-----------------|-------------------||
|-----------------|------------------o||
|-----------------|-------------------||
|-----------------|-------------------||
|-----------------|------------------o||
|-----------------|-------------------||


  E  E E E  E E E E   E  E E E  E E E E
|-------------------|-------------------|
|-0--0-0-0--0-0-0-0-|-0--0-0-0--0-0-0-0-|
|-0--0-0-0--0-0-0-0-|-0--0-0-0--0-0-0-0-|
|-x--x-x-x--x-x-x-x-|-x--x-x-x--x-x-x-x-|
|-5--5-5-5--5-5-5-5-|-5--5-5-5--5-5-5-5-|
|-------------------|-------------------|
|
| Q.     Q.     Q     Q.     Q.     Q
|-------------------|-------------------|
|-------------------|-------------------|
|-6------6------6---|-6------6------6---|
|-6------6------6---|-6------6------6---|
|-4------4------4---|-4------4------4---|
|-------------------|-------------------|


  E E E E E E E E   E E E E E E E E   E E E E
|-----------------|-----------------|---------|
|-0-0-0-0-0-0-0-0-|-0-0-0-0-0-0-0-0-|-0-0-0-0-|
|-0-0-0-0-0-0-0-0-|-0-0-0-0-0-0-0-0-|-0-0-0-0-|
|-x-x-x-x-x-x-x-x-|-x-x-x-x-x-x-x-x-|-x-x-x-x-|
|-7-7-7-7-7-7-7-7-|-7-7-7-7-7-7-7-7-|-7-7-7-7-|
|-----------------|-----------------|---------|

"to cry"
  E E E E E E E E   E E E E E E E E   E E E E E E E E   E E E E E E E E
|-----0-0-----0-0-|-----0-0-----0-0-|-----------------|-----------------|
|-0-0-0-0-0-0-0-0-|-0-0-0-0-0-0-0-0-|-0-0-0-0-0-0-0-0-|-0-0-0-0-0-0-0-0-|
|-0-0-0-0-0-0-0-0-|-0-0-0-0-0-0-0-0-|-0-0-0-0-0-0-0-0-|-0-0-0-0-0-0-0-0-|
|-x-x-0-0-x-x-0-0-|-x-x-0-0-x-x-0-0-|-x-x-x-x-x-x-x-x-|-x-x-x-x-x-x-x-x-|
|-5-5-0-0-5-5-0-0-|-5-5-0-0-5-5-0-0-|-7-7-7-7-7-7-7-7-|-7-7-7-7-7-7-7-7-|
|-----------------|-----------------|-----------------|-----------------|
|
| E E E E E E E E   E E E E E E E E
|-----------------|-----------------|-----------------|-----------------|
|-----------------|-----------------|-----------------|-----------------|
|-----------------|-----------------|-----------------|-----------------|
|-----------------|-----------------|-----------------|-----------------|
|-----6-6-----6-6-|-----6-6-----6-6-|-----------------|-----------------|
|-----4-4-----4-4-|-----4-4-----4-4-|-----------------|-----------------|


  E E E E E E E E   E E E E E E E E
|-----0-0-----0-0-|-----0-0-----0-0-|
|-0-0-0-0-0-0-0-0-|-0-0-0-0-0-0-0-0-|
|-0-0-0-0-0-0-0-0-|-0-0-0-0-0-0-0-0-|
|-x-x-0-0-x-x-0-0-|-x-x-0-0-x-x-0-0-|
|-5-5-0-0-5-5-0-0-|-5-5-0-0-5-5-0-0-|
|-----------------|-----------------|
|
| E E E E E E E E   E E E E E E E E
|-----------------|-----------------|
|-----------------|-----------------|
|-----------------|-----------------|
|-----------------|-----------------|
|-----6-6-----6-6-|-----6-6-----6-6-|
|-----4-4-----4-4-|-----4-4-----4-4-|


"Nobody nobody nobody"
   E  E  E  E  E  E E E   E E E E E E E E
|-----------------------|-----------------|
|--0--0--0--0--0--0-0-0-|-0-0-0-0-0-0-0-0-|
|--0--0--0--0--0--0-0-0-|-0-0-0-0-0-0-0-0-|
|--x--x--x--x--x--x-x-x-|-x-x-x-x-x-x-x-x-|
|-12-12-12-11-11-11-9-9-|-9-7-7-7-4-4-4-4-|
|-----------------------|-----------------|
|
|  E  E  E  E  E  E E E   E E E E E E E E
|-----------------------|-----------------|
|-----------------------|-----------------|
|--6--6--6--6--6--6-6-6-|-6-6-6-6-6-6-6-6-|
|--6--6--6--6--6--6-6-6-|-6-6-6-6-6-6-6-6-|
|--4--4--4--4--4--4-4-4-|-4-4-4-4-4-4-4-4-|
|-----------------------|-----------------|


  E E E E E E  E  E    E  E  E  E  E E E E
|-------------------|----------------0-0-0-|
|-0-0-0-0-0-0--0--0-|--0--0--0--0--0-0-0-0-|
|-0-0-0-0-0-0--0--0-|--0--0--0--0--0-0-0-0-|
|-x-x-x-x-x-x--x--x-|--x--x--x--x--x-0-0-0-|
|-7-7-7-9-9-9-11-11-|-11-12-12-12-12-0-0-0-|
|-------------------|----------------0-0-0-|
|
| E E E E E E  E  E    E  E  E  E  E E E E
|-------------------|----------------------|
|-------------------|----------------------|
|-8-8-8-8-8-8--8--8-|--8--8--8--8--8-------|
|-8-8-8-8-8-8--8--8-|--8--8--8--8--8-6-6-6-|
|-6-6-6-6-6-6--6--6-|--6--6--6--6--6-6-6-6-|
|-------------------|----------------4-4-4-|


  E E E E E E E E   E E E E E E E E
|-----------------|-----------------|
|-0-0-0-0-0-0-0-0-|-0-0-0-0-0-0-0-0-|
|-0-0-0-0-0-0-0-0-|-0-0-0-0-0-0-0-0-|
|-x-x-x-x-x-x-x-x-|-x-x-x-x-x-x-x-x-|
|-5-5-5-5-5-5-5-5-|-5-5-5-5-5-5-5-5-|
|-----------------|-----------------|
|
| E E E E E E E E   E E E E E E E E
|-----------------|-----------------|
|-----------------|-----------------|
|-6-6-6-6-6-6-6-6-|-6-6-6-6-6-6-6-6-|
|-6-6-6-6-6-6-6-6-|-6-6-6-6-6-6-6-6-|
|-4-4-4-4-4-4-4-4-|-4-4-4-4-4-4-4-4-|
|-----------------|-----------------|

"Encircle me"
    E E E E E E  E  E    E  E  E  E  E E E E
||--------------------|----------------0-0-0-|
||o-------------------|----------------0-0-0-|
||--0-0-0-0-0-0--0--0-|--0--0--0--0--0-0-0-0-|
||--x-x-x-x-x-x--x--x-|--x--x--x--x--x-0-0-0-|
||o-7-7-7-9-9-9-11-11-|-12-12-12-12-12-0-0-0-|
||--------------------|----------------0-0-0-|
|
|   E E E E E E  E  E    E  E  E  E  E E E E
||--------------------|----------------------|
||o-------------------|----------------------|
||--------------------|----------------------|
||--------------------|----------------6-6-6-|
||o-6-6-6-8-8-8-10-10-|-11-11-11-11-11-6-6-6-|
||--------------------|----------------4-4-4-|


  E E E E E E E E   E E E E E E E E 3x
|-----------------|-----------------||
|-0-0-0-0-0-0-0-0-|-0-0-0-0-0-0-0-0o||
|-0-0-0-0-0-0-0-0-|-0-0-0-0-0-0-0-0-||
|-x-x-x-x-x-x-x-x-|-x-x-x-x-x-x-x-x-||
|-5-5-5-5-5-5-5-5-|-5-5-5-5-5-5-5-5o||
|-----------------|-----------------||
|
| E E E E E E E E   E E E E E E E E 3x
|-----------------|-----------------||
|-----------------|----------------o||
|-----------------|-----------------||
|-6-6-6-6-6-6-6-6-|-6-6-6-6-6-6-6-6-||
|-4-4-4-4-4-4-4-4-|-4-4-4-4-4-4-4-4o||
|-----------------|-----------------||


  E E E E E E  E  E    E  E  E  E  E E E E
|-------------------|----------------0-0-0-|----|
|-------------------|----------------0-0-0-|----|
|-0-0-0-0-0-0--0--0-|--0--0--0--0--0-0-0-0-|----|
|-x-x-x-x-x-x--x--x-|--x--x--x--x--x-0-0-0-|----|
|-7-7-7-9-9-9-11-11-|-12-12-12-12-12-0-0-0-|----|
|-------------------|----------------0-0-0-|----|
|
| E E E E E E  E  E    E  E  E  E  E E E E
|-------------------|----------------------|----|
|-------------------|----------------------|----|
|-------------------|----------------------|----|
|-------------------|----------------3-3-3-|----|
|-6-6-6-8-8-8-10-10-|-11-11-11-11-11-3-3-3-|----|
|-------------------|----------------1-1-1-|----|
comments
print report bad tab
4 comments total. Showing first comments.
0 reply
plasmasex wrote on October 10 2007, 07:54 pm

more accurate than the other three tabs. thanks!

0 reply
littlebarrie7 wrote on October 19 2007, 03:41 am

the tuning is right on this one, well done

0 reply
urf_ wrote on August 29 2009, 10:19 pm

I assume that guitar 2 isn't tuned the same as guitar 1? In standard tuning instead?

I want to post or [tab]
guest
You may want to rate the tab now too:
select rating
Please do not post tabs as comments. Select "correction" instead!