Oops, an error
Loading. Please wait.

So Jealous Tab

13,430 views 12 this week
8 commentsread comments
1 2 3 4 5
worth learning
x 16
add to favorites launch autoscroll
font size
0
reset
Autoscroll
+/-
esc
set tempo
stop
Contributor
WARNING: You are trying to view
                                    content from Ultimate-Guitar.com
                                    in an unauthorized application,
                                    which is prohibited.

                                    Please use an official Ultimate
                                    Guitar Tabs application for iPhone,
                                    iPad or Android to access legitimate
                                    chords, guitar, bass, and drum tabs
                                    from Ultimate-Guitar.com database.

                                    Type "ultimate guitar tabs" in Apple
                                    App Store's or Android Market's
                                    search to find the application.
So Jealous Album by Tegan and Sara (2004)
All songs tabbed by kjcowgirl19
This is a great album by a great group and if you don't have it what are you waiting 
Go buy it! And buy The Con when it comes out on July 24th!

Track List
1. You Wouldn't Like Me
2. Take Me Anywhere
3. I Bet It Stung
4. I Know I Know I Know
5. Where Does The Good Go?
6. Downtown
7. I Won't Be Left
8. Walking With A Ghost
9. So Jealous
10. Speak Slow
11. Wake Up Exhausted
12. We Didn't Do It
13. Fix You Up
14. I Can't Take It

*Listen to each song for strumming patterns*
----------------------------------------------------------------------------
1. You Wouldn't Like me
Written by Tegan Quin
Standard Tuning

e I---------------|I
B I---------------|I
G I---------------|I
D I---12----7-----|I
A I---12----7-----|I
E I---10----5-----|I
There's a war inside of me
Do I cause new heartbreak to write a new broken song
Do I push it down or let it run me right into the ground

e I---------------|I
B I---------------|I
G I---------------|I
D I---5—-9—-7-----|I
A I---5—-9—-7-----|I
E I---3—-7—-5-----|I
I feel like I wouldn't like me if I met me

e I---------------|I
B I---------------|I
G I---------------|I
D I---12----7-----|I
A I---12----7-----|I
E I---10----5-----|I
Well I can't stop talking for fear of listening to unwelcome sound
And you haven't called me in weeks and honestly it's bringing me down

e I---------------|I
B I---------------|I
G I---------------|I
D I---5—-9—-7-----|I
A I---5—-9—-7-----|I
E I---3—-7—-5-----|I
I feel like I wouldn't like me if I met me
I feel like you wouldn't like me if I met me

e I---------------|I
B I---------------|I
G I---12----------|I
D I---12----12----|I
A I---10----12----|I
E I---------10----|I
And don't you worry there's still time
Don't you worry there's still time

e I---------------|I
B I---------------|I
G I---------------|I
D I---12----7-----|I
A I---12----7-----|I
E I---10----5-----|I
There's nothing to live for when I'm sleeping alone
And I wash the windows outside in hopes that the glare will bring you around

e I---------------|I
B I---------------|I
G I---------------|I
D I---5—-9—-7-----|I
A I---5—-9—-7-----|I
E I---3—-7—-5-----|I
I feel like I wouldn't like me if I met me
I feel like you wouldn't like me if you met me

e I---------------|I
B I---------------|I
G I---12----------|I
D I---12----12----|I
A I---10----12----|I
E I---------10----|I
So don't you worry there's still time
Don't you worry there's still time
Don't you worry there's still time
Don't you worry there's still time

e I---------------|I
B I---------------|I
G I-----12—14—12--|I
D I-12—-12—14—12--|I
A I-12—-10-12—10--|I
E I-10------------|I
Sunshine is days away I won't be saved I know all the words
I can't say that I'll love you forever
Sunshine is days away I won't be saved I know all the words
I won't say that I'll love you forever

e I-------|I
B I-------|I
G I—-----I
D I--12—-I
A I--12—-I
E I--10--I

----------------------------------------------------------------------------
2. Take Me Anywhere
Written by Tegan Quin
Standard Tuning

E---------------------|I
B---------------------|I
G--13--------10---8---|I
D--13---13---10---8---|I
A--11---13---8----6---|I
E-------11------------|I
Bright just like the stars above me
Proud just like my mother planned it
Short on all the things I don't want
I'm full of love and longing

E-----------------|I
B-----------------|I
G--10---13--------|I
D--10---13---13---|I
A---8---11---13---|I
E------------11---|I
Take me by the hand and tell me
You would take me anywhere
You would take me anywhere

E---------------------|I
B---------------------|I
G--13--------10---8---|I
D--13---13---10---8---|I
A--11---13---8----6---|I
E-------11------------|I
Still, cause I don't want to move a thing
In hopes that you’ll fit right into me
And all the things I don't want they're full
Of love and longing

E-----------------|I
B-----------------|I
G--10---13--------|I
D--10---13---13---|I
A---8---11---13---|I
E------------11---|I
Take me by the hand and tell me
You would take me anywhere
You would take me anywhere
Take me by the hand and tell me
You would take me anywhere
You would take me anywhere

E-----------|I
B-----------|I
G-----------|I
D--11--13---|I
A--11--13---|I
E--9---11---|I
And it goes, its like a come on come on to me
And it goes it's like a come on come on to me

E---------------------|I
B---------------------|I
G--13--------10---8---|I
D--13---13---10---8---|I
A--11---13---8----6---|I
E-------11------------|I
You, you say you don't see any part of me
To love in all this mess and I know
You take the good and all the bad that comes with me

E-----------------|I
B-----------------|I
G--10---13--------|I
D--10---13---13---|I
A---8---11---13---|I
E------------11---|I
Take me by the hand and tell me
You would take me anywhere
You would take me anywhere
Take me by the hand and tell me
You would take me anywhere
You would take me anywhere

E-----------|I
B-----------|I
G-----------|I
D--11--13---|I
A--11--13---|I
E--9---11---|I
And it goes, its like a come on come on to me x4

E-------------|I
B-------------|I
G--13---------|I
D--13--13--I--| x4
A--11--13-----|I
E------11-----|I

----------------------------------------------------------------------------
3. I Bet It Stung
Written by Sara Quin
Drop A String to G

E-----------|I
B-----------|I
G--11---6---|I
D--12---7---|I
G--12---7---|I
E--10---5---|I

E-----------|I
B-----------|I
G--11---6---|I
D--12---7---|I
G--12---7---|I
E--10---5---|I
I know you plan out everything that you want to say
I wish that we didn't have to go about things this way
I love the rock and roll, I love the rock and roll

E-----------|I
B--10-------|I
G--11---6---|I
D--12---7---|I
G--12---7---|I
E-------5---|I
Don't get so uptight, don't get so uptight

E---------------|I
B-----------7---|I
G--4---11---8---|I
D--5---12---9---|I
G--5---12---9---|I
E--3---10-------|I
Go, go away

E-----------|I
B-----------|I
G--11---6---|I
D--12---7---|I
G--12---7---|I
E--10---5---|I

E-----------|I
B-----------|I
G--11---6---|I
D--12---7---|I
G--12---7---|I
E--10---5---|I
Tell me you love me like you think you want to be loved
Pull on my hand and say, please just let's make it this way
I love the rock and roll, I love the rock and roll

E-----------|I
B--10-------|I
G--11---6---|I
D--12---7---|I
G--12---7---|I
E-------5---|I
Don't get so uptight, don't get so uptight

E-------------------|I
B-----------7---7---|I
G--4---11---8-------|I
D--5---12---9---9---|I
G--5---12---9---9---|I
E--3---10-----------|I
Go, go away
Go, go away
----------------------------------------------------------------------------
4. I Know I Know I Know
Written by Tegan Quin
Standard Tuning

e---------------------|
B---------------------|
G---12---9----7-------|
D---13---10---8-------|
A---13---10---8-------|
E---11---8----6-------|
From hundreds of miles you cry like a baby
You plead with me, shout, scream, tell me I'm staying
I know I know I know, I'm still your love
Back from the last place that I wanted to fake you
Laugh with me, shout, scream now tell me you're staying
I know I know I know, you're still my love

e-------------------|
B-------------------|
G---5-------7-------|
D---6-------8-------|
A---6-------8-------|
E---4-------6-------|
The same as I love you, you'll always love me too
This love isn't good unless it's me and you

e---------------------|
B---------------------|
G---12---9----7-------|
D---13---10---8-------|
A---13---10---8-------|
E---11---8----6-------|
Box after box and you're still by my side
The weather is changing and breaking my stride
I know I know I know, it's just this day
House after house, just like car after car
You see club after club and it all seems so far
I know I know I know what else are we here for

e-------------------|
B-------------------|
G---5-------7-------|
D---6-------8-------|
A---6-------8-------|
E---4-------6-------|
The same as I love you, you'll always love me too
This love isn't good unless it's me and you

e--------------------|
B--------------------|
G---12---9----5---7--|
D---13---10---6---8--|
A---13---10---6---8--|
E---11---8----4---6--|
Stick your hands inside of my pockets
Keep them warm while I'm still here
Tell them this love hasn't changed me, hasn't changed me at all


e---------------------|
B---------------------|
G---12---9----7-------|
D---13---10---8-------|
A---13---10---8-------|
E---11---8----6-------|
Last night I was writing about you
I know my screaming and shouting won't keep you
I know I know I know, you're still my love
I wake up to the sound of you working
You're one room right over, stressing and loving me
I know I know I know, be still my love

e-------------------|
B-------------------|
G---5-------7-------|
D---6-------8-------|
A---6-------8-------|
E---4-------6-------|
The same as I love you, you'll always love me too
This love isn't good unless it's me and you

e--------------------|
B--------------------|
G---12---9----5---7--|
D---13---10---6---8--|
A---13---10---6---8--|
E---11---8----4---6--|
Stick your hands inside of my pockets
Keep them warm while I'm still here
Tell them this love hasn't changed me, hasn't changed me at all
Stick your heart inside of my chest
Keep it warm here while we rest
Tell them this love hasn't changed me, hasn't changed me at all

e-------------------|
B-------------------|
G---5-------7-------|
D---6-------8-------|
A---6-------8-------|
E---4-------6-------|
The same as I love you, you'll always love me too
This love isn't good unless it's me and you
The same as I love you, you'll always love me too
This love isn't good unless it's me and you

e--------------------|
B--------------------|
G---12---9----5---7--|
D---13---10---6---8--|
A---13---10---6---8--|
E---11---8----4---6--|

e---------------------------------------------------------------------------|
B---------------------------------------------------------------------------|
G---12---12-----------------------------------------------------------------|
D---13---13-----------------------------------------------------------------|
A---13---13-----------------------------------------------------------------|
E---11---11-----------------------------------------------------------------|
----------------------------------------------------------------------------|
5. Where Does The Good Go?
Written by Tegan Quin
Standard Tuning

e--------------------------------------------|I
B--------------------------------------------|I
G--------------------------------------------|I
D--------------------------------------------|I
A-----------------------------------6--6-6---|I
E--4---4-6-4---3---3-4-3---1---1-3-1---------|I

e--------------------------------------------|I
B--------------------------------------------|I
G--------------------------------------------|I
D--------------------------------------------|I
A-----------------------------------6--6-6---|I
E--4---4-6-4---3---3-4-3---1---1-3-1---------|I
Where do you go with your broken heart in tow
What do you do with the left over you
And how do you know, when to let go?
Where does the good go, where does the good go?

e-----------|I
B-----------|I
G--13---13--|I
D--13---13--|I
A--11---10--|I
E-----------|I
Look me in the eye and tell me you don't find me attractive
Look me in the heart and tell me you won't go
Look me in the eye and promise no love's like our love
Look me in the heart and unbreak broken, it won't happen

e----------|I
B----------|I
G--8---8---|I
D--8---8---|I
A--6---5---|I
E----------|I
It's love that leaves and breaks the seal of always thinking you would be
Real, happy and healthy, strong and calm, where does the good go
Where does the good go?

e--------------------------------------------|I
B--------------------------------------------|I
G--------------------------------------------|I
D--------------------------------------------|I
A-----------------------------------6--6-6---|I
E--4---4-6-4---3---3-4-3---1---1-3-1---------|I
Where do you go when you're in love and the world knows
How do you live so happily while I am sad and broken down
What do you say it's up for grabs now that you're on your way down
Where does the good go, where does the good go?

e-----------|I
B-----------|I
G--13---13--|I
D--13---13--|I
A--11---10--|I
E-----------|I
Look me in the eye and tell me you don't find me attractive
Look me in the heart and tell me you won't go
Look me in the eye and promise no love's like our love
Look me in the heart and unbreak broken, it won't happen

e----------|I
B----------|I
G--8---8---|I
D--8---8---|I
A--6---5---|I
E----------|I
It's love that leaves and breaks the seal of always thinking you would be
Real, happy and healthy, strong and calm, where does the good go
Where does the good go?

e--------------------------------------------|I
B--------------------------------------------|I
G--------------------------------------------|I
D--------------------------------------------|I
A-----------------------------------6--6-6---|I
E--4---4-6-4---3---3-4-3---1---1-3-1---------|I

e--------------------------------------------|I
B--------------------------------------------|I
G--------------------------------------------|I
D--------------------------------------------|I
A-----------------------------------6--6-6---|I
E--4---4-6-4---3---3-4-3---1---1-3-1---------|I
Look me in the eye and tell me you don't find me attractive
Look me in the heart and tell me you won't go
Look me in the eye and promise no love's like our love
Look me in the heart and unbreak broken, it won't happen

e------------|I
B------------|I
G--8---8-----|I
D--8---8--I--| x2
A--6---5-----|I
E------------|I
It's love that leaves and breaks the seal of always thinking you would be
Real, happy and healthy, strong and calm, where does the good go
Where does the good go? X2
Where does the good go? x13
----------------------------------------------------------------------------
6. Downtown
Written by Sara Quin
Standard Tuning

e------------------|I
B------------------|I
G--0----0---0------|I
D--0----0---0------|I
A--12---9---10-I---|  x2
E--12---9---10-----|I

e---------------|I
B---------------|I
G--0----0---0---|I
D--0----0---0---|I
A--12---9---10--|I
E--12---9---10--|I
If you're gonna get up, you might as well get up with me
If you're going downtown, I might as well be on your way

e--------------|I
B--------------|I
G--------------|I
D--------------|I
A--2---2---4---|I
E--2---3---5---|I
And I sit all night, I sit still all night
I won't tell one soul, I won't tell one soul

e---------------|I
B---------------|I
G--0----0---0---|I
D--0----0---0---|I
A--12---9---10--|I
E--12---9---10--|I

e---------------|I
B---------------|I
G--0----0---0---|I
D--0----0---0---|I
A--12---9---10--|I
E--12---9---10--|I
I just can't get it straight you see and oh well
That distraction inside of me, oh well
I just can't get it straight you see and oh well

e--------------|I
B--------------|I
G--------------|I
D--------------|I
A--2---2---4---|I
E--2---3---5---|I
Is fine by you, I am fine by you
I won't tell one soul, I won't tell one soul

e---------------|I
B---------------|I
G--0----0---0---|I
D--0----0---0---|I
A--12---9---10--|I
E--12---9---10--|I

e---------------|I
B---------------|I
G--0----0---0---|I
D--0----0---0---|I
A--12---9---10--|I
E--12---9---10--|I
If you're going downtown, take me with you, I don't care
If I'm gonna get up, I'll just admit it, I only get up for you
If I'm gonna get up, I'll just admit it, I only get up for you

e--------------|I
B--------------|I
G--------------|I
D--------------|I
A--2---2---4---|I
E--2---3---5---|I
And I sit all night, I sit still all night
I won't tell one soul, I won't tell one soul

e----------------|I
B----------------|I
G--0---0--0--0---|I
D--0---0--0--0---|I
A--5---2--2--4---|I
E--5---2--3--5---|I
If you're going downtown, if you're going downtown yeah we can, yeah we can x2

e---------------|I
B---------------|I
G--0----0---0---|I
D--0----0---0---|I
A--12---9---10--|I
E--12---9---10--|I
If you're going downtown, if you're going downtown yeah we can, yeah we can x2

e-----------------|I
B-----------------|I
G-----------------|I
D-----------------|I
A--2---2---4---2--|I
E--2---3---5---2--|I
And I sit all night, I sit still all night
I won't tell one soul, I won't tell one soul
----------------------------------------------------------------------------
7. I Won't Be Left
Written by Tegan Quin
Tune Down Half Step (Eb Ab Db Gb Bb Eb)

eb|----------------------|I
Bb|----------------------|I
Gb|-7------11----9-------|I
Db|-7------11----9-------|I
Ab|-5-x8---9-x8--7-x16---|I
Eb|----------------------|I
I won't mistake you for problems with me
I won't let my moods ruin this you'll see
I won't take everything good and move it away
I won't be left dancing along to songs from the past

eb|---------------------------------------|
Bb|---------------------------------------|
Gb|-7--7-7---11--11-11---9--9-9---9--9-9--|
Db|-7--7-7---11--11-11---9--9-9---9--9-9--|
Ab|-5--5-5----9--9--9—---7--7-7---7--7-7--|
Eb|---------------------------------------|
Would you stay home and keep our memories warm with me
Would you give all your love for a run at the past with me

eb|---------------------------------------------|
Bb|---------------------------------------------|
Gb|-14--14-14---13--13-13---11--11-11---9--9-9--|
Db|-14--14-14---13--13-13---11--11-11---9--9-9--|
Ab|-12--12-12---11--11-13---9---9--9----7--7-7--|
Eb|---------------------------------------------|
I know you're sad even though you say that you're not
I know you're scared even though you say that you're not

eb|----------------------|I
Bb|----------------------|I
Gb|-7------11----9-------|I
Db|-7------11----9-------|I
Ab|-5-x8---9-x8--7-x16---|I
Eb|----------------------|I
I won't get mad when you say things are getting too hard
I won't make all of your love so scared to come through our yard
I won't scream in my head and let it isolate me
I won't be left dancing alone to songs from the past

eb|---------------------------------------|
Bb|---------------------------------------|
Gb|-7--7-7---11--11-11---9--9-9---9--9-9--|
Db|-7--7-7---11--11-11---9--9-9---9--9-9--|
Ab|-5--5-5----9--9--9—---7--7-7---7--7-7--|
Eb|---------------------------------------|
Would you stay home and keep our memories warm with me
Would you give all your love for a run at the past with me

eb|---------------------------------------------|
Bb|---------------------------------------------|
Gb|-14--14-14---13--13-13---11--11-11---9--9-9--|
Db|-14--14-14---13--13-13---11--11-11---9--9-9--|
Ab|-12--12-12---11--11-13---9---9--9----7--7-7--|
Eb|---------------------------------------------|
I know you're sad even though you say that you're not
I know you're scared even though you say that you're not

eb|---------------------------------------|
Bb|---------------------------------------|
Gb|-7--7-7---11--11-11---9--9-9---9--9-9--|
Db|-7--7-7---11--11-11---9--9-9---9--9-9--|
Ab|-5--5-5----9--9--9—---7--7-7---7--7-7--|
Eb|---------------------------------------|
Would you stay home and keep our memories warm with me
Would you give all your love for a run at the past with me


eb|---------------------------------------------|
Bb|---------------------------------------------|
Gb|-14--14-14---13--13-13---11--11-11---9--9-9--|
Db|-14--14-14---13--13-13---11--11-11---9--9-9--|
Ab|-12--12-12---11--11-13---9---9--9----7--7-7--|
Eb|---------------------------------------------|
I know you're sad even though you say that you're not
I know you're scared even though you say that you're not
I know you're sad even though you say that you're not
I know you're scared even though you say that you're not
----------------------------------------------------------------------------
8. Walking With A Ghost
Written By Sara Quin
Standard Tuning

e--------------------------------------|
B---10-10------------------------------|
G---11-11----11-11----13-13----13--11--|
D---11-11----12-12----14-14----14--12--|
A----9--9----12-12----14-14----14--12--|
E------------10-10----12-12----12--10--|

e--------------------------------------|
B---10-10------------------------------|
G---11-11----11-11----13-13----13--11--|
D---11-11----12-12----14-14----14--12--|
A----9--9----12-12----14-14----14--12--|
E------------10-10----12-12----12--10--|

e--------------------------------------|
B---10-10------------------------------|
G---11-11----11-11----13-13----13--11--|
D---11-11----12-12----14-14----14--12--|
A----9--9----12-12----14-14----14--12--|
E------------10-10----12-12----12--10--|
No matter which way you go
No matter which way you stay
You're out of my mind, out of my mind
Out of my mind, out of my mind

e--------------------------------------|
B----5--5------------------------------|
G----6--6-----6--6-----7--7-----7---6--|
D----6--6-----7--7-----9--9-----9---7--|
A----4--4-----7--7-----9--9-----9---7--|
E-------------5--5-----7--7-----7---5--|
I was walking with a ghost
I said please, please don't insist
I was walking with a ghost
I said please, please don't insist

e--------------------------------------|
B---10-10------------------------------|
G---11-11----11-11----13-13----13--11--|
D---11-11----12-12----14-14----14--12--|
A----9--9----12-12----14-14----14--12--|
E------------10-10----12-12----12--10--|
No matter which way you go
No matter which way you stay
You're out of my mind, out of my mind
Out of my mind, out of my mind

e--------------------------------------|
B----5--5------------------------------|
G----6--6-----6--6-----7--7-----7---6--|
D----6--6-----7--7-----9--9-----9---7--|
A----4--4-----7--7-----9--9-----9---7--|
E-------------5--5-----7--7-----7---5--|
I was walking with a ghost
I said please, please don't insist
I was walking with a ghost
I said please, please don't insist

E-------------------------------|
B---10-10-----------------------|
G---11-11--11-11--13-13------9--|
D---11-11--12-12--14-14--11--9--|
A----9--9--12-12--14-14--11--7--|
E----------10-10--12-12---9-----|
No matter which way you go
No matter which way you stay
You're out of my mind, out of my mind
Out of my mind, out of my mind

e--------------------------------------|
B---10-10------------------------------|
G---11-11----11-11----13-13----13--11--|
D---11-11----12-12----14-14----14--12--|
A----9--9----12-12----14-14----14--12--|
E------------10-10----12-12----12--10--|
I was walking with a ghost
I was walking with a ghost
Out of my mind, out of my mind
Out of my mind, out of my mind

e--------------------------------------|
B---10-10------------------------------|
G---11-11----11-11----13-13----13--11--|
D---11-11----12-12----14-14----14--12--|
A----9--9----12-12----14-14----14--12--|
E------------10-10----12-12----12--10--|
Out of my mind, out of my mind

e--------------------------------------|
B----5--5------------------------------|
G----6--6-----6--6-----7--7-----7---6--|
D----6--6-----7--7-----9--9-----9---7--|
A----4--4-----7--7-----9--9-----9---7--|
E-------------5--5-----7--7-----7---5--|
Out of my mind, out of my mind

e--------------------------------------|
B---10-10------------------------------|
G---11-11----11-11----13-13----13--11--|
D---11-11----12-12----14-14----14--12--|
A----9--9----12-12----14-14----14--12--|
E------------10-10----12-12----12--10--|
Out of my mind, out of my mind
Out of my mind, out of my mind

e--------------------------------------|
B---10-10------------------------------|
G---11-11----11-11----13-13----13--11--|
D---11-11----12-12----14-14----14--12--|
A----9--9----12-12----14-14----14--12--|
E------------10-10----12-12----12--10--|
I was walking with a ghost x6
----------------------------------------------------------------------------
9. So Jealous
Written by Sara Quin
Standard Tuning

e---------------|I
B---------------|I
G---------------|I
D--4---8---11---|I
A--4---8---11---|I
E--2---6---9----|I
I don't want to be part of the problem
I try so hard to get roughed up
Fists on up, it looks that easy
It looks that way to me
It looks that way to you
But then there's you telling me I can
Then there's you, screaming say something

e-------|I
B-------|I
G-------|I
D--12---|I
A--12---|I
E--10---|I
I want the ocean right now
I want the ocean right now

e-----------|I
B-----------|I
G-----------|I
D--4---12---|I
A--4---12---|I
E--2---10---|I
I get so jealous, that I can't even work
I get so jealous, that I can't even work

e-----------|I
B-----------|I
G-----------|I
D--12--10---|I
A--12--10---|I
E--10--8----|I
There I am in the morning
I don't like what I see
There I am in the morning
I don't like what I see

e---------------|I
B---------------|I
G---------------|I
D--4---8---11---|I
A--4---8---11---|I
E--2---6---9----|I
I don't know how it's become such a problem
Keep you up all night if I try to remain calm
How can they ask why I feel so angry
Do you see my problem if I never explain it
But then there's you asking me how long
Say something, it's taken me so long

e-------|I
B-------|I
G-------|I
D--12---|I
A--12---|I
E--10---|I
I want the ocean right now
I want the ocean right now

e-----------|I
B-----------|I
G-----------|I
D--4---12---|I
A--4---12---|I
E--2---10---|I
I get so jealous, that I can't even work
I get so jealous, that I can't even work
I get so jealous, that I can't even work
I get so jealous, that I can't even work

e-----------|I
B-----------|I
G-----------|I
D--12--10---|I
A--12--10---|I
E--10--8----|I
There I am in the morning
I don't like what I see
There I am in the morning
I don't like what I see
----------------------------------------------------------------------------
10. Speak Slow
Written by Tegan Quin
Standard Tuning

e---------------------|
B---------------------|
G---13----------------|
D---13---13---6---8---|
A---11---13---6---8---| x2
E--------11---4---6---|

e---------------------|
B---------------------|
G---13----------------|
D---13---13---6---8---|
A---11---13---6---8---|
E--------11---4---6---|
You wait up for me I don't wake up for you
Would you like the company or are you sick of me
When your love lets you go you only want love more
Even when love wasn't what you were looking for

e---------------------|
B---------------------|
G---------------------|
D---6---6-------------|
A---6---6-------------|
E---4-/-3-------------|
Speak slow, tell me love where do we go... ah ah
Where do we go...ah ah, where do we go

e---------------------|
B---------------------|
G---13----------------|
D---13---13---6---8---|
A---11---13---6---8---| x2
E--------11---4---6---|

e---------------------|
B---------------------|
G---13----------------|
D---13---13---6---8---|
A---11---13---6---8---|
E--------11---4---6---|
Break down plead your case I don't know what to say
I leave my heart all this pain and now I'm at it all again
On these streets that I leave for weeks on end who's to blame
When you want love doesn't matter what you're looking for

e---------------------|
B---------------------|
G---------------------|
D---6---6-------------|
A---6---6-------------|
E---4-/-3-------------|
Speak slow, tell me love where do we go... ah ah
Where do we go... ah ah, where do we go
Speak slow, tell me love where do we go... ah ah
Where do we go... ah ah, where do we go

e---------------------|
B---------------------|
G---------------------| x2
D---13---9---11-------|
A---13---9---11-------|
E---11---7---9--------|
Speak slow

e---------------------|
B---------------------|
G---------------------| repeat 2 times
D---13---10---8-------|
A---13---10---8-------|
E---11---8----6-------|
So far away and I just can't see you I'm
So far along and I just don't need you
I am so ah-alone, so ah-alone
So far away and I just can't see you I'm
So far along and I just don't need you
I am so ah-alone, so ah-alone

e---------------------|
B---------------------|
G---13----------------|
D---13---13---6---8---|
A---11---13---6---8---|
E--------11---4---6---|

e---------------------|
B---------------------|
G---13----------------|
D---13---13---6---8---|
A---11---13---6---8---|
E--------11---4---6---|
When your love lets you go you only want love more
Even when love wasn't what you were looking for
When your love lets you go you only want love more
Even when love wasn't what you were looking for

e---------------------|
B---------------------|
G---------------------|
D---6---6-------------|
A---6---6-------------|
E---4-/-3-------------|
Speak slow, tell me love where do we go... ah ah
Where do we go... ah ah, where do we go
Speak slow, tell me love where do we go... ah ah
Where do we go... ah ah, where do we go

e------------------------------|
B------------------------------|
G------------------------------|
D---13---9---11----13---9---11-|
A---13---9---11----13---9---11-|
E---11---7---9-----11---7---9--|
Speak slow

e----------------------------------------------------------------------------|
B----------------------------------------------------------------------------|
G--13----------------13------------------------------------------------------|
D--13---13---6---8---13---13---6---8-----------------------------------------|
A--11---13---6---8---11---13---6---8-----------------------------------------|
E-------11---4---6--------11---4---6-----------------------------------------|
-----------------------------------------------------------------------------|
11. Wake Up Exhausted
Written by Tegan Quin
Standard Tuning

e-------------------|
B-------------------|
G---7---7---8---10--|
D---8---8---8---10--|
A---8---8---6---8---|
E---6---5-----------|
I wake up exhausted it's not morning
It's back to sleep to re-dream me
We're alone and we're happy
But there you are, angry with me

e-----------|
B-----------|
G---8---7---|
D---8---8---|
A---6---5---|
E-----------|
Are you alright? I can stand up straight
Are you alright? can you get me off your mind?

e-------------|
B-------------|
G-------------|
D-------------|
A-------------|
E---5--6--13--|  x4

e-------------------|
B-------------------|
G---7---7---8---10--|
D---8---8---8---10--|
A---8---8---6---8---|
E---6---5-----------|
I hated this city before you came here
So let go and move on
We're strangers, we're not friends
I hate this and I hate them
This city's exhausted and it's wound up
Soon to be a place that's just filled up
And I found out that you're angry
And you're sorry you ever met me

e-----------|
B-----------|
G---8---7---|
D---8---8---|
A---6---5---|
E-----------|
Are you alright? I can stand up straight
Are you alright? can you get me off your mind?
Are you alright? I can stand up straight
Are you alright? can you get me off your mind?

e-------------|
B-------------|
G-------------|
D-------------|
A-------------|
E---5--6---13-|  x4

e-------------------|
B-------------------|
G---7---7---8---10--|
D---8---8---8---10--|
A---8---8---6---8---|
E---6---5-----------|
I wake up exhausted it's not morning
It's back to sleep to re-dream me
We're alone and we're happy
But there you are, angry with me

e-----------|
B-----------|
G---8---7---|
D---8---8---|
A---6---5---|
E-----------|
Are you alright? I can stand up straight
Are you alright? I can get you off my mind
Are you alright? I can stand up straight
Are you alright? can you get me off your mind?
Can you get me off your mind?

e-------------|
B-------------|
G-------------|
D-------------|
A-------------|
E---5--6---13-|
Can you get me off your mind? x4

e-------------|
B-------------|
G-------------|
D-------------| x2
A-------------|
E---5--6---13-|

End on
e----------------------------------------------------------------------------|
B----------------------------------------------------------------------------|
G----------------------------------------------------------------------------|
D---8------------------------------------------------------------------------|
A---8------------------------------------------------------------------------|
E---6------------------------------------------------------------------------|
-----------------------------------------------------------------------------|
12. We Didn't Do It
Written by Sara Quin
Standard Tuning

e-------------------------|
B-10-10--------8-8--------|
G-9--9---5-5---7-7---7-7--|
D-7--7---5-5---5-5---7-7--|
A--------3-3---------5-5--|
E-------------------------|

e-------------------------|
B-10-10--------8-8--------|
G-9--9---5-5---7-7---7-7--|
D-7--7---5-5---5-5---7-7--|
A--------3-3---------5-5--|
E-------------------------|
We didn't do it for the money,
We didn't do it for the money
I don't know why, I don't know why
We didn't do it for the money,
We didn't do it for the money
I don't care why, I don't care why
You'll go down down down
You'll go down down down

e--------------------------|
B--------------------------|
G-7-7--7-7---5-5--5-5------|
D-7-7--7-7---5-5--5-5------|
A-5-5--5-5---3-3--3-3------|
E--------------------------|
Get in my car, it's too full
Get in my car, it's too full

e-------------------------|
B-10-10--------8-8--------|
G-9--9---5-5---7-7---7-7--|
D-7--7---5-5---5-5---7-7--|
A--------3-3---------5-5--|
E-------------------------|
We didn't do it to be happy,
We didn't do it to be happy,
So I can whine, so I can whine
You'll go down down down
You'll go down down down

e--------------------------|
B--------------------------|
G-7-7--7-7---5-5--5-5------|
D-7-7--7-7---5-5--5-5------|
A-5-5--5-5---3-3--3-3------|
E--------------------------|
On the outside, will I grow this out
On the outside, will I grow this out

e-----------------------------|
B--8-8---10-10----------------|
G--7-7---9--9---10-10--10-10--|
D--5-5---7--7---10-10--10-10--|
A----------------8--8---8--8--|
E-----------------------------|
You think I got my way
You think I got my way
You think I got my way
You think I got my way

e-------------------------|
B-10-10--------8-8--------|
G-9--9---5-5---7-7---7-7--|
D-7--7---5-5---5-5---7-7--|
A--------3-3---------5-5--|
E-------------------------|
We didn't do it for the money
We didn't do it for the money
For the last time, for the last time

e-----------------------------|
B--8-8---10-10----------------|
G--7-7---9--9---10-10--10-10--|
D--5-5---7--7---10-10--10-10--|
A----------------8--8---8--8--|
E-----------------------------|
You think I got my way, you think I got my
You think I got my way, you think I got myway
You think I got my way, you think I got my way

e--------------------------|
B--------------------------|
G-7-7--7-7---5-5--5-5------|
D-7-7--7-7---5-5--5-5------|
A-5-5--5-5---3-3--3-3------|
E--------------------------|
Get in my car x8

----------------------------------------------------------------------------
13. Fix You Up
Written by Tegan Quin
Standard Tuning
Capo on 3rd Fret

e----------|I
B----------|I
G--4---6---|I
D--5---7---|I
A--5---7---|I
E--3---5---|I
What do I, what do I, what do I need
To do to get myself in a better mood
What do you, what do you, what do you need
To do to get yourself in a better mood

e--------------|I
B--6-----------|I
G--7---6---4---|I
D--7---7---5---|I
A--5---7---5---|I
E------5---3---|I
Well there's not a lot for you to give if you're giving in
And there's not a lot for you to feel if you're not feeling it

e----------|I
B----------|I
G--4---6---|I
D--5---7---|I
A--5---7---|I
E--3---5---|I
You bring it up and bring it in and we'll get you fixed up in no time

e----------|I
B----------|I
G--4---6---|I
D--5---7---|I
A--5---7---|I
E--3---5---|I
What I wanted most, what I wanted most, what I wanted most
Was to get myself all figured out
And what I figured out, what I figured out, what I figured out
Was that I needed more time to figure you out

e--------------|I
B--6-----------|I
G--7---6---4---|I
D--7---7---5---|I
A--5---7---5---|I
E------5---3---|I
Well there's not a lot for you to give if you're giving in
And there's not a lot for you to feel if you're not feeling it

e----------|I
B----------|I
G--4---6---|I
D--5---7---|I
A--5---7---|I
E--3---5---|I
You bring it up and bring it in and we'll get you fixed up in no time

e--------------|I
B--6---3-------|I
G--7---4---6---|I
D--7---4---7---|I
A--5---2---7---|I
E----------5---|I
Cause this love is all I have to give
This love is all I have to give
This love is all I have to give

e----------------|I
B--6-------------|I
G--7---6---4-----|I
D--7---7---5--I--| x2
A--5---7---5-----|I
E------5---3-----|I
There's not a lot for you to give if you're giving in
And there's not a lot for you to feel if you're not feeling it
There's not a lot for you to give if you're giving in
And there's not a lot for you to feel if you're not feeling it

e----------|I
B----------|I
G--4---6---|I
D--5---7---|I
A--5---7---|I
E--3---5---|I
You bring it up and bring it and bring it in
And we'll get you fixed up in no
We'll get you fixed up in no time

e----------|I
B----------|I
G--4---6---|I
D--5---7---|I
A--5---7---|I
E--3---5---|I
This love is all I have to give
This love...

e-----I
B-----I
G--4--I
D--5--I
A--5--I
E--3--I

----------------------------------------------------------------------------
14. I Can't Take It
Written by Sara Quin
Standard Tuning

e------------- -------------|
B------3------ ---------3---|
G-----------x4 ---------0-x4| X2
D------------- -------------|
A------------- -------------|
E-3-3-3------- --0-0-0------|

e------------- -------------|
B------3------ ---------3---|
G-----------x4 ---------0-x4|
D------------- -------------|
A------------- -------------|
E-3-3-3------- --0-0-0------|
So move, yeah move
So move, yeah move
I've got nowhere to go, I've got nowhere to go
So move

e--------------------------------|
B--------------------------------|
G------9---------7---------5-----|
D------9---------7---------5-----|
A--7-7----7--5-5----5--3-3-------|
E--------------------------------|
Don't move so slow, don't move so slow
Don't move so slow, don't move so slow

e------------- -------------|
B------3------ ---------3---|
G-----------x4 ---------0-x4|
D------------- -------------|
A------------- -------------|
E-3-3-3------- --0-0-0------|
So move, yeah move
I've got nowhere to go, I've got nowhere to go
So move

e--------------------------------|
B--------------------------------|
G------9---------7---------5-----|
D------9---------7---------5-----|
A--7-7----7--5-5----5--3-3-------|
E--------------------------------|
Don't move so slow, don't move so slow
Don't move so slow, don't move so slow

e---------|
B---------|
G--7---5--|
D--7---5--|
A--5---3--|
E---------|
I can't take it x4

e--------------------------------|
B--------------------------------|
G------9---------7---------5-----|
D------9---------7---------5-----|
A--7-7----7--5-5----5--3-3-------|
E--------------------------------|
I can whoa whoa whoa whoa whoa
I can whoa whoa whoa whoa whoa

e---------|
B---------|
G--7---5--|
D--7---5--|
A--5---3--|
E---------|
I can't take it x4

e--------------------------------|
B--------------------------------|
G------9---------7---------5-----|
D------9---------7---------5-----|
A--7-7----7--5-5----5--3-3-------|
E--------------------------------|
I can whoa whoa whoa whoa whoa
I can whoa whoa whoa whoa whoa
I can whoa whoa whoa whoa whoa
I can whoa whoa whoa whoa whoa

e----------|
B----------|
G----5-----|
D----5-----|
A----3-----|
E----------|


Enjoy! Questions? Leave me a comment!
comments
print report bad tab
8 comments total. Showing first comments.
0 reply
Da_Bomb123 wrote on July 1 2007, 02:23 pm

da tabz are kinda messy...

0 reply
pure_bluz wrote on September 21 2007, 11:14 am

g

0 reply
pure_bluz wrote on September 21 2007, 11:15 am

the tabs arent messy, u made them the way I love them. are you planning to do the Con also? that would be nice!:) pis

I want to post or [tab]
guest
You may want to rate the tab now too:
select rating
Please do not post tabs as comments. Select "correction" instead!