Oops, an error
Loading. Please wait.

Where Does The Good Go Bass Tab

3,712 views 9 this week
2 commentsread comments
1 2 3 4 5
worth learning
x 3
add to favorites launch autoscroll
font size
0
reset
Autoscroll
+/-
esc
set tempo
stop
Contributor
Difficulty
Tuning
novice
D A D G B E
WARNING: You are trying to view
                                    content from Ultimate-Guitar.com
                                    in an unauthorized application,
                                    which is prohibited.

                                    Please use an official Ultimate
                                    Guitar Tabs application for iPhone,
                                    iPad or Android to access legitimate
                                    chords, guitar, bass, and drum tabs
                                    from Ultimate-Guitar.com database.

                                    Type "ultimate guitar tabs" in Apple
                                    App Store's or Android Market's
                                    search to find the application.
Artist: Tegan and Sara
Album: So Jealous (2004)
Song: Where Does The Good Go (written by Tegan R. Quin)


Intro/verse (x5)
G|---------------------------------------------|
D|---------------------------------------------|
A|---------------------------------------------|
D|-6-686-5-545-3-353-1-1-1---------------------|

Chorus
G|-----------------------------------------------|
D|-----------------------------------------------|
A|-6-6-6-6-5-5-5-5-------------------------------|
D|-----------------------------------------------|

G|----------------------------|
D|-1--1--1--1--0--0--0--0-----|
A|--1--1--1--1--1--1--1--1----|
D|----------------------------|

verse (x4)
G|---------------------------------------------|
D|---------------------------------------------|
A|---------------------------------------------|
D|-6-686-5-545-3-353-1-1-1---------------------|

Chorus
G|----------------------------------------------|
D|----------------------------------------------|
A|-6-6-6-6-5-5-5-5------------------------------|
D|----------------------------------------------|

G|----------------------------|
D|-1--1--1--1--0--0--0--0-----|
A|--1--1--1--1--1--1--1--1----|
D|----------------------------|

Verse (play this one really quietly)
G|---------------------------------------------|
D|---------------------------------------------|
A|---------------------------------------------|
D|-6-686-5-545-3-353-1-1-1---------------------|

Chorus
G|----------------------------------------------|
D|----------------------------------------------|
A|-6-6-6-6-5-5-5-5------------------------------|
D|----------------------------------------------|

End on
G|----------------------------------------------|
D|----------------------------------------------|
A|-6--------------------------------------------|
D|----------------------------------------------|
 
Pretty sure this is accurate.
comments
We did not receive enough feedback on this tab! Please rate:
1 2 3 4 5
2 comments total.
+3 reply
pojoto wrote on June 18 2009, 08:17 pm

you can't play the intro/verse on the E string because it's not low enough, the last note is Eb not E, so it's better on the D string, like:

Intro/verse (x5)
G|---------------------------------------------|
D|-6-686-5-565-3-353-1-11-1--------------------|
A|---------------------------------------------|
E|---------------------------------------------|

otherwise, really good!

0 reply
Andrax20 wrote on January 7 2010, 04:51 pm

Bah, the other guy beat me to it. Your chorus is bang on, but the main riff if a couple octives low. What he posted is right.

I want to post or [tab]
guest
You may want to rate the tab now too:
select rating
Please do not post tabs as comments. Select "correction" instead!