Oops, an error
Loading. Please wait.

Non-Toxic Acoustic Tab

458 views 3 this week
no commentswrite comment
1 2 3 4 5
please rate
Autoscroll
+/-
esc
set tempo
stop
Contributor
Difficulty
novice
Hey! There's an official Ultimate Guitar app which is ideal
for learning songs when you're away from computer. Get the app
WARNING: You are trying to view
                                    content from Ultimate-Guitar.com
                                    in an unauthorized application,
                                    which is prohibited.

                                    Please use an official Ultimate
                                    Guitar Tabs application for iPhone,
                                    iPad or Android to access legitimate
                                    chords, guitar, bass, and drum tabs
                                    from Ultimate-Guitar.com database.

                                    Type "ultimate guitar tabs" in Apple
                                    App Store's or Android Market's
                                    search to find the application.
Artist: Telekinesis
Album:  Parallel Seismic Conspiracies EP
Song:   Non-Toxic (Acoustic)
Tuning: Standard

Off of this video: http://www.youtube.com/watch?v=o1uhjoejXNg

-First off, congratulate yourself for having excellent taste in music
-Those are all "11"s, not "1"s
-In the into, verse, and prechorus, be sure to mute all the strings youre not playing 
with your index finger/thumb
-The rhythm is pretty easy to pick up; watch the video for it
-Lerner does throw an occasional variation into the strumming pattern, so play around 
with it a bit


       Intro/Verse:
       (Repeat 3x)
E-------------------|----------------|----------------|--------------|
B-------------------|----------------|----------------|--------------|
G-------------------|----------------|----------------|--------------|
D-9-9----11-9-11----|-11-9-11-9-11---|-11-9-----------|--------------|
A-0-0----0--0-0-----|-0--0-0--0-0----|-0--0---11111111|111111111111--|
E-------------------|----------------|--------0-0-0-0-|0-0-0-0-0-0---|

       Verse (prechorus):

E-------------------|----------------|----------------|--------------|
B-------------------|----------------|----------------|--------------|
G-------------------|----------------|----------------|--------------|
D--999---11-9-11----|-11-9-11-9-11---|-11-9-----------|--------------|
A--000---0--0-0-----|-0--0-0--0-0----|-0--0---11111111|11111199999999|
E-------------------|----------------|--------0-0-0-0-|0-0-0-00000000|

        Chorus:
       (played in this order–you can figure out the strumming pattern)
E----x------x------x------x------x------x------x-----x----|
B----x------x------x------x------x------x------x-----x----|
G----8------6------11-----11-----13-----16-----9-----11---|
D----9------7------x------x------x------x------x-----x----|
A----9------7------9------9------11-----14-----7-----9----|
E----7------5------x------x------x------x------x-----x----|

E----x------x------x------x-----|
B----x------x------x------x-----|
G----6------6------11-----9-----|
D----9------7------x------x-----|
A----9------7------9------7-----|
E----7------5------x------x-----|

       Verse:
       (Repeat 3x)
E-------------------|----------------|----------------|--------------|
B-------------------|----------------|----------------|--------------|
G-------------------|----------------|----------------|--------------|
D-9-9----11-9-11----|-11-9-11-9-11---|-11-9-----------|--------------|
A-0-0----0--0-0-----|-0--0-0--0-0----|-0--0---11111111|111111111111--|
E-------------------|----------------|--------0-0-0-0-|0-0-0-0-0-0---|

       Verse (prechorus):

E-------------------|----------------|----------------|--------------|
B-------------------|----------------|----------------|--------------|
G-------------------|----------------|----------------|--------------|
D--999---11-9-11----|-11-9-11-9-11---|-11-9-----------|--------------|
A--000---0--0-0-----|-0--0-0--0-0----|-0--0---11111111|11111199999999|
E-------------------|----------------|--------0-0-0-0-|0-0-0-00000000|

        Chorus:
       (Repeat 2x)
E----x------x------x------x------x------x------x-----x----|
B----x------x------x------x------x------x------x-----x----|
G----6------6------11-----11-----13-----16-----9-----11---|
D----9------7------x------x------x------x------x-----x----|
A----9------7------9------9------11-----14-----7-----9----|
E----7------5------x------x------x------x------x-----x----|

        Outro:

E----x------x-----|
B----x------x-----|
G----8------6-----|
D----9------7-----|
A----9------7-----|
E----7------5-----|

E----x------x------x-----|
B----x------x------x-----|
G----3------5------6-----|
D----4------6------7-----|
A----4------6------7-----|
E----2------4------5-----|  (Repeat x2)



Verse
Maybe I couldnt be your man
Maybe I couldnt even understand
The things we say stop making any sense
Started feeling like it was an accident

Chorus
Now I sleep alone and its hard
Now we sleep together and its hard

Verse
Maybe I had the right of way
Shut my mouth or listen to what you say
Something say some things fall apart
Im not a poet no Im nothing of the sort

Chorus
Now I sleep alone and its hard
Now we sleep together and its hard

Outro
Now I sleep alone and its hard
Now Im looking for the truth
Come and answer me now
Come and answer me now
Now Im looking for the truth
Come and answer me now
Come and answer me now





And remember, no mountain too tall and good luck to all.  And buy Telekinesis.


************************************
| /   slide up
| \   slide down
| h   hammer-on
| p   pull-off
| ~   vibrato
| +   harmonic
| x   Mute note
| b   Bend
| pb  Pre-bend
| br  Bend release
| pbr Pre-bend release
| brb Bend release bend
************************************
comments
We did not receive enough feedback on this tab! Please rate:
print report bad tab
1 2 3 4 5
I want to post or [tab]
guest
You may want to rate the tab now too:
select rating
Please do not post tabs as comments. Select "correction" instead!