Oops, an error
Loading. Please wait.

My Girl Tab

ver5
ver5

Intro

Interactive

More versions @911Tabs.com
31,639 views 54 this week
3 commentsread comments
1 2 3 4 5
excellent!
x 8
Autoscroll
+/-
esc
set tempo
stop
Contributor
Difficulty
novice
Hey! There's an official Ultimate Guitar app which is ideal
for learning songs when you're away from computer. Get the app
WARNING: You are trying to view
                                    content from Ultimate-Guitar.com
                                    in an unauthorized application,
                                    which is prohibited.

                                    Please use an official Ultimate
                                    Guitar Tabs application for iPhone,
                                    iPad or Android to access legitimate
                                    chords, guitar, bass, and drum tabs
                                    from Ultimate-Guitar.com database.

                                    Type "ultimate guitar tabs" in Apple
                                    App Store's or Android Market's
                                    search to find the application.
I couldn't find a right tab for this song so I tabbed it... here it it:
It's basically repeating 2 diferent chords throughout the whole song:

First:

e|--------------|\
B|-----------1--| \
G|-------0-2----|  \Repeat x2 times
D|---0-2--------|  /
A|-3------------| /
E|--------------|/

e|--------------|--------------|--------------|--------------|
B|-----------1--|--------------|-----------1--|--------------|
G|-------0-2----|--------------|-------0-2----|--------------|
D|---0-2--------|---------0-3--|---0-2--------|---------0-3--|
A|-3------------|-----0-3------|-3------------|-----0-3------|
E|--------------|-1-3----------|--------------|-1-3----------|

 I've got sunshine   on a cloudy day

e|--------------|--------------|--------------|--------------|
B|-----------1--|--------------|-----------1--|--------------|
G|-------0-2----|--------------|-------0-2----|--------------|
D|---0-2--------|---------0-3--|---0-2--------|---------0-3--|
A|-3------------|-----0-3------|-3------------|-----0-3------|
E|--------------|-1-3----------|--------------|-1-3----------|

 When it's cold outside,   I've got the month of May

CHORUS:
I guess you say
what can make me feel this way
My girl.... My girl.... My girl....
Talking 'bout my girl  (My girl....)

e|--------------|--------------|--------------|--------------|
B|-----------1--|--------------|-----------1--|--------------|
G|-------0-2----|--------------|-------0-2----|--------------|
D|---0-2--------|---------0-3--|---0-2--------|---------0-3--|
A|-3------------|-----0-3------|-3------------|-----0-3------|
E|--------------|-1-3----------|--------------|-1-3----------|

 I've got so much honey , the bees envy me

e|--------------|--------------|--------------|--------------|
B|-----------1--|--------------|-----------1--|--------------|
G|-------0-2----|--------------|-------0-2----|--------------|
D|---0-2--------|---------0-3--|---0-2--------|---------0-3--|
A|-3------------|-----0-3------|-3------------|-----0-3------|
E|--------------|-1-3----------|--------------|-1-3----------|

 I've got a sweeter song, than the birds and the trees

CHORUS:
Well, I guess you say
what can make me feel this way
My girl.... My girl.... My girl....
Talking 'bout my girl  (my girl....)

then some bass is played, but when the violin starts, play this:

e|--------------|\
B|-----------1--| \
G|-------0-2----|  \Repeat x2 times
D|---0-2--------|  /
A|-3------------| /
E|--------------|/

e|--------------|--------------|--------------|--------------|
B|-----------1--|--------------|-----------1--|--------------|
G|-------0-2----|--------------|-------0-2----|--------------|
D|---0-2--------|---------0-3--|---0-2--------|---------0-3--|
A|-3------------|-----0-3------|-3------------|-----0-3------|
E|--------------|-1-3----------|--------------|-1-3----------|

play with violin:
e|--------------|--------------|
B|--------------|--------------|
G|---------0-2-2|---------0-222|
D|-----0-2------|-----0-2------|
A|-2-2----------|-2-2----------|
E|--------------|--------------|

Then,

e|-----------1--|--------------|-----------1--|--------------|
B|-------1-3----|--------------|-------1-3----|--------------|
G|---0-2--------|---------0-3--|---0-2--------|---------0-3--|
D|-3------------|-----0-3------|-3------------|-----0-3------|
A|--------------|-1-3----------|--------------|-1-3----------|
E|--------------|--------------|--------------|--------------|

 I don't need no money, fortune or fame

e|-----------1--|--------------|-----------1--|--------------|
B|-------1-3----|--------------|-------1-3----|--------------|
G|---0-2--------|---------0-3--|---0-2--------|---------0-3--|
D|-3------------|-----0-3------|-3------------|-----0-3------|
A|--------------|-1-3----------|--------------|-1-3----------|
E|--------------|--------------|--------------|--------------|

 I've got all the riches- baby, one man can claim

CHORUS:
I guess you say
what can make me feel this way
My girl.... My girl.... My girl....
Talking 'bout my girl  (My girl....) (Talking 'bout my girl....)

I've got sunshine on a cloudy day with my girl...
I've even got the month of May with my girl...


Tabbed by Christophe Bourlon
comments
print report bad tab
3 comments total.
-1 reply
Beibenite wrote on March 19 2010, 11:17 am

It's pretty good, though I think it sounds better like this:
|--------------|--------------|--------------|--------------|
B|-----------1--|--------------|-----------1--|--------------|
G|-------0-2----|--------------|-------0-2----|--------------|
D|---0-2--------|---------0----|---0-2--------|---------0-3--|
A|-3------------|-----0-3---3--|--------------|-----0-3------|
E|--------------|-1-3----------|--------------|-1-3----------|

Just check it out an tell me what ya think ;) :)

0 reply
yofooooo wrote on May 8 2010, 02:43 am

better tab then the others.

-1 reply
modain47 wrote on November 1 2011, 02:17 am

This is what I hear...

e|--------------|--------------|--------------|--------------|
B|------------1-|--------------|------------1-|--------------|
G|--------0-2---|--------------|--------0-2---|--------------|
D|----0-2-------|----------0-2-|----0-2-------|----------0-2-|
A|-3------------|------0-3-----|-3------------|------0-3-----|
E|--------------|-1--3---------|--------------|-1--3---------|

Or play it like this so you can play the same pattern when it modulates up one step later in the song...

e|--------------|--------------|--------------|--------------|
B|--------------|--------------|--------------|--------------|
G|----------2-5-|--------------|----------2-5-|--------------|
D|------2-5-----|------------2-|------2-5-----|------------2-|
A|-3--5---------|--------3-5---|-3--5---------|--------3-5---|
E|--------------|-1--3-5-------|--------------|-1--3-5-------|

I want to post or [tab]
guest
You may want to rate the tab now too:
select rating
Please do not post tabs as comments. Select "correction" instead!