Oops, an error
Loading. Please wait.

Beelzeboss Tab

ver5
ver5

Whole song

More versions @911Tabs.com
13,814 views 18 this week
7 commentsread comments
1 2 3 4 5
accurate
x 6
add to favorites launch autoscroll
font size
0
reset
Autoscroll
+/-
esc
set tempo
stop
Contributor
Difficulty
intermediate
WARNING: You are trying to view
                                    content from Ultimate-Guitar.com
                                    in an unauthorized application,
                                    which is prohibited.

                                    Please use an official Ultimate
                                    Guitar Tabs application for iPhone,
                                    iPad or Android to access legitimate
                                    chords, guitar, bass, and drum tabs
                                    from Ultimate-Guitar.com database.

                                    Type "ultimate guitar tabs" in Apple
                                    App Store's or Android Market's
                                    search to find the application.
This is taken from my powertab that wouldn't be accepted for some reason. I'm 99% sure 
the notes are correct, especially the little solo, but the chords may be a tiny bit off, 
decide!

Standard Tuning
Guitar 1 = Distorted
Guitar 2 = Distorted
Guitar 3 = Clean


 Q.=124
 12/8
  Gtr I
  ~~                    ~~
  Q.   E E E Q  Q  Q    Q.   E E E Q  Q  Q
|---------------------|---------------------|
|---------------------|---------------------|
|---------------------|---------------------|
|---------------------|---------------------|
|-2----x-x-x-2--2--2--|-3----x-x-x-3--3--3--|
|---------------------|---------------------|
|
| Gtr II
| ~~                    ~~
| Q.   E E E Q  Q  Q    Q.   E E E Q  Q  Q
|---------------------|---------------------|
|---------------------|---------------------|
|-4----x-x-x-4--4--4--|-5----x-x-x-5--5--5--|
|---------------------|---------------------|
|---------------------|---------------------|
|---------------------|---------------------|

Gtr I
  ~~                    ~~
  Q.   E E E Q  Q  Q    Q.   E E E Q  Q  Q
|---------------------|---------------------|
|---------------------|---------------------|
|---------------------|---------------------|
|---------------------|---------------------|
|-5----x-x-x-5--5--5--|-7----x-x-x-7--7--7--|
|---------------------|---------------------|
|
| ~~                    ~~
| Q.   E E E Q  Q  Q    Q.   E E E Q  Q  Q
|---------------------|---------------------|
|---------------------|---------------------|
|-7----x-x-x-7--7--7--|-9----x-x-x-9--9--9--|
|---------------------|---------------------|
|---------------------|---------------------|
|---------------------|---------------------|

Gtr I
   ~~~                       ~~~
   Q.   E E E  Q   Q   Q     Q.   E E E  Q   Q   Q
|-------------------------|-------------------------|
|-------------------------|-------------------------|
|-------------------------|-------------------------|
|-------------------------|-------------------------|
|--9----x-x-x--9---9---9--|-10----x-x-x-10--10--10--|
|-------------------------|-------------------------|
|
|  ~~~                       ~~~
|  Q.   E E E  Q   Q   Q     Q.   E E E  Q   Q   Q
|-------------------------|-------------------------|
|-------------------------|-------------------------|
|-11----x-x-x-11--11--11--|-12----x-x-x-12--12--12--|
|-------------------------|-------------------------|
|-------------------------|-------------------------|
|-------------------------|-------------------------|

Gtr I
   ~~~
   Q.   E E E  Q   Q   Q       Q   Q   E  E  Q   Q   E  E
|-------------------------||-------------------------------||
|-------------------------||o-----------------------------o||
|-------------------------||-------------------------------||
|-------------------------||-------------------------------||
|-12----x-x-x-12--12--12--||o-13--13--13-13-13--13--13-13-o||
|-------------------------||-------------------------------||
|
|  ~~~
|  Q.   E E E  Q   Q   Q       Q   Q   E  E  Q   Q   E  E
|-------------------------||-------------------------------||
|-------------------------||o-----------------------------o||
|-14----x-x-x-14--14--14--||--15--15--15-15-15--15--15-15--||
|-------------------------||-------------------------------||
|-------------------------||o-----------------------------o||
|-------------------------||-------------------------------||

Gtr I
       E  E  E  E  E  E  E  E  E  E  E  E
|-||-----------------------------------------||
|-||o---------------------------------------o||
|-||-----------------------------------------||
|-||-----------------------------------------||
|-||o-13-13-13-13-13-13-13-13-13-13-13-13---o||
|-||-----------------------------------------||
|
|      E  E  E  E  E  E  E  E  E  E  E  E
|-||-----------------------------------------||
|-||o---------------------------------------o||
|-||--15-15-15-15-15-15-15-15-15-15-15-15----||
|-||-----------------------------------------||
|-||o---------------------------------------o||
|-||-----------------------------------------||


   I Am Complete
    Gtrs I, II
    Q  E E  E   E   Q    Q    E   E    Q  E E  E   E   Q    Q    E   E
||-----------------------------------|----------------------------------|
||o----------------------------------|----------------------------------|
||-----------------------------------|----------------------------------|
||-----------------------------------|----------------------------------|
||o-8--7-----------------------------|-8--7-----------------------------|
||--6--5---<5>-<5>-<5>--<5>--<5>-<5>-|-6--5---<5>-<5>-<5>--<5>--<5>-<5>-|


  Q  E E  E   E  Q  E E E E   Q  E E  E   E   Q    Q    E   E
|---------------------------|-----------------------------------||
|---------------------------|----------------------------------o||
|---------------------------|-----------------------------------||
|---------------------------|-----------------------------------||
|-8--7-----------7--8-------|-8--7-----------------------------o||
|-6--5---<5>-<5>-5--6---x-x-|-6--5---<5>-<5>-<5>--<5>--<5>-<5>--||


  Q  E E  E   E   Q    Q    E   E    Q  E E  E   E   Q    Q    E   E
|----------------------------------|----------------------------------|
|----------------------------------|----------------------------------|
|----------------------------------|----------------------------------|
|----------------------------------|----------------------------------|
|-8--7-----------------------------|-8--7-----------------------------|
|-6--5---<5>-<5>-<5>--<5>--<5>-<5>-|-6--5---<5>-<5>-<5>--<5>--<5>-<5>-|


  Q  E E  E   E  Q  E E E E   Q  Q  Q  H.
|---------------------------|----------------|
|---------------------------|----------------|
|---------------------------|----------------|
|---------------------------|----------8-----|
|-8--7-----------7--8-------|-8--7--5--6-----|
|-6--5---<5>-<5>-5--6---x-x-|-6--5--3--------|


 Wait...
  Q=124
 4/4
  Gtr III
  H.      Q    H.      Q    H.      Q    W
|-2-------2S=|=5-------5\-|------------|------|
|-4-------4S=|=7-------7\-|------------|------|
|-4-------4S=|=7-------7S=|=3-------3--|-4----|
|-4-------4S=|=7-------7S=|=4-------4--|-5----|
|-2-------2S=|=5-------5S=|=4-------4--|-5----|
|------------|------------|-2-------2--|-3----|


  H.      Q     H.      Q    H.      +E  E   H    H
|-------------|-5-------5--|---------------|-----------|
|-------------|-7-------7--|---------------|-----------|
|-4-------4S==|=7-------7--|-6-------(6)-6-|-6----6----|
|-5-------5S==|=7-------7--|-7-------(7)-7-|-7----7----|
|-5-------5---|-5-------5--|-7-------(7)-7-|-7----7----|
|-3-------3/--|------------|-5-------(5)-5-|-5----5----|


  E  E   E   E   E   E   E   E
|----------------3--------------|
|--------------------3----------|
|------------------------4------|
|--------4h==5---------------5p=|
|----5--------------------------|
|-3-(3)-(3)-(3)-(3)-(3)-(3)-(3)-|


   E  E  E   E   Q    E   E    Q  +H      Q     W
|--------2---0---------------|---------------|-------|
|----------------3----0---2--|-2--(2)--------|-------|
|----------------------------|-----------^7--|-^6----|
|--4p=0-(0)-(0)-(0)--(0)-(0)-|-----------^7--|-^7----|
|----------------------------|-0--(0)----^7--|-^7----|
|-(3)------------------------|-----------^5--|-^5----|


 Fuck!
  Gtrs I, II
  H     H      H     H
|------------|------------|
|------------|------------|
|-4\---------|-4\---------|
|-4\---------|-4\---------|
|-2\---------|-2\---------|
|------------|------------|


    Q.=124
   12/8
         PM--------------|        PM--|      PM--|
    Q.   E E E E E E E E E   Q.   E E E Q.   E E E  3x
||-------------------------|------------------------||
||o------------------------|-----------------------o||
||-------------------------|------------------------||
||--4----4-4-4-4-4-4-4-4-4-|-7----7-7-7-------------||
||o-2----2-2-2-2-2-2-2-2-2-|-5----5-5-5-4----4-4-4-o||
||-------------------------|------------2----2-2-2--||


  Gtrs I, II
       PM---------------|
  Q.   E E E E  E E E E E   W.                    +W.
|-------------------------|---------------------|-----------------------|
|-------------------------|---------------------|-----------------------|
|-------------------------|---------------------|-----------------------|
|-2----2-2-2-2--2-2-2-2-2-|---------------------|-----------------------|
|-0----0-0-0-0--0-0-0-0-0-|-2-------------------|-(2)-------------------|
|-------------------------|-0-------------------|-(0)-------------------|
|
| Gtr II
| H.         H.             H.      Q.   Q  S S    S  S S S +Q   +W
|-------------------------|-----------------0---|-----------------------|
|-------------------------|-------------------0-|-----------------------|
|-------------------------|---------------------|--1--------------------|
|-------------------------|---------------------|-----2-----------------|
|-------------------------|---------------------|-------2---------------|
|-------------------------|---------------------|---------0-(0)--(0)----|


 If We Win...
  Q=100
 4/4
  Gtr III
  E E E S S +S  S E E S S   E E E S S +S  S E E S S
|-----0-------------0-----|-----0-------------0-----|
|-----0-------------0-----|-----0-------------0-----|
|-----1-1-1-(1)-1-1-1-1-1-|-----1-1-1-(1)-1-1-1-1-1-|
|-----2-2-2-(2)-2-2-2-2-2-|-----2-2-2-(2)-2-2-2-2-2-|
|-2-2-2-2-2-(2)-2-2-2-2-2-|-2-2-2-2-2-(2)-2-2-2-2-2-|
|-0-0-0-0-0-(0)-0-0-0-0-0-|-0-0-0-0-0-(0)-0-0-0-0-0-|


  E E E S S +S  S E E S S   E E E S S +S  S E E S S
|-----0-------------0-----|-----0-------------0-----|
|-----1-------------1-----|-----0-------------0-----|
|-----2-2-2-(2)-2-2-2-2-2-|-1---1-1-1-(1)-1-1-1-1-1-|
|-2-2-2-2-2-(2)-2-2-2-2-2-|-2---2-2-2-(2)-2-2-2-2-2-|
|-0-0-0-0-0-(0)-0-0-0-0-0-|-2-2-2-2-2-(2)-2-2-2-2-2-|
|-------------------------|-0-0-0-0-0-(0)-0-0-0-0-0-|


  E E E S S +S  S E E S S   E S S E S S E S S E S S   H.      +E  S S
|-----0-------------0-----|-0-----1-----3-----3-----|-0-------(0)-----|
|-----0-------------0-----|-1-----1-----5-----3-----|-2-------(2)-2-3-|
|-----1-1-1-(1)-1-1-1-2-2-|-2-----2-5-5-5-----4-2-2-|-2-------(2)-2-2-|
|-----2-2-2-(2)-2-2-2-2-2-|-2-3-3-3-5-5-5-5-5-5-2-2-|-2-------(2)-2-2-|
|-2-2-2-2-2-(2)-2-2-2-0-0-|-0-3-3-3-3-3-3-5-5-5-0-0-|-0-------(0)-0-0-|
|-0-0-0-0-0-(0)-0-0-0-----|---1-1-1-------3-3-3-----|-----------------|


              Gtrs I, II, III                 Gtr III
  H.      +E  S S   H.      +E  S S   H.      E E    H.      +E  E
|-0-------(0)-----|-0-------(0)-----|-------------|-----------------|
|-2-------(2)-----|-1-------(1)-1-1-|-1-------1---|-^3-------(3)----|
|-2-------(2)-2-2-|-2-------(2)-2-2-|-2-------2---|-^4-------(4)----|
|-2-------(2)-2-2-|-2-------(2)-2-2-|-2-------2-5-|-^5-------(5)-5--|
|-0-------(0)-0-0-|-0-------(0)-0-0-|-0-------0-5-|-^5-------(5)-5--|
|-----------------|-----------------|-----------3-|-^3-------(3)-3--|


  H.      +E  S S   H.      +E  E   H.      +E  E
|-----------------|---------------|---------------|
|-------------3-3-|-3-------(3)---|---------------|
|-------------4-4-|-4-------(4)---|---------------|
|-5-------(5)-5-5-|-5-------(5)-5-|-5-------(5)-5-|
|-5-------(5)-5-5-|-5-------(5)-5-|-5-------(5)-5-|
|-3-------(3)-3-3-|-3-------(3)-3-|-3-------(3)-3-|


              Q.=124
               12/8
  Q  Q  Q  Q    Q.   Q.   H.
|-------------|-3---------------|
|----------3--|-5---------------|
|-------4--4--|-5---------------|
|----5--5--5--|-5---------------|
|-5--5--5--5--|-3---------------|
|-3--3--3--3--|-----------------|


   Let the Rock-Off Begin!
    Q.=131
    Gtrs I, II
    Q  E E E E Q  E E E E   Q  E E E E Q  E E E E
||------------------------|-----------------------|
||o-----------------------|-----------------------|
||------------------------|-----------------------|
||--4--4-x-x-x-4--4-x-x-x-|-4--4-x-x-x-4--4-x-x-x-|
||o-2--2-x-x-x-2--2-x-x-x-|-2--2-x-x-x-2--2-x-x-x-|
||------------------------|-----------------------|


  Q.   Q.   Q.   Q.     Q.   Q.    Q.    Q.    3x
|---------------------|------------------------||
|---------------------|-----------------------o||
|---------------------|------------------------||
|-5----4----7----6----|-9----8----12----11-----||
|-3----2----5----4----|-7----6----10-----9----o||
|---------------------|------------------------||


  Q     E  E  E  E  Q     E  E  E  E    Q     E   E E E  Q     E E E E
|------------------------------------|---------------------------------|
|------------------------------------|---------------------------------|
|------------------------------------|---------------------------------|
|------------------------------------|---------------------------------|
|-9-----9--x--x--x--9-----9--x--x--x-|--9-----9---x-x-x--9-----9-x-x-x-|
|-7-----7--x--x--x--7-----7--x--x--x-|--7-----7---x-x-x--7-----7-x-x-x-|
|
| Gtr IV
|                                                        ~~~~~
| Q.       E  E  E  E  E  E  E  E  E    E  E  S S E E E  H.
|------------------------------------|---------------------------------|
|---------12-10----10----10-12-10----|------------------10b12----------|
|-9b11----------11----11----------11-|-10-11-10p9p7---7----------------|
|------------------------------------|--------------9------------------|
|------------------------------------|---------------------------------|
|------------------------------------|---------------------------------|


    W.              +W         Q.   E   W.              +W         Q.   E
||----------------|-------------------|---------------|----------------------|
||o---------------|-------------------|---------------|----------------------|
||--4-------------|-(4)--------4----4s|=7-------------|-(7)--------7----7----|
||--4-------------|-(4)--------4----4s|=7-------------|-(7)--------7----7S===|
||o-2-------------|-(2)--------2----2s|=5-------------|-(5)--------5----5S===|
||----------------|-------------------|---------------|----------------------|


                        PM--------------|
  W.              +Q.   E E E E E E E E E
|---------------|-------------------------|
|---------------|-------------------------|
|---------------|-------------------------|
|-4-------------|-(4)---4-4-4-4-4-4-4-4-4-|
|-4-------------|-(4)---4-4-4-4-4-4-4-4-4-|
|-2-------------|-(2)---2-2-2-2-2-2-2-2-2-|


  Q  E E E E Q  E E E E   Q  E E E E Q  E E E E
|-----------------------|---------------------------||
|-----------------------|--------------------------o||
|-----------------------|---------------------------||
|-4--4-x-x-x-4--4-x-x-x-|-4--4-x-x-x-4--4-x-x-x-----||
|-2--2-x-x-x-2--2-x-x-x-|-2--2-x-x-x-2--2-x-x-x----o||
|-----------------------|---------------------------||


                           There's Just No Way...
  Q=91
 4/4
                        Gtr III
              >
  W          +W             E E E E E E E E   E E E E E E E E
|----------|------------||------------------|-----------------|
|----------|------------||o-----------------|-----------------|
|-7--------|-(7)--------||----------3-------|---------7-------|
|-7--------|-(7)--------||------5-----5---5-|-----8-----8---8-|
|-5--------|-(5)--------||o---5---5-----5---|---8---8-----8---|
|----------|------------||--3---------------|-6---------------|


  E E E E E E E E   E E E E H        E E E E E E E E   E E E E E E E E
|-----------------|---------------||-----------------|------------------|
|-----------------|--------------o||-----------------|---------8--------|
|---7-----7-------|---------3-----||---------3-------|-----8-----8---8--|
|-----7-----7---7-|-----5---------||-----5-----5---5-|---8---8-----8----|
|-5-----5-----5---|---5---5------o||---5---5-----5---|-6----------------|
|-----------------|-3-------------||-3---------------|------------------|


                   5/4
  E E E E E E E E   E E E E H.
|-----------------|---------------|
|---------6-------|---------7-----|
|-----------7---7-|-----7---------|
|-----8-------8---|---7---7-------|
|---8---8---------|-5-------------|
|-6---------------|---------------|


   C'mon Kage...
    Q=154

Gtr III
4/4
    Q  Q  E E E E   E E E Q  E E E   Q  Q  Q  E E   E E E a  Q   Q  E  4x
||----------------|----------------|--------------|--------------------||
||o-3--3--3-3-3-x-|-3-3-x-3--3-3---|-8--8--8--x-8-|-------------------o||
||--3--3--3-3-3-x-|-3-3-x-3--3-3-x-|-8--8--8--x-8-|-------9S10--10--x--||
||--5--5--3-5-5-x-|-5-5-x-5--5-5-x-|-8--8--8--x-8-|-8-8-x-9S10--10--x--||
||o-5--5--5-5-5-x-|-5-5-x-5--5-5-x-|-6--6--6--x-6-|-8-8-x-7S=8---8--x-o||
||--3--3--3-3-3-x-|-3-3-x-3--3-3-x-|--------------|-6-6-x--------------||

Gtr III
   Hey, Educator...
    E E E E E E E S S   E E E E E E E S S
||--3-3-3-3-3-3-3-3-3-|-5-5-5-5-5-5-5-5-5-|
||o-3-3-3-3-3-3-3-3-3-|-7-7-7-7-7-7-7-7-7-|
||--3-3-3-3-3-3-3-3-3-|-7-7-7-7-7-7-7-7-7-|
||--5-5-5-5-5-5-5-5-5-|-7-7-7-7-7-7-7-7-7-|
||o-5-5-5-5-5-5-5-5-5-|-5-5-5-5-5-5-5-5-5-|
||--3-3-3-3-3-3-3-3-3-|-------------------|
|
|   Gtrs I, II
|   PM--|   PM|   PM--------|   PM|   PM---
|   E E E E E E E E     E E E E E E E E
||--------------------|-------------------|
||o-------------------|-------------------|
||--------------------|-------------------|
||--------------------|-7-7-7-7-7-7-7-7---|
||o-5-5-5-5-5-5-5-5---|-5-5-5-5-5-5-5-5---|
||--3-3-3-3-3-3-3-3---|-------------------|

Gtr III
  E E E E E E E S S    E  E  E  E  E  E  E  S S   3x
|-6-6-6-6-6-6-6-6-6-|--1--1--1--1--1--1--1--1-1---||
|-6-6-6-6-6-6-6-6-6-|--1--1--1--1--1--1--1--1-1--o||
|-7-7-7-7-7-7-7-7-7-|--2--2--2--2--2--2--2--2-2---||
|-8-8-8-8-8-8-8-8-8-|--3--3--3--3--3--3--3--3-3---||
|-8-8-8-8-8-8-8-8-8-|--3--3--3--3--3--3--3--3-3--o||
|-6-6-6-6-6-6-6-6-6-|--1--1--1--1--1--1--1--1-1---||
|
|-----|   PM|   PM----------|      PM|      PM
| E E E E E E E E      E  E  E  E  E  E  E  E     3x
|-------------------|-----------------------------||
|-------------------|----------------------------o||
|-------------------|-----------------------------||
|-------------------|-10-10-10-10-10-10-10-10-----||
|-8-8-8-8-8-8-8-8---|--8--8--8--8--8--8--8--8----o||
|-6-6-6-6-6-6-6-6---|-----------------------------||


    Gtrs I, II, III
                                      PM-------------------------------
    Q  Q  Q  Q    Q  Q  Q  Q          S S S S S S S S S S S S S S S S
||--------------|--------------||-||----------------------------------|
||o-------------|-------------o||-||o---------------------------------|
||--------7--7--|-3--3---------||-||----------------------------------|
||--5--5--7--7--|-3--3--3--3---||-||------------------7-7-7-7-7-7-7-7-|
||o-5--5--5--5--|-1--1--3--3--o||-||o-5-5-5-5-5-5-5-5-5-5-5-5-5-5-5-5-|
||--3--3--------|-------1--1---||-||--3-3-3-3-3-3-3-3-----------------|


 -------------------------------|
  S S S S S S S S S S S S S S S S
|-----------------------------------||
|----------------------------------o||
|-----------------------------------||
|-8-8-8-8-8-8-8-8-3-3-3-3-3-3-3-3---||
|-6-6-6-6-6-6-6-6-1-1-1-1-1-1-1-1--o||
|-----------------------------------||


  Q.=154
 12/8
  Q.   E E E Q.   E E E   Q.   E E E E E E E E E   Q.   Q.   H.
|-----------------------|------------------------|-----------------|
|-----------------------|------------------------|-----------------|
|-----------------------|------------------------|-----------------|
|-5----5-5-5-5----5-5-5-|-5----5-5-5-5-5-5-5-5-5-|-5---------------|
|-5----5-5-5-5----5-5-5-|-5----5-5-5-5-5-5-5-5-5-|-5---------------|
|-3----3-3-3-3----3-3-3-|-3----3-3-3-3-3-3-3-3-3-|-3---------------|


  Gtr I
  PM-------------------------------------------------------------------|
  Q  Q  Q  E E. E Q  S   +E. E E. E Q  Q  E E. S   +S  Q  Q  Q  E E Q  E.
|----------------------|-------------------------|-------------------------|
|----------------------|-------------------------|-------------------------|
|----------------------|-------------------------|-------------------------|
|----------------------|-------------------------|-------------------------|
|----------------------|-------------------------|-------------------------|
|-3--1--3--x-3--3-1--3-|-(3)-x-3--3-1--3--x-3--3-|-(3)-1--3--1--6-6-5--6---|


  Gtr I
   PM--------------------------------------------|
  +S  E E. E Q  Q  E E. E S   +E. Q  E E. E Q  Q E
|---------------------------|----------------------|
|---------------------------|----------------------|
|---------------------------|----------------------|
|---------------------------|----------------------|
|---------------------------|----------------------|
|-(6)-x-6--6-5--6--x-6--6-5-|-(5)-6--x-6--6-5--6-5-|


  Gtr I
   PM--------------------------
  +E   Q   Q   Q   Q   Q   E
|-----------------------------|
|-----------------------------|
|-----------------------------|
|-----------------------------|
|-----------------------------|
|-(5)-10--10--10--10--10--10--|


 --------------------------------------------------------|
   +E    Q   Q   Q   Q   Q   E     +E    Q   Q   Q  Q  Q E
|-------------------------------|----------------------------|
|-------------------------------|----------------------------|
|-------------------------------|----------------------------|
|-------------------------------|----------------------------|
|-------------------------------|----------------------------|
|-(10)--10--10--10--10--10--10--|-(10)--10--10--10-10-10-9---|


  Gtr I
   PM--------------------------------------------------------|  ~~~~~~~~
  +E   Q  Q   Q  Q   Q  E   +E   Q  Q   Q  Q   Q  E   +E   Q Q  H.  +E
|-------------------------|-------------------------|--------------------|
|-------------------------|-------------------------|--------------------|
|-------------------------|-------------------------|--------------------|
|-------------------------|-------------------------|--------------------|
|-------------------------|-------------------------|-----------3---(3)--|
|-(9)-10--9--10--9--10--9-|-(9)-10--9--10--9--10--9-|-(9)-10-9-----------|


   ~~~~~~~~~~~~~~~~~~~~~~~~~~~~~~~~~~~~~~~~~~~~~~~~~~~~~~~~~~~~~
  +E   W  Q.   +H..  H +E          +Q.  W E    +H. +E    H  +E
|------------|------------------|------------|---------------------|
|------------|------------------|------------|---------------------|
|------------|------------------|------------|---------------------|
|------------|------------------|------------|---------------------|
|-(3)--2--5--|-(5)---4-(4)------|--(4)--7-6--|-(6)-(6)--10-(10)----|
|------------|------------------|------------|---------------------|


  Gtr I
    ~~~~~~~~~~~~~~~~~~~~~~~~~~~~~~~~~~~~~~~~~~~~~~~~~~~~~
   +Q. W E   +H. +E  H +E       +Q. W E   +H. +E  H +E
|----------|------------------|---------|---------------|
|----------|------------------|---------|---------------|
|----------|------------------|---------|---------------|
|----------|------------------|---------|---------------|
|-(10)-9-3-|-(3)-(3)-2-(2)----|-(2)-5-4-|-(4)-(4)-7-(7)-|
|----------|------------------|---------|---------------|


 ~~~~~~~~~~~~~~~~~~~~~~~~~~~~~~~~~~~~~~
  +Q. W  E    +H.  +E  H +E    +Q.   W E
|----------|-----------------|-----------|
|----------|-----------------|-----------|
|----------|-----------------|-----------|
|----------|-----------------|-----------|
|-(7)-6-10-|-(10)-(10)-9-(9)-|-(9)--10-9-|
|----------|-----------------|-----------|


  Gtr I
   ~~~~~~~~~~~~~~~~~~~~~~~~~~~~~~~~~~~~~~~~~~~~~~~~~~~~~~~~~~~~~~~~~~~~~~~~~~~
  +H     +Q.    Q  Q   E    +E  Q   Q  Q   Q  Q   E    +E  Q  Q  Q   Q  Q   E
|------------------------|--------------------------|--------------------------|
|------------------------|--------------------------|--------------------------|
|------------------------|--------------------------|--------------------------|
|------------------------|--------------------------|--------------------------|
|-(9)----(9)---10--9--10-|-(10)-9--10--9--10--9--10-|-(10)-9-10--9--10--9--10--|
|------------------------|--------------------------|--------------------------|


          Gtr III
  H        W              H    E E H.
|----------1-------------|------1-1-1-----|
|----------3-------------|------3-3-3-----|
|----------2-------------|------2-2-2-----|
|------------------------|----------------|
|-9----------------------|----------------|
7 comments total. Showing first comments.
0 reply
meonme wrote on December 6 2006, 09:36 pm

dude very nice tab...only problem are the chords but i cant decifer them myself so i cant hold it against you mate. Good job

0 reply
leony03 wrote on January 8 2007, 12:42 pm

very gd apart from the intro. the notes are played o the same guitar as a power chord

0 reply
Lukige wrote on March 24 2007, 05:32 pm

Actually it's played on 2 guitars, you can distinctly hear it if you pan the song.

I want to post or [tab]
guest
You may want to rate the tab now too:
select rating
Please do not post tabs as comments. Select "correction" instead!