Oops, an error
Loading. Please wait.

Classico Tab

26,578 views 3 this week
no commentswrite comment
1 2 3 4 5
accurate
x 4
Autoscroll
+/-
esc
set tempo
stop
Contributor
WARNING: You are trying to view
                                    content from Ultimate-Guitar.com
                                    in an unauthorized application,
                                    which is prohibited.

                                    Please use an official Ultimate
                                    Guitar Tabs application for iPhone,
                                    iPad or Android to access legitimate
                                    chords, guitar, bass, and drum tabs
                                    from Ultimate-Guitar.com database.

                                    Type "ultimate guitar tabs" in Apple
                                    App Store's or Android Market's
                                    search to find the application.
Words and Music by
Jack Black and Kyle Gass

w/Pick and Fingers
~ = Vibrato


"Bouree in E minor" by Johann Sebastian Bach

e---0----2---|--3----2----0--------------0-----2---|---------------------0---|
B------------|---------------------4---------------|--0------2-----4---------|
G------------|-------------------------------------|-------------------------|
D------------|-------------------------------------|-------------------------|
A------------|-------0-------------2-----0---------|-------------------------|
E---3----3---|--0----------------------------------|--3------2-----------0---|


e--------------|------------------------------|----------------------------|
B-----3------1-|----0-------------------------|--0-------------------------|
G--------------|---------2----0--------0----2-|------2----0----------------|
D--------------|------------------4-----------|----------------4-----2-----|
A--------------|---------0--------2----0------|-----------2----------------|
E-----2--------|----3-------------------------|--3-------------------0-----|

"Fur Elise" by Ludwig Von Beethoven

e--7---6---7---6---7-----------------|----------------------------------|
B-----------------------7---10---8---|----------------------------------|
G------------------------------------|----------------------------------|
D------------------------------------|---9------------------------------|
A------------------------------------|---7---------------------6-----7--|
E------------------------------------|-------------------7--------------|

e----------------------------------|--------------------------7---6---|
B----------------------------------|----------------------------------|
G----------------------------------|----------------------------------|
D----------------------------------|---9------------------------------|
A---9---------------------6-----9--|---7------------------------------|
E---7---------------7--------------|----------------------------------|

e--7---6---7-----------------|----------------------------------|
B---------------7---10---8---|----------------------------------|
G----------------------------|----------------------------------|
D----------------------------|---9------------------------------|
A----------------------------|---7---------------------6-----7--|
E----------------------------|-------------------7--------------|

e-----------------------------------|-----------------------------|
B-----------------------------------|-------------7----8----10----|
G-----------------------------------|-----------------------------|
D-----------------------------------|---9-------------------------|
A---9---------------------10-----9--|---7-------------------------|
E---7---------------7---------------|-----------------------------|

e--7-----------------7----8----7----|----------------------7------|
B-----------------------------------|---10-----------10--------10-|
G-----------------------------------|-----------------------------|
D-----------------------------------|-----------------------------|
A-----------------------------------|-----------------------------|
E-----------------------------------|-----------------------------|

e-----------------------------------|------------------------------|
B---8----------------8----10----8---|---7--------------------------|
G-----------------------------------|------------------------------|
D-----------------------------------|----------------9----9----8---|
A-----------------------------------|------------------------------|
E-----------------------------------|------------------------------|

e----------------------------------|------------------------7----6--|
B----------------------------------|--------------------------------|
G----------------------------------|--------------------------------|
D---9----9----9----8---------------|--------------------------------|
A----------------------------------|--------------------------------|
E-----------------------7-----6----|----7----6----7----6------------|

e---7----6----7--------------------|--------------|--------------|
B-------------------7----10----8---|--------------|--------------|
G----------------------------------|------9~------|------8~------|
D----------------------------------|--------------|--------------|
A----------------------------------|--------------|--------------|
E----------------------------------|--------------|--------------|

"Eine Kleine Nachtmusik" by Wolfgang Amadeus Mozart

e--------------------------------|--------------------------|
B--------------------------------|------------------7-------|
G--------------------------------|--------------8-----------|
D-----9------------9\------------|---9------9---------------|
A-----------/9-------------/9----|-------9------------------|
E--------------------------------|--------------------------|

e--0--------------0--------------|-----0----------------------|
B-------------2--------------2---|--------2------2------------|
G--------------------------------|-----------3----------------|
D--------------------------------|--------------------4-------|
A--------------------------------|----------------------------|
E--------------------------------|----------------------------|

e--------------------------------|---------------------------------------|
B--------------------4----2------|---------------------------2---5-------|
G--/4----/4-------------------4--|--4---3----3-----------------------3---|
D--------------------------------|---------------------------------------|
A--------------------------------|---------------------------------------|
E--------------------------------|---------------------------------------|

e--------------------------------|---------------------------------------|
B----------------------4---2-----|---------------------------2---5-------|
G-----6-p-4---4---------------4--|--4---3----3-----------------------3---|
D--------------------------------|---------------------------------------|
A--------------------------------|---------------------------------------|
E--------------------------------|---------------------------------------|

e------------------------------------------|--------------------------------|
B------------------------------------------|--------------------------------|
G-----------------------------8-p-6-----6--|---8---8---11p9p8h9--11---11/13-|
D-/9---9---9--8--6--8--9---9---------9-----|--------------------------------|
A------------------------------------------|--------------------------------|
E------------------------------------------|--------------------------------|

e----------------------------------|-------------------------------------|
B----------------------------------|-------------------------------------|
G---11-p-9---9---9---9\8---8---8---|--8\6----6---6-----------------------|
D----------------------------------|-----------------9----8----6----8----|
A----------------------------------|-------------------------------------|
E----------------------------------|-------------------------------------|

e-----------------------------------|--------------------------------------|
B-----------------------------------|--------------------------------------|
G--------------------8-p-6------6---|---8------------------9-p-8--------8--|
D--9-------------9-----------9------|------------/9----9-----------11------|
A-----------------------------------|--------------------------------------|
E-----------------------------------|--------------------------------------|

e-----------------------------|-----------------------------------|
B---11------------11----------|-----------------------------------|
G-----------------------------|------------------8------10--------|
D-----------------------------|------9-----11---------------------|
A-----------------------------|-----------------------------------|
E-----------------------------|-----------------------------------|

e-----------------------------------|-------------------------------------|
B-----------------------------------|-------------------------------------|
G--11------------10-------10--------|---11-------------10--------10-------|
D------------11-------11------11----|--------------11-------11--------11--|
A-----------------------------------|-------------------------------------|
E-----------------------------------|-------------------------------------|

e---------------------------------|--------------------------------|
B---------------------------------|--------------------------------|
G---------11----11----11----11----|------10----10----10----10------|
D---------11----11----11----11----|------11----11----11----11------|
A----------9-----9-----9-----9----|------11----11----11----11------|
E---------------------------------|-------9-----9-----9-----9------|

e-----------------------------------|------------------|
B-----------------------------------|------------------|
G------10----10----10-----11---11---|---11----(11)/----|
D------11----11----11-----11---11---|---11----(11)/----|
A------11----11----11------9----9---|----9-----(9)/----|
E-------9-----9-----9---------------|------------------|
comments
print report bad tab
I want to post or [tab]
guest
You may want to rate the tab now too:
select rating
Please do not post tabs as comments. Select "correction" instead!