Oops, an error
Loading. Please wait.

Kickapoo Tab

ver5
ver5

Intro

Whole song

More versions @911Tabs.com
5,492 views 3 this week
no commentswrite comment
1 2 3 4 5
accurate
x 4
Autoscroll
+/-
esc
set tempo
stop
Contributor
Difficulty
novice
WARNING: You are trying to view
                                    content from Ultimate-Guitar.com
                                    in an unauthorized application,
                                    which is prohibited.

                                    Please use an official Ultimate
                                    Guitar Tabs application for iPhone,
                                    iPad or Android to access legitimate
                                    chords, guitar, bass, and drum tabs
                                    from Ultimate-Guitar.com database.

                                    Type "ultimate guitar tabs" in Apple
                                    App Store's or Android Market's
                                    search to find the application.
Kickapoo
Tenacious D

All the tabs I've seen were very close, but small mistakes all through the song
so I'm trying to fix all of that with my tab, hope you all like it.

Now, this is Really long but i was going for the simplest layout, just the song 
front to back.



Tuning Standard: EADGBe


e|---11131101---11131101---00000000---00000000------------------------|
B|---33333333---33333333---11131101---11131101------------------------|
G|---22222222---22222222---22222222---22222222------------------------|
D|--0----------0----------222222222--222222222------------------------|
B|--------------------------------------------------------------------|
E|--------------------------------------------------------------------|




e|---0000---0000---0000---3333----------------------------------------|
B|---1111---1111---1111---3333----------------------------------------|
G|---2222---2222---0000---0000----------------------------------------|
D|--33333--33333---2222---0000----------------------------------------|
B|----------------33333---2222----------------------------------------|
E|-----------------------33333----------------------------------------|



     1.                    2.
e|---11131101---11131101---00000000---00000000------------------------|
B|---33333333---33333333---11131101---11131101------------------------|
G|---22222222---22222222---22222222---22222222------------------------|
D|--0----------0----------222222222--222222222------------------------|
B|--------------------------------------------------------------------|
E|--------------------------------------------------------------------|
    1. A long ass fucking time ago in a town called Kickapoo
    2. There lived a humble family religious through and through


    1. 
e|---0000---0000---0000---3333----------------------------------------|
B|---1111---1111---1111---3333----------------------------------------|
G|---2222---2222---0000---0000----------------------------------------|
D|--33333--33333---2222---0000----------------------------------------|
B|----------------33333---2222----------------------------------------|
E|-----------------------33333----------------------------------------|
     1. But, yeah, there was a black sheep and he knew just what to do


     1.                    2.
e|---11131101---11131101---00000000---00000000------------------------|
B|---33333333---33333333---11131101---11131101------------------------|
G|---22222222---22222222---22222222---22222222------------------------|
D|--0----------0----------222222222--222222222------------------------|
B|--------------------------------------------------------------------|
E|--------------------------------------------------------------------|
    1. His name was young JB and he refused to step in line
    2. A vision he did see of fucking rocking all the time


    1.
e|---0000---0000---0000---3333-----3333-------------------------------|
B|---1111---1111---1111---3333-----3333-------------------------------|
G|---2222---2222---0000---0000-----0000-------------------------------|
D|--33333--33333---2222---0000-----0000-------------------------------|
B|----------------33333---2222-----2222-------------------------------|
E|-----------------------33333----33333-------------------------------|
    1. He wrote a tasty jam and oh the planets did align


    1.        2.                 3.        4.
e|--------------------------------------------------------------------|
B|--------------------------------------------------------------------|
G|--------------------------------------------------------------------|
D|--777777777x101010101010101010x555555555x888888888------------------|
B|--777777777x101010101010101010x555555555x888888888------------------|
E|--555555555x8-8-8-8-8-8-8-8-8-x333333333x666666666------------------|
    1. Oh the dragons balls were blazing 
    2. As I stepped into his cave
    3. And I sliced his fucking cockles 
    4. With a long and shiny blade


    1.        2.                 3.        4.
e|--------------------------------------------------------------------|
B|--------------------------------------------------------------------|
G|--------------------------------------------------------------------|
D|--777777777x101010101010101010x555555555x888888888------------------|
B|--777777777x101010101010101010x555555555x888888888------------------|
E|--555555555x8-8-8-8-8-8-8-8-8-x333333333x666666666------------------|
    1. Twas I who fucked the dragon
    2. Fuck-a-ly sing fuck-a-loo
    3. And if you try to fuck with me
    4. Then I shall fuck you too


            1.
e|--------------------------------------------------------------------|
B|--------------------------------------------------------------------|
G|---------------------------7---7------------------------------------|
D|--7777777x10101010x5555--7x7x7x7x7----------------------------------|
B|--7777777x10101010x5555--7x5x7x5x7----------------------------------|
E|--5555555x8-8-8-8-x3333--5x-x5x-x5----------------------------------|
    1. Gotta get it on in the party zone


            1.
e|--------------------------------------------------------------------|
B|--------------------------------------------------------------------|
G|---------------------------7---7------------------------------------|
D|----------10101010x5555--7x7x7x7x7----------------------------------|
B|----------10101010x5555--7x5x7x5x7----------------------------------|
E|----------8-8-8-8-x3333--5x-x5x-x5----------------------------------|
    1.I gots to shoot a load in the party zone


            1.
e|--------------------------------------------------------------------|
B|--------------------------------------------------------------------|
G|---------------------------7---7------------------------------------|
D|----------10101010x5555--7x7x7x7x7----------------------------------|
B|----------10101010x5555--7x5x7x5x7----------------------------------|
E|----------8-8-8-8-x3333--5x-x5x-x5----------------------------------|
    1. Got to lick a toad in the party zone


            1.
e|--------------------------------------------------------------------|
B|--------------------------------------------------------------------|
G|---------------------------7---7------------------------------------|
D|----------10101010x5555--7x7x7x7x7----------------------------------|
B|----------10101010x5555--7x5x7x5x7----------------------------------|
E|----------8-8-8-8-x3333--5x-x5x-x5----------------------------------|
    1. Got to suck a chode in the party zone


   (AAAAAAAAAAAAAHHHHHHHHHHHHHHHH!!!!!)


e|--------------------------------------------------------------------|
B|--------------------------------------------------------------------|
G|--44554--77887--22332--55665----------------------------------------|
D|--55xxx--88xxx--33xxx--66xxx----------------------------------------|
B|--55553--88888--33333--66666----------------------------------------|
E|--33333--66666--11111--44444----------------------------------------|


    1.            2.
e|--------------------------------------------------------------------|
B|--------------------------------------------------------------------|
G|--44554--77887--22332--55665----------------------------------------|
D|--55xxx--88xxx--33xxx--66xxx----------------------------------------|
B|--55553--88888--33333--66666----------------------------------------|
E|--33333--66666--11111--44444----------------------------------------|
    1. You disobeyed my orders son, why were you ever born?
    2. Your brothers ten times better than you, Jesus loves him more


    1.            2.
e|--------------------------------------------------------------------|
B|--------------------------------------------------------------------|
G|--44554--77887--22332--55665----------------------------------------|
D|--55xxx--88xxx--33xxx--66xxx----------------------------------------|
B|--55553--88888--33333--66666----------------------------------------|
E|--33333--66666--11111--44444----------------------------------------|
    1. This music that you play for us, comes from the depths of hell
    2. Rock 'N Rolls the devils work, he wants you to rebel


    1.            2.
e|--------------------------------------------------------------------|
B|--------------------------------------------------------------------|
G|--44554--77887--22332--55665----------------------------------------|
D|--55xxx--88xxx--33xxx--66xxx----------------------------------------|
B|--55553--88888--33333--66666----------------------------------------|
E|--33333--66666--11111--44444----------------------------------------|
    1. You become a mindless puppet, Beelzebub will pull the strings
    2. Your heart will lose direction and chaos it will bring


            1.
e|--------------------------------------------------------------------|
B|--------------------------------------------------------------------|
G|------------------------5---5---------------------------------------|
D|--5555555x8888x3333---5x5x5x5x5-------------------------------------|
B|--5555555x8888x3333---5x3x5x3x5-------------------------------------|
E|--3333333x6666x1111---3x-x3x-x3-------------------------------------|
    1. You better shut your mouth, you better watch your tone


    1.
e|--------------------------------------------------------------------|
B|--------------------------------------------------------------------|
G|---------------5---5------------------------------------------------|
D|--8888x3333--5x5x5x5x5----------------------------------------------|
B|--8888x3333--5x3x5x3x5----------------------------------------------|
E|--6666x1111--3x-x3x-x3----------------------------------------------|
    1. Your grounded for a week with no telephone


    1.
e|--------------------------------------------------------------------|
B|--------------------------------------------------------------------|
G|---------------5---5------------------------------------------------|
D|--8888x3333--5x5x5x5x5----------------------------------------------|
B|--8888x3333--5x3x5x3x5----------------------------------------------|
E|--6666x1111--3x-x3x-x3----------------------------------------------|
    1. Don't let me hear you cry, Don't let me hear you moan


 1.
e|--------------------------------------------------------------------|
B|--------------------------------------------------------------------|
G|---------------5---5------------------------------------------------|
D|--8888x3333--5x5x5x5x5----------------------------------------------|
B|--8888x3333--5x3x5x3x5----------------------------------------------|
E|--6666x1111--3x-x3x-x3----------------------------------------------|
    1. You gotta praise the lord when your in my home


    1.          2.         3.         4.
e|-----3h5p3----6-6--6-----1111-1h3p1---------------------------------|
B|----3-----3-3-6--8-6-----1111---------4-----------------------------|
G|---4-------4--7----7-87--2222--------5--5/6-5-----------------------|
D|--5-----------8----8-87--3333-------6--6----------------------------|
B|--------------------------------------------------------------------|
E|--------------------------------------------------------------------|
    1. Dio can you hear me
    2. I am lost and so alone
    3. I'm asking for your guidance
    4. Will you come down from your throne

    
    1.          2.         3.         4.
e|-----3h5p3----6-6--6-----1111-1h3p1---------------------------------|
B|----3-----3-3-6--8-6-----1111---------4-----------------------------|
G|---4-------4--7----7-87--2222--------5--5/6-5-----------------------|
D|--5-----------8----8-87--3333-------6--6----------------------------|
B|--------------------------------------------------------------------|
E|--------------------------------------------------------------------|
    1. I need a tight compadre 
    2. Who will teach me how to rock
    3. My father thinks your evil
    4. But man he can suck a cock


    1.          2.         3.         4.
e|-----3h5p3----6-6--6-----1111-1h3p1-4-4-4-4-4-----------------------|
B|----3-----3-3-6--8-6-----1111-------4-4-4-4-4-----------------------|
G|---4-------4--7----7-87--2222-------5-5-5-5-5-----------------------|
D|--5-----------8----8-87--3333-------6-6-6-6-6-----------------------|
B|--------------------------------------------------------------------|
E|--------------------------------------------------------------------|
    1. Rock is not the devils work
    2. It's magical and rad 
    3. I'll never rock as long as I am
    4. Stuck here with my dad



e|--------------------------------------------------------------------|
B|--------------------------------------------------------------------|
G|--------------------------------------------------------------------|
D|--5555-6666-3333---888-666------------------------------------------|
B|--5555-6666-3333---888-666------------------------------------------|
E|--3333-4444-1111---666-444------------------------------------------|


    1.   2.   3.              4.   5.   6.    
e|--------------------------------------------------------------------|
B|--------------------------------------------------------------------|
G|--5----5----5----3333-333---5----5----5---3333-333-3~---------------|
D|--5----5----5----3333-333---5----5----5---3333-333-3~---------------|
B|--3----3----3----1111-111---3----3----3---1111-111-1~---------------|
E|--------------------------------------------------------------------|
    1. I hear you brave young Jables you are
    2. Hungry for the rock but to
    3. Learn the ancient methods sacred doors you must unlock
    4. Escape your fathers clutches in this
    5. Oppressive neighborhood, on a
    6. Journey you must go to a land called hollywood

    1.        2.         3.           4.
e|--------------------------------------------------------------------|
B|--------------------------------------------------------------------|
G|--5---------5----------5------------5-------------------------------|
D|--5--3--6---5--3--5-6--5--3--5-666--5--3--5-------------------------|
B|--3--3--6---3--3--5-6--3--3--5-666--3--3--5-------------------------|
E|-----1--4------1--3-4-----1--3-444-----1--3-------------------------|
    1. In the city of fallen angels, where the ocean meets the sand
    2. You will form a strong alliance, and the worlds most awesome band
    3. To find your fame and fortune, through the valley you must walk
    4. You will face your inner demons, now go my son and rock


e|--------------------------------------------------------------------|
B|--------------------------------------------------------------------|
G|-------------887-------------887-------------887--5-7-8-10----------|
D|--55555-xxxx-887--55555-xxxx-887--55555-xxxx-887--5-7-8-10----------|
B|--55555-xxxx-665--55555-xxxx-665--55555-xxxx-665--3-5-6-8-----------|
E|--33333-xxxx------33333-xxxx------33333-xxxx------------------------|



e|--------------------------------------------------------------------|
B|--------------------------------------------------------------------|
G|-------------887-------------887-------------887--5-7-8-10----------|
D|--55555-xxxx-887--55555-xxxx-887--55555-xxxx-887--5-7-8-10----------|
B|--55555-xxxx-665--55555-xxxx-665--55555-xxxx-665--3-5-6-8-----------|
E|--33333-xxxx------33333-xxxx------33333-xxxx------------------------|



    1.    2.   3.
e|--------5~----------------------------------------------------------|
B|--------6~----------------------------------------------------------|
G|--------7~----------------------------------------------------------|
D|--5~----7~---888888--33333------------------------------------------|
B|--5~----5~---888888--33333------------------------------------------|
E|--3~---------666666--11111------------------------------------------|
    1. So he bailed from fucking Kickapoo with hunger in his heart
    2. And he journeyed far and wide to find the secrets of his art
    3. But in the end he knew that he would find his counterpart


    1.
e|--------------------------------------------------------------------|
B|--------------------------------------------------------------------|
G|-------------887-------------887-------------887--5-7-8-10----------|
D|--55555-xxxx-887--55555-xxxx-887--55555-xxxx-887--5-7-8-10----------|
B|--55555-xxxx-665--55555-xxxx-665--55555-xxxx-665--3-5-6-8-----------|
E|--33333-xxxx------33333-xxxx------33333-xxxx------------------------|
    1. ROOOOOOOOOOOOOOOOOOOOOOOOOOOOOOCCCCCCCCCCCCCCCCK

  
    1.                                              2.
e|--------------------------------------------------------------------|
B|--------------------------------------------------------------------|
G|-------------887-------------887-------------887--5-7-8-10----------|
D|--55555-xxxx-887--55555-xxxx-887--55555-xxxx-887--5-7-8-10----------|
B|--55555-xxxx-665--55555-xxxx-665--55555-xxxx-665--3-5-6-8-----------|
E|--33333-xxxx------33333-xxxx------33333-xxxx------------------------|
    1. ROOOOOOOOOOOOOOOOOOOOOOOOOOCCCCCCCCCCCCCCCCCCCCK
    2. Roooo-


    1.                                         2.
e|--------------------------------------------------------------------|
B|--------------------------------------------------------------------|
G|-------------887-------------887-------------887--5-7-8-10----------|
D|--55555-xxxx-887--55555-xxxx-887--55555-xxxx-887--5-7-8-10----------|
B|--55555-xxxx-665--55555-xxxx-665--55555-xxxx-665--3-5-6-8-----------|
E|--33333-xxxx------33333-xxxx------33333-xxxx------------------------|
    1. -ooo-hiiiyaaahiiiyaaahiiiiiiiihhhaaaaaaaayyyaaaa
    2. Roooocccckkkk


e|--------------------------------------------------------------------|
B|--------------------------------------------------------------------|
G|-------------887-------------887-------------887--5-7-8-10----------|
D|--55555-xxxx-887--55555-xxxx-887--55555-xxxx-887--5-7-8-10----------|
B|--55555-xxxx-665--55555-xxxx-665--55555-xxxx-665--3-5-6-8-----------|
E|--33333-xxxx------33333-xxxx------33333-xxxx------------------------|



THE END!!
comments
print report bad tab
I want to post or [tab]
guest
You may want to rate the tab now too:
select rating
Please do not post tabs as comments. Select "correction" instead!