Oops, an error
Loading. Please wait.

Pick Of Destiny Tab

ver3
ver3

Album

Solo

Whole song

Interactive

More versions @911Tabs.com
8,529 views 6 this week
6 commentsread comments
1 2 3 4 5
excellent!
x 4
Autoscroll
+/-
esc
set tempo
stop
Contributor
Difficulty
Tabbers playing skills
intermediate
intermediate ++
Hey! There's an official Ultimate Guitar app which is ideal
for learning songs when you're away from computer. Get the app
WARNING: You are trying to view
                                    content from Ultimate-Guitar.com
                                    in an unauthorized application,
                                    which is prohibited.

                                    Please use an official Ultimate
                                    Guitar Tabs application for iPhone,
                                    iPad or Android to access legitimate
                                    chords, guitar, bass, and drum tabs
                                    from Ultimate-Guitar.com database.

                                    Type "ultimate guitar tabs" in Apple
                                    App Store's or Android Market's
                                    search to find the application.
                           THE PICK OF DESTINY (P.O.D)
                           As recorded by Tenacious D
                      (From the 2006 Album PICK OF DESTINY)

Words and Music by Jack Black and Kyle Gass
Transcribed by Donkey Fly

 Intro/Chorus
  Q=130
            $
              Am
 4/4
  Gtr I
|---------|---0--0-0----|-0-0-0-0---0-0-0-|
|---------|---1--0-1----|-1-1-0-1---0-1-1-|
|---------|---2--0-2-x--|-2-2-0-2---0-2-2-|
|---------|---2--0-2-x--|-2-2-0-2---0-2-2-|
|---------|---0--0-0-x--|-0-0-0-0---0-0-0-|
|---------|-------------|-----------------|
|
| Gtr III
|---------|-------------|-----------------|
|---------|-------------|-----------------|
|---------|-------------|-----------------|
|---------|-------------|-----------------|
|---------|-------------|---------3-2-0---|
|---------|-------------|-5-0-3-5-------3-|


  F5                G5                      Am
|-----------------|-------------------|-----0--0-0----|-0-0-0-0---0-0-0-|
|-----------------|-------------------|-----1--0-1----|-1-1-0-1---0-1-1-|
|-----------------|-------------------|-x-x-2--0-2-x--|-2-2-0-2---0-2-2-|
|-3-3-3-3-3-3-3-3-|--5--5-5-5-5-5-5-5-|-x-x-2--0-2-x--|-2-2-0-2---0-2-2-|
|-3-3-3-3-3-3-3-3-|--5--5-5-5-5-5-5-5-|-x-x-0--0-0-x--|-0-0-0-0---0-0-0-|
|-1-1-1-1-1-1-1-1-|--3--3-3-3-3-3-3-3-|---------------|-----------------|
|
| ~             ~~~~~~~~
|-----------------|-------------------|---------------|-----------------|
|-----------------|-------------------|---------------|-----------------|
|-----------------|-------------------|---------------|-----------------|
|-----------------|-------------------|---------------|-----------------|
|---------3-2-0---|-----------3-2-0---|---------------|---------3-2-0---|
|-1-------------3-|-(3)-3-5-3-------3-|---------------|-5-0-3-5-------3-|


                             To Coda
  F5                G5
|-----------------|-------------------|
|-----------------|-------------------|
|-----------------|-------------------|
|-3-3-3-3-3-3-3-3-|--5--5-5-5-5-5-5-5-|
|-3-3-3-3-3-3-3-3-|--5--5-5-5-5-5-5-5-|
|-1-1-1-1-1-1-1-1-|--3--3-3-3-3-3-3-3-|
|
| ~             ~~~~~~~~
|-----------------|-------------------|
|-----------------|-------------------|
|-----------------|-------------------|
|-----------------|-------------------|
|---------3-2-0---|-----------3-2-0---|
|-1-------------3-|-(3)-3-5-3-------3-|


   Verse
    A                       G          F                 G
    Gtr I
    PM|   PM|   PM|     PM|            PM|   PM|   PM|
                                                                          3x
||------------------|----------3-3-3-|-----------------|-------3--3-3-3---||
||o-----------------|----------3-3-3-|-----------------|-------3--3-3-3--o||
||------2-----2-----|-2--------0-0-0-|-----------------|-0-0-0-0--0-0-0---||
||------2-----2-----|-2--------0-0-0-|-----3-----3-----|-0-0-0-0--0-0-0---||
||o-0-0-0-0-0-0-0-0-|-0-0-0-x--x-x-x-|-----3-----3-----|-x-x-x-x--x-x-x--o||
||------------------|-------3--3-3-3-|-1-1-1-1-1-1-1-1-|-3-3-3-3--3-3-3---||
|
|   Gtr III
|   PM|   PM|   PM|     PM|            PM|   PM|   PM|
|                                                                         3x
||------------------|----------------|-----------------|------------------||
||o-----------------|----------------|-----------------|-----------------o||
||------2-----2-----|-2--------------|-----------------|------------------||
||------2-----2-----|-2--------------|-----3-----3-----|------------------||
||o-0-0-0-0-0-0-0-0-|-0-0-0-5--5-5-5-|-----3-----3-----|-5-5-5-5--5-5-5--o||
||------------------|-------3--3-3-3-|-1-1-1-1-1-1-1-1-|-3-3-3-3--3-3-3---||


                                                         D.S. al Coda
  A                 A5    G          F                 G
  PM|   PM|   PM|     PM|            PM|   PM|   PM|
|-----------------|----------3-3-3-|-----------------|-3-3-3-3-3-3-3-3-|
|-----------------|----------3-3-3-|-----------------|-3-3-3-3-3-3-3-3-|
|-----2-----2-----|-2--------0-0-0-|-----------------|-0-0-0-0-0-0-0-0-|
|-----2-----2-----|-2--------0-0-0-|-----3-----3-----|-0-0-0-0-0-0-0-0-|
|-0-0-0-0-0-0-0-0-|-0-0-0-x--x-x-x-|-----3-----3-----|-x-x-x-x-x-x-x-x-|
|-----------------|-------3--3-3-3-|-1-1-1-1-1-1-1-1-|-3-3-3-3-3-3-3-3-|
|
| PM|   PM|   PM|     PM|            PM|   PM|   PM|
|-----------------|----------------|-----------------|-----------------|
|-----------------|----------------|-----------------|-----------------|
|-----2-----2-----|-2--------------|-----------------|-----------------|
|-----2-----2-----|-2--------------|-----3-----3-----|-----------------|
|-0-0-0-0-0-0-0-0-|-0-0-0-5--5-5-5-|-----3-----3-----|-5-5-5-5-5-5-5-5-|
|-----------------|-------3--3-3-3-|-1-1-1-1-1-1-1-1-|-3-3-3-3-3-3-3-3-|


   Interlude
    &
    F5                G5                  F5                G5
      PM|   PM|         PM|   PM|           PM|   PM|         PM|   PM|
||------------------|------------------||-----------------|------------------|
||o-----------------|-----------------o||-----------------|------------------|
||------------------|------------------||-----------------|------------------|
||--3-----3-----3-3-|-5-----5-----5-5--||-3-----3-----3-3-|-5-----5-----5-5--|
||o-3-----3-----3-3-|-5-----5-----5-5-o||-3-----3-----3-3-|-5-----5-----5-5--|
||--1-1-1-1-1-1-1-1-|-3-3-3-3-3-3-3-3--||-1-1-1-1-1-1-1-1-|-3-3-3-3-3-3-3-3--|
|
|     PM|   PM|         PM|   PM|           PM|   PM|         PM|   PM|
||------------------|------------------||-----------------|------------------|
||o-----------------|-----------------o||-----------------|------------------|
||------------------|------------------||-----------------|------------------|
||--3-----3-----3-3-|-5-----5-----5-5--||-3-----3-----3-3-|-5-----5-----5-5--|
||o-3-----3-----3-3-|-5-----5-----5-5-o||-3-----3-----3-3-|-5-----5-----5-5--|
||--1-1-1-1-1-1-1-1-|-3-3-3-3-3-3-3-3--||-1-1-1-1-1-1-1-1-|-3-3-3-3-3-3-3-3--|


  Am  G   F/C G     E
|-0---3---1---3---|-------0-----|
|-1---3---1---3---|-0-0---0-----|
|-2-x-0---2---0---|-1-1---1-----|
|-2-x-0-x-3-x-0-x-|-2-2-x-2-----|
|-0-x-2-x-3-x-2-x-|-2-2-x-2-----|
|-----3-x---x-3-x-|-0-0-x-0-----|


 Verse 2
  Dm                                  Am
|---1-----1-------|---1-----1-------|---0-----0-------|---0-----0-------|
|-----3-----3---3-|-----3-----3---3-|-----1-----1---1-|-----1-----1---1-|
|-------2-----2---|-------2-----2---|-------2-----2---|-------2-----2---|
|-0---------------|-0---------------|-----------------|-----------------|
|-----------------|-----------------|-0---------------|-0---------------|
|-----------------|-----------------|-----------------|-----------------|


  C                 G
|-0-0-----0-------|---3-----3-------|
|-1---1-----1---1-|-----3-----3---3-|
|-0-----0-----0---|-------0-----0---|
|-2---------------|-0---------------|
|-3---------------|-2---------------|
|-----------------|-3---------------|
|
| Gtr II
| PM------------------------------|
|-----------------|-----------------|
|-----------------|-----------------|
|-----------------|-----------------|
|-5-5-5-5-5-5-5-5-|-----------------|
|-3-3-3-3-3-3-3-3-|-5-------5-5-5-5-|
|-----------------|-3-3-3-3-3-3-3-3-|


 Chorus
      Am                            F5                G5
  Gtr I
|-----0--0-0----|-0-0-0-0---0-0-0-|-----------------|-------------------|
|-----1--0-1----|-1-1-0-1---0-1-1-|-----------------|-------------------|
|-x-x-2--0-2-x--|-2-2-0-2---0-2-2-|-----------------|-------------------|
|-x-x-2--0-2-x--|-2-2-0-2---0-2-2-|-3-3-3-3-3-3-3-3-|--5--5-5-5-5-5-5-5-|
|-x-x-0--0-0-x--|-0-0-0-0---0-0-0-|-3-3-3-3-3-3-3-3-|--5--5-5-5-5-5-5-5-|
|---------------|-----------------|-1-1-1-1-1-1-1-1-|--3--3-3-3-3-3-3-3-|
|
| Gtr III
|                                   ~             ~~~~~~~~
|---------------|-----------------|-----------------|-------------------|
|---------------|-----------------|-----------------|-------------------|
|---------------|-----------------|-----------------|-------------------|
|---------------|-----------------|-----------------|-------------------|
|---------------|---------3-2-0---|---------3-2-0---|-----------3-2-0---|
|---------------|-5-0-3-5-------3-|-1-------------3-|-(3)-3-5-3-------3-|


      Am                            F5                G5
|-----0--0-0----|-0-0-0-0---0-0-0-|-----------------|-------------------|
|-----1--0-1----|-1-1-0-1---0-1-1-|-----------------|-------------------|
|-x-x-2--0-2-x--|-2-2-0-2---0-2-2-|-----------------|-------------------|
|-x-x-2--0-2-x--|-2-2-0-2---0-2-2-|-3-3-3-3-3-3-3-3-|--5--5-5-5-5-5-5-5-|
|-x-x-0--0-0-x--|-0-0-0-0---0-0-0-|-3-3-3-3-3-3-3-3-|--5--5-5-5-5-5-5-5-|
|---------------|-----------------|-1-1-1-1-1-1-1-1-|--3--3-3-3-3-3-3-3-|
|
|                                   ~             ~~~~~~~~
|---------------|-----------------|-----------------|-------------------|
|---------------|-----------------|-----------------|-------------------|
|---------------|-----------------|-----------------|-------------------|
|---------------|-----------------|-----------------|-------------------|
|---------------|---------3-2-0---|---------3-2-0---|-----------3-2-0---|
|---------------|-5-0-3-5-------3-|-1-------------3-|-(3)-3-5-3-------3-|


   Interlude 2
    F5                G5                  F5                G5
      PM|   PM|         PM|   PM|           PM|   PM|         PM|   PM|
||------------------|------------------||-----------------|------------------|
||o-----------------|-----------------o||-----------------|------------------|
||------------------|------------------||-----------------|------------------|
||--3-----3-----3-3-|-5-----5-----5-5--||-3-----3-----3-3-|-5-----5-----5-5--|
||o-3-----3-----3-3-|-5-----5-----5-5-o||-3-----3-----3-3-|-5-----5-----5-5--|
||--1-1-1-1-1-1-1-1-|-3-3-3-3-3-3-3-3--||-1-1-1-1-1-1-1-1-|-3-3-3-3-3-3-3-3--|
|
|     PM|   PM|         PM|   PM|           PM|   PM|         PM|   PM|
||------------------|------------------||-----------------|------------------|
||o-----------------|-----------------o||-----------------|------------------|
||------------------|------------------||-----------------|------------------|
||--3-----3-----3-3-|-5-----5-----5-5--||-3-----3-----3-3-|-5-----5-----5-5--|
||o-3-----3-----3-3-|-5-----5-----5-5-o||-3-----3-----3-3-|-5-----5-----5-5--|
||--1-1-1-1-1-1-1-1-|-3-3-3-3-3-3-3-3--||-1-1-1-1-1-1-1-1-|-3-3-3-3-3-3-3-3--|


 Solo
  Am                                      G5
|-----------------|-------------------0-----|
|-----------------|-------------------0-----|
|---------------5-|-(5)b5.5-------------5---|
|-----------5-7---|-----------5-7-(7)-----7-|
|-----------------|-------------------------|
|-----------------|-------------------------|
|
| Gtr II
|-----------------|-------------------------|
|-1-1-1-1-1-1-1-1-|--1------1-1-1--1--1-1---|
|-2-2-2-2-2-2-2-2-|--2------2-2-2--2--2-2-0-|
|-2-2-2-2-2-2-2-2-|--2------2-2-2--2--2-2-0-|
|-0-0-0-0-0-0-0-0-|--0------0-0-0--0--0-0-x-|
|-----------------|-----------------------3-|


  F/C                          G5
|----------------------------|---0-0----0--------------|
|----------------------------|---------------------0---|
|-7b8---5---7b9==(7)r(7)-5---|-5-7-7-7-(7)b9-(7)-5-----|
|--------------------------7-|-----------------------7-|
|----------------------------|-------------------------|
|----------------------------|-------------------------|
|
|-1---1-1-1-------1---1--1-1-|-3-3-3----3-----3--3-3-3-|
|-1---1-1-1-------1---1--1-1-|-3-3-3----3-----3--3-3-3-|
|-2---2-2-2-------2---2--2-2-|-0-0-0----0-----0--0-0-0-|
|-3---3-3-3-------3---3--3-3-|-0-0-0----0-----0--0-0-0-|
|-3---3-3-3-------3---3--3-3-|-x-x-x----x-----x--x-x-x-|
|----------------------------|-3-3-3----3-----3--3-3-3-|


  Am                                         G5
|-----0-----0-------0-|--(0)--0--0--0-0-0----0-|
|-----0-----0-------0-|--(0)--0--0--0-0-0----0-|
|-----9S10-10S12---12-|-(12)-14-12-14---9S10---|
|---------------------|------------------------|
|---------------------|------------------------|
|---------------------|------------------------|
|
|---------------------|------------------------|
|-1-1-1--1--1--1-1--1-|---1---1--1--1-1-1--1---|
|-2-2-2--2--2--2-2--2-|---2---2--2--2-2-2--2-0-|
|-2-2-2--2--2--2-2--2-|---2---2--2--2-2-2--2-0-|
|-0-0-0--0--0--0-0--0-|---0---0--0--0-0-0--0-x-|
|---------------------|----------------------3-|


  F/C                                               G5
|--0-----0--0--0-----0--0--0-----0--0--0-----0--0-|--0-----0--0--0-----0--0--0-------|
|--0-----0--0--0-----0--0--0-----0--0--0-----0--0-|--0-----0--0--0-----0--0--0-------|
|-10S12-12-12-12S14-14-14-14S16-16-16-16S17-17-17-|-17S19-19-19-19S21-21-21-21-------|
|-------------------------------------------------|------------------------------7-5-|
|-------------------------------------------------|----------------------------------|
|-------------------------------------------------|----------------------------------|
|
|--1-----1-----1-----1-----1-----1-----1-----1----|--3-----3-----3-----3-----3-3-3-3-|
|--1-----1-----1-----1-----1-----1-----1-----1----|--3-----3-----3-----3-----3-3-3-3-|
|--2-----2-----2-----2-----2-----2-----2-----2----|--0-----0-----0-----0-----0-0-0-0-|
|--3-----3-----3-----3-----3-----3-----3-----3----|--0-----0-----0-----0-----0-0-0-0-|
|--3-----3-----3-----3-----3-----3-----3-----3----|--x-----x-----x-----x-----x-x-x-x-|
|-------------------------------------------------|--3-----3-----3-----3-----3-3-3-3-|


 Final Interlude
  F5                      G5
  Gtr II
    PM----|     PM|          PM|     PM---|
|-----------------------|-----------------------|
|-----------------------|-----------------------|
|-----------------------|-----------------------|
|-3-----------3-----3-3-|--5------5---------5-5-|
|-3-----------3-----3-3-|--5------5---------5-5-|
|-1-1------1--1-1-1-1-1-|--3-3-3--3--3----3-3-3-|
|
| Gtr I
|-----------------------|----8-8-10-11b12-------|
|-----------------------|-10--------------------|
|---7b7.5r(7)-5-7-5-----|-----------------------|
|-7---------------------|-----------------------|
|-----------------------|-----------------------|
|-----------------------|-----------------------|


  F5                    G5
    PM|   PM--|           PM|   PM|
|---------------------|--------------------|
|---------------------|--------------------|
|---------------------|--------------------|
|-3-----3---------3-3-|-5-----5-----5--5---|
|-3-----3---------3-3-|-5-----5-----5--5---|
|-1-1-1-1-1----1--1-1-|-3-3-3-3-3-3-3--3---|
|
|                             ~~~~~~~~~~~~~
|---------------------|--------------------|
|---------------------|--------------------|
|---------------------|--------------------|
|---------------------|--------------------|
|---3-5-3-5b6r(5)-3---|-3------------------|
|-5-----------------5-|---5-3-5-------(5)\-|


  F5                       G5
      PM|     PM|              PM|     PM|
|------------------------|---------------------|
|------------------------|---------------------|
|------------------------|---------------------|
|--3--------3-----3----3-|--5-------5------5-5-|
|--3--------3-----3----3-|--5-------5------5-5-|
|--1--1--1--1-1-1-1----1-|--3--3-3--3--3-3-3-3-|
|
|------------------------|---------------------|
|------------------------|---------------------|
|-----------------9h10p9-|---------------------|
|----------10------------|-12-10-9-------------|
|-12-10-12---------------|---------12-10-8-7-8-|
|------------------------|---------------------|


 Outro
  F       C    G5   E7     Am
|-1----x---0-x--3-x------|--0-----------------|
|-1----x---1-x--3-x--0-x-|--1-----------------|
|-2----x---0-x--0-x--1-x-|--2-----------------|
|-3----x---2-x--0-x--0-x-|--2-----------------|
|----------3-x--x-x--2-x-|--0-----------------|
|---------------3-x--0-x-|--------------------|
|
|------------------------|--------------------|
|------------------------|--------------------|
|-7b8r(7)----------------|--------------------|
|---------10-7-10-7----7-|-(7)----(7)\-----2--|
|-------------------10---|---------------3----|
|------------------------|-------------5------|


  F   C   G5  E7    Am
|-1-x-0-x-3-x-----|-0--------|-(0)----*|
|-1-x-1-x-3-x-0-x-|-1--------|-(1)----*|
|-2-x-0-x-0-x-1-x-|-2--------|-(2)----*|
|-3-x-2-x-0-x-0-x-|-2--------|-(2)----*|
|-----3-x-x-x-2-x-|-0--------|-(0)----*|
|---------3-x-0-x-|----------|--------*|
|
|                   ~~~~~~~~~~~~~~~
|-----------------|----------|--------*|
|-----------------|----------|--------*|
|-----------------|----------|--------*|
|-3-x-------------|----------|--------*|
|-----3-x---------|----------|--------*|
|---------3-x-0---|-5--------|-(5)----*|


Thanks

I rated this as an intermediate for on acoustic.
comments
print report bad tab
6 comments total. Showing first comments.
0 reply
Metal_Militia15 wrote on December 8 2006, 08:49 pm

This looks SO much like mine lol...

0 reply
Donkey Fly wrote on December 9 2006, 01:34 pm

except mine has solos and detail

0 reply
cockels wrote on February 24 2007, 12:41 pm

5*

I want to post or [tab]
guest
You may want to rate the tab now too:
select rating
Please do not post tabs as comments. Select "correction" instead!