Oops, an error
Loading. Please wait.

Tenacious D Bass Tab

35,655 views 42 this week
4 commentsread comments
1 2 3 4 5
excellent!
x 8
Autoscroll
+/-
esc
set tempo
stop
Contributor
Difficulty
intermediate
WARNING: You are trying to view
                                    content from Ultimate-Guitar.com
                                    in an unauthorized application,
                                    which is prohibited.

                                    Please use an official Ultimate
                                    Guitar Tabs application for iPhone,
                                    iPad or Android to access legitimate
                                    chords, guitar, bass, and drum tabs
                                    from Ultimate-Guitar.com database.

                                    Type "ultimate guitar tabs" in Apple
                                    App Store's or Android Market's
                                    search to find the application.
                                     The Tenacious D album bass tab

I have arranged bass tab for every song featuring a bass guitar on the Tenacious D album.
The songs marked with (N/A) do not feature a bass guitar so there is no tab for them.

1. Kielbasa
2. One Note Song (N/A)
3. Tribute
4. Wonderboy
5. Hard Fucking (N/A)
6. Fuck Her Gently (N/A)
7. Explosivo
8. Dio
9. Inward Singing (N/A)
10. Kyle Quit the Band
11. The Road
12. Cock Push-Ups (N/A)
13. Lee
14. Friendship Test (N/A)
15. Friendship
16. Karate Schnitzel (N/A)
17. Karate (N/A)
18. Rock Your Socks
19. Drive-Thru (N/A)
20. Double Team
21. City Hall
21. Bonus Track: Malibu Nights (N/A)

All songs use standard tuning unless indicated otherwise. "h" indicates a hammer-on.
indicates a bend-release.
"|-n-|", where n is a number, indicates a n-tuplet. I have included quotes from the song
aid you in recognising which
bit you are playing.

Please bear in mind the work I have done in the tabbing, compiling, reformatting so as
read better of this tab
before you rate it.

Thanks, enjoy the tab and the sounds of the D!


1. Kielbasa (Standard Tuning)

  |====== 12x =======|
G||------------------|
D||------------------|
A||------------------|
E||------------------|

Verse One ("I love you baby")

==================== 2x =====================|
---------------------|-----------------------|---------------------|--------------------------|
---------------------|-----------------------|---------------------|--------------------------|
---------------------|-----------3-----------|---------------------|---------3--3-3-3-3-3--3--|
--3--------3--3------|--1--1--1--------------|--3--------3--3------|--1-----------------------|

----------------------------|-----------------------|
----------------------------|-----------------------|
-----2--2h-3-2--0--2--------|-----------3-----------|
--3-------------------3--1--|--1--1--1--------------|

Guitar Solo One

-----------------------------|--------------------------|---------------------------|-----------------------|
-----------------------------|--------------------------|---------------------------|-----------------------|
-----------------------------|-----------3--3--3--3--3--|---------------------------|-----------3-----------|
--3---1h-3---1h-3-3-3--3--3--|--1--1--1-----------------|--3----3---1h-3-3-3--3--3--|--1--1--1--------------|

Verse Two ("I see you walking")

-------------------|-------------------------|---------------------|-----------------------|----------------------|
-------------------|-------------------------|---------------------|-----------------------|----------------------|
-------------------|-----------3-----3--3----|---------------------|-----------3-----------|----------------------|
--3----------------|--1--1-------------------|--3--------3--3------|--1--1--1--------------|--3--------3--3----1--|


3x ==========|
--------------------------|----------------------------|------------------------|-----------------------|
--------------------------|----------------------------|------------------------|-----------------------|
-----------3--L--3--------|-----2--2h-3-2--0--2--------|------------3-----------|--0--------------------|
--1--1--------------1--2--|--3-------------------3--1--|--1--1--1/--------------|-----3--1--0-----------|

Guitar Solo Two

------------------------------|--------------------------|------------------------------|-----------------------|
------------------------------|--------------------------|------------------------------|-----------------------|
--3---1h-3p---1h-3-1-3--3--1--|-----------3-----3--3--3--|--3---1h-3p---1h-3-1-3--3--1--|--0--------------------|
------------------------------|--1--1--1-----------------|------------------------------|-----3--1--0-----------|

Interlude

======================== 11x ========================|
--------------------------|--------------------------|--------------------------|-------------------------|
--------------------------|--------------------------|--------------------------|-------------------------|
-----------------------0--|--3--3--3--3--3--3--3--0--|--------------------------|-------------------------|
--3--3--3--3--3--3--3-----|--------------------------|--0----0---0-0-0-0--0--0--|--1--1--1--1--1----------|

Outro

--------------------------|----------------------------|--------------------------|----------------------------|
--------------------------|----------------------------|--------------------------|----------------------------|
-----------3--------------|----------------------------|-----------3--------------|----------------------------|
--3----3-------3-3--3/----|--0---0-0--0-0-0-0-1--1--1--|--3----3-------3-3--3/----|--0---0-0--0-0-0-0-1--1--1--|

--------------------------|----------------------------|--------------------------|----------------------||
--------------------------|----------------------------|--------------------------|----------------------||
-----------3--------------|----------------------------|--3--3--3--3--3--3--3--3--|--3-------------------||
--3----3-------3-3--3/----|--0---0-0--0-0-0-0-1--1--1--|--------------------------|----------------------||


2. One Note Song (N/A): Skit


3. Tribute (Standard Tuning)

Intro

  |======= 5x =======|
G||------------------|
D||------------------|
A||------------------|
E||------------------|

Verse One

====== 22x =======|
------------------|
------------------|
------------------|
------------------|

Chorus One

======= 4x =======|
------------------|
------------------|
------------------|
------------------|

[When drums sound] ("look in to my eyes and its easy to see...")

================================ 2x =================================|
----------------------|----------------------|-----------------------|----------------------|
----------------------|----------------------|--3---3----3-----------|----------------------|
--5----5--------------|--3----3--------------|-----------------------|------------------5-7-|
------------1----1----|------------1----1----|-----------------------|----------------------|

Verse Two ("Needless to say")

=========== 6x ============|
---------------------------|----------------------|
----------------------5h-7-|----------------------|
--0------0--0----5h-7------|--0------0--0---------|
---------------------------|----------------------|

Chorus Two ("Ahhh, ahhh, ahhh-ah-ah-ah-ah-ahh")

----------------------|----------------------|-----------------------|-----------------------|
----------------------|----------------------|--3---3----3-----------|--3---3----3-----------|
--5----5--------------|--3----3--------------|-----------------------|-----------------------|
------------1----1----|------------1----1----|-----------------------|-----------------------|

Bridge ("This is not the greatest song in the world")

-----------------------|--------------------------------|
-----------------------|---------------------------5h-7-|
--0----0----0--0-------|----------------------5h-7------|
------------------5----|--3--x-3----5--5--5-5-----------|


-----------------------|-------------------------------|
-----------------------|--------------------------5h-7-|
--0----0----0--0-------|---------------------5h-7------|
------------------5----|--3--3--4--5-----5-5-----------|

====================== 2x ==============================|
-----------------------|--------------------------------|
-----------------------|---------------------------5h-7-|
--0----0----0--0-------|----------------------5h-7------|
------------------5----|--3--x-3----5--5--5-5-----------|

======================== 2x ========================|
-------------------------|--------------------------|
-------------------------|--------------------------|
-------------------------|--------------------------|
--5----5--5--3-----3--3--|--2--2-2----1-----1--3----|

-------------------------|------------------------------|
-------------------------|------------------------------|
-------------------------|------------------------------|
--5----5--5--3-----3--3--|--2--2-2----1-----1-1-1-1-1-1-|

----------------------|
----------------------|
----------------------|
--5-------------------|

Vocal Solo ("Ti Tuga digga tu Gi Friba fligugibu Uh Fligugigbu Uh Di Ei Friba")

-------------------|-------------------|
-------------------|-------------------|
-------------------|-------------------|
-------------------|-------------------|

[Drums restart]

                      |======================== 2x ========================|
----------------------|-------------------------|--------------------------|
----------------------|-------------------------|--------------------------|
----------------------|-------------------------|--------------------------|
-----------/14--------|--5----5--5--3-----3--3--|--2--2-2----1-----1--3----|

Verse Three ("And the perculiar thing is this my friends")

======================== 6x ========================|
-------------------------|--------------------------|
-------------------------|--------------------------|
-------------------------|--------------------------|
--5----5--5--3-----3--3--|--2--2-2----1-----1--3----|

========================= 2x ==========================|
--------------------------|----------------------------|
--------2--x--------2--x--|----------------------------|
--------------------------|----------------------------|
--0--0--------0--0--------|--0--x-1--x-0--0--x-1--x-0--|

Outro

--------------------------|----------------------------|
--------2--x--------2--x--|----------------------------|
--------------------------|----------------------------|
--0--0--------0--0--------|--0--x-1--x-0--0--x-1--x-0--|

----------------------------|----------------------------|-------------------------------|
----------------------------|----------------------------|-------------------------------|
----------------------------|----------------------------|-------------------------------|
--0--x-1--x-0--0--x-1--x-0--|--0--x-1--x-0--0--x-1--x-0--|--0--0-0--0-0-0-0--0-0--0-0-0--|

----------------------|
----------------------|
----------------------|
--12------------------|

End section

let ring----------------------------------------------------||

--------------------|-------------------|-------------------||
--------------------|-------------------|-------------------||
--------------------|-------------------|-------------------||
--5-----------------|-------------------|-------------------||


4. Wonderboy (Standard Tuning)

Intro

  |======= 2x =======|
G||------------------|
D||------------------|
A||------------------|
E||------------------|

let ring-------------------------------|

-------------------|-------------------|-------------------|
-------------------|-------------------|-------------------|
--5----------------|-------------------|--5----------------|
-------------------|-------------------|-------------------|

-----------------------|-------------------|-----------------------|
-----------------------|-------------------|--------------7--8--7--|
-----------------------|--5----------------|-----------------------|
--------------5--6--5--|-------------------|-----------------------|

Verse One ("High above the mucky-muck, castle made of clouds")

let ring-------------------------------|

-------------------|-------------------|-------------------|-----------------------|--------------------------|
-------------------|-------------------|-------------------|-----------------------|--------------------------|
--5----------------|-------------------|--5----------------|-----------------------|--5--5--5--5--5--5--5--5--|
-------------------|-------------------|-------------------|--------------5--6--5--|--------------------------|

--------------------------|--------------------------|-------------------------|--------------------|
--------------------------|--------------------------|-------------------------|--------------------|
--4--4--4--4--4--4--4--4--|--------------------------|-------------------------|--5------------5----|
--------------------------|--7--7--7--7--7--7--7--7--|--5--5--5-----3-----5----|--------------------|

---------------------------|-------------------|-----------------------|--------------------------|
--12-----------------------|-------------------|--------------7--8--7--|--------------------------|
---------------12--13--12--|--5----------------|-----------------------|--5--5--5--5--5--5--5--5--|
---------------------------|-------------------|-----------------------|--------------------------|

--------------------------|--------------------------|-------------------------|--------------------|
--------------------------|--------------------------|-------------------------|--------------------|
--4--4--4--4--4--4--4--4--|--------------------------|-------------------------|--5------------5----|
--------------------------|--7--7--7--7--7--7--7--7--|--5--5--5-----3-----5----|--------------------|

---------------------------|-------------------|-----------------------|
--12-----------------------|-------------------|--------------7--8--7--|
---------------12--13--12--|--5----------------|-----------------------|
---------------------------|-------------------|-----------------------|

Verse Two ("Now it's time for me to tell you about Young Nastyman")

--------------------|-----------------------|---------------------|-----------------------|
--------------------|-----------------------|---------------------|-----------------------|
--5-----------------|--5--------------------|--5------------------|--5--------------------|
---------------5----|--------------5--6--5--|------------------5--|--------------5--6--5--|

--------------------------|--------------------------|--------------------------|--------------------------|
--------------------------|--------------------------|--------------------------|--------------------------|
--5--5--5--5--5--5--5--5--|--4--4--4--4--4--4--4--4--|--------------------------|--------------------------|
--------------------------|--------------------------|--7--7--7--7--7--7--7--7--|--5--5--5--5--5--5--5--5--|

--------------------------|--------------------------|--------------------------|--9--11--11--12--12--14--14--16--|
--------------------------|--------------------------|--------------------------|---------------------------------|
--------------------------|--------------------------|--------------------------|---------------------------------|
--3--3--3--3--3--3--3--3--|--2--2--2--2--2--2--2--2--|--0--0--0--0--0--0--0--0--|---------------------------------|

                       let ring-------------------------------|

--16------------------|-------------------|-------------------|
----------------------|-------------------|-------------------|
-------------------0--|--0----------------|-------------------|
----------------------|-------------------|-------------------|

Chorus One ("History of Wonderboy and Young Nastyman")

-----------------------|--7------------------|-------------------|-----------------------|--------------------------|
------------------7h-8-|------------------7--|-------------------|-----------------------|--------------------------|
--5--------------------|---------------------|--5----------------|-----------------------|--5--5--5--5--5--5--5--5--|
-----------------------|---------------------|-------------------|--------------5--6--5--|--------------------------|

--------------------------|--------------------------|-------------------------|-----------------------|
--------------------------|--------------------------|-------------------------|------------------7h-8-|
--4--4--4--4--4--4--4--4--|--------------------------|-------------------------|--5--------------------|
--------------------------|--7--7--7--7--7--7--7--7--|--5--5--5-----3-----5----|-----------------------|

--7--------------------|---------------------|-----------------------|--------------------------|
--------------7--8--7--|---------------------|--------------7--8--7--|--------------------------|
-----------------------|--5---------------5--|--5--------------------|--5--5--5--5--5--5--5--5--|
-----------------------|---------------------|-----------------------|--------------------------|

--------------------------|--------------------------|-------------------------|-----------------------|
--------------------------|--------------------------|-------------------------|------------------7h-8-|
--4--4--4--4--4--4--4--4--|--------------------------|-------------------------|--5--------------------|
--------------------------|--7--7--7--7--7--7--7--7--|--5--5--5-----3-----5----|-----------------------|

--7--------------------|---------------------|-----------------------|
-----------------------|---------------------|-----------------------|
-----------------------|--5------------------|--5--------------------|
--------------5--6--5--|------------------5--|--------------5--6--5--|

Verse Three ("Well, Wonderboy and Young Nastyman joined forces")

---------------------|-----------------------|---------------------|-----------------------|
---------------------|-----------------------|---------------------|-----------------------|
--5---------------0--|--5--------------------|--5------------------|--5--------------------|
---------------------|--------------5--6--5--|------------------5--|--------------5--6--5--|

--------------------------|--------------------------|--------------------------|-------------------------|
--------------------------|--------------------------|--------------------------|-------------------------|
--5--5--5--5--5--5--5--5--|--4--4--4--4--4--4--4--4--|--------------------------|-------------------------|
--------------------------|--------------------------|--7--7--7--7--7--7--7--7--|--5--5--5-----3-----5----|

--------------------------|-------------------|--7-----7-----7-----7-----|--7-----7-----7-----7-----|
--------------------------|-------------------|-----7-----7-----7-----7--|-----8-----8-----8-----8--|
--3--3--3--3--------------|--5----------------|--------------------------|--------------------------|
--------------3--3--3--3--|-------------------|--------------------------|--------------------------|

--7-----7-----7-----7-----|--7-----7-----7-----------|--------------------------|--------------------------|
-----7-----7-----7-----7--|-----8-----8-----8--7--5--|--------------------------|--------------------------|
--------------------------|--------------------------|--5--5--5--5--5--5--5--5--|--4--4--4--4--4--4--4--4--|
--------------------------|--------------------------|--------------------------|--------------------------|

--------------------------|----------------------------------|
--------------------------|------11--12--14--16--14--12--11--|
--------------------------|--10------------------------------|
--7--7--7--7--7--7--7--7--|----------------------------------|

Chorus Two ("Wonderboy, what is the secret of your power?")

                                                let ring-------------------------------|

-----------------------|--7--------------------|-------------------|-------------------|--------------------------|
------------------7h-8-|--------------7--8--7--|-------------------|-------------------|--------------------------|
--5--------------------|-----------------------|--5----------------|-------------------|--5--5--5--5--5--5--5--5--|
-----------------------|-----------------------|-------------------|-------------------|--------------------------|


4x ============================|
--------------------------|--------------------------|-------------------------|--------------------------|------------------------------|
--------------------------|--------------------------|-------------------------|--------------------------|--------------12--12--12------|
--4--4--4--4--4--4--4--4--|--------------------------|-------------------------|--5--5--5--5--5--5--5--5--|--5--5--5--5--------------12--|
--------------------------|--7--7--7--7--7--7--7--7--|--5--5--5-----3-----5----|--------------------------|------------------------------|

Outro


  let ring-------------------------------||

-----------------------|--7--------------------|-------------------|-----------------------|-------------------|-------------------||
------------------7h-8-|--------------7--8--7--|-------------------|-----------------------|-------------------|-------------------||
--5--------------------|-----------------------|--5----------------|-----------------------|--5----------------|-------------------||
-----------------------|-----------------------|-------------------|--------------5--6--5--|-------------------|-------------------||


5. Hard Fucking (N/A): Skit


6. Fuck Her Gently (N/A): No bass guitar


7. Explosivo (Standard Tuning)

Intro

  |======= 8x =======|
G||------------------|
D||------------------|
A||------------------|
E||------------------|

Verse One ("What's the name of the song?")

========================= 3x ========================|
--------------------------|--------------------------|
--------------------------|--------------------------|
--------------------------|--------------------------|
--8--8--8--8--8--8--8--8--|--4--4--4--4--6--6--6--6--|

========================= 2x ========================|
--------------------------|--------------------------|
--------------------------|--------------------------|
--------------------------|--------------------------|
--8--8--8--8--8--8--8--8--|--4--4--4--4--3--3--3--3--|

--------------------------|--------------------------|
--------------------------|--------------------------|
--------------------------|--------------------------|
--8--8--8--8--8--8--8--8--|--4--4--4--4--6--6--6--6--|

--------------------------|--------------------------|
--------------------------|--------------------------|
--------------------------|--------------------------|
--8--8--8--8--8--8--8--8--|--4--4--4--4--3--3--3--3--|

--------------------------|--------------------------|
--------------------------|--------------------------|
--------------------------|--------------------------|
--8--8--8--8--8--8--8--8--|--4--4--4--4--6--6--6--6--|

--------------------------|--------------------------|
--------------------------|--------------------------|
--------------------------|--------------------------|
--8--8--8--8--8--8--8--8--|--4--4--4--4--3--3--3--3--|

Chorus ("We were the inventors")

===================== 4x ====================|
----------------------|----------------------|
----------------------|----------------------|
----------------------|----------------------|
--8----8----8----8----|--11---11---13---13---|

Bridge

================== 3x ==================|
-------------------|--------------------|
-------------------|--------------------|
-------------------|--------------------|
--8----------------|--6--------4--------|

Verse Two ("What's the name of the song?")

--------------------------|--------------------------|
--------------------------|--------------------------|
--------------------------|--------------------------|
--8--8--8--8--8--8--8--8--|--4--4--4--4--6--6--6--6--|

--------------------------|--------------------------|
--------------------------|--------------------------|
--------------------------|--------------------------|
--8--8--8--8--8--8--8--8--|--4--4--4--4--3--3--3--3--|

Outro [Continually Play faster]

===================== 6x ========================|
----------------------|--------------------------|
----------------------|--------------------------|
----------------------|--------------------------|
--8----8----8----8----|--11----11----13----13----|

----------------------|--------------------------||
----------------------|--------------------------||
----------------------|--------------------------||
--8----8----8----8----|--11----11----13----13----||


8. Dio (Dropped D Tuning)

  |======= 8x =======|
G||------------------|
D||------------------|
A||------------------|
D||------------------|

("It's time to pass the torch")

--------------------------|--------------------------|--------------------------|--------------------------|
--------------------------|--------------------------|--------------------------|--------------------------|
--3--3--3--3--3--3--3--3--|--5--5--5--5--3--3--3--3--|--3--3--3--3--3--3--3--3--|--------------------------|
--------------------------|--------------------------|--------------------------|--5--5--5--5--3--3--3--3--|

("But we will sing a song about you")

--------------------------|-------------------|-----------------------|-------------------|-----------------------|
--------------------------|-------------------|-----------------------|-------------------|-----------------------|
--------------------------|-------------------|-----0h-3-5------------|-------------------|--3--3-----------------|
--5--5--5--5--5--5--5--5--|--3----------------|--5--------------------|--3----------------|-----------5-----------|

("Your sauce will mix with ours")

========== 3x ============|
--------------------------|----------------------------------|--------------------------|--------------------------|
--------------------------|----------------------------------|--------------------------|--------------------------|
--5--5--5--5--3--3--5--5--|--x-x-x-x-x-x-x-x-x-x-x-x-x-x-x-x-|--5--5--5--5--5--5--5--5--|--3--3--3--3--5--5--3--3--|
--------------------------|----------------------------------|--------------------------|--------------------------|

("Go! Go!")

--------------------------|--------------------------|--------------------------|--------------------------|
--------------------------|--------------------------|--------------------------|--------------------------|
--3--3--3--3--3--3--3--3--|--5--5--5--5--7--7--7--7--|--3--3--3--3--3--3--3--3--|--0--0--0--0--0--0--0--0--|
--------------------------|--------------------------|--------------------------|--------------------------|

-----------------------------|-------------------------|-------------------||
-----------------------------|-------------------------|-------------------||
--5--5--5--5--5h-7-5--5--5-5-|--5--7--5--3--0--7--7----|--7----------------||


9. Inward Singing (N/A): Skit


10. Kyle Quit the Band (Standard Tuning)

Intro ("Last week, Kyle quit the band")

G||-------------------|-------------------|--------------------|--------------8h-9-8----|
D||-------------------|-------------------|--------------------|------------------------|
A||--2----------------|-------------------|-----------2--------|------------------------|
E||-------------------|--5----------------|--0-----------------|------------------------|

-------------------|-------------------|--------------------|------------------------|
-------------------|-------------------|--------------------|------------------------|
--2----------------|-------------------|-----------2--------|--2-----------------2---|
-------------------|--5----------------|--0-----------------|-------1----0----0----0-|

Chorus ("Couldn't split up Kato and Nash.")

--------------------|------------------------|--------------------|------------------------|
--------------------|------------------------|--------------------|------------------------|
-----------2--------|--2-----------------2---|-----------2--------|--2-----------------2---|
--0-----------------|-------1----0----0----0-|--0-----------------|-------1----0----0----0-|

-------------------|-------------------|--------------------|------------------------|
-------------------|-------------------|--------------------|------------------------|
--2----------------|-------------------|-----------2--------|--2-----------------2---|
-------------------|--5----------------|--0-----------------|-------1----0----0----0-|

--------------------|------------------------|--------------------|------------------------|
--------------------|------------------------|--------------------|------------------------|
-----------2--------|--2-----------------2---|-----------2--------|--2-----------------2---|
--0-----------------|-------1----0----0----0-|--0-----------------|-------1----0----0----0-|

Bridge ("and then we thrash")

                       |======================== 4x =====================|
-----------------------|-------------------------|-----------------------|
-----------------------|-------------------------|-----------------------|
------------2-----2----|-----3-----3-----5----2--|---------------5-------|
--1----0-------0-------|--3-----3-----5----------|-----5------------5----|

Outro

-------------------------|-------------------------|-------------------------|-------------------------|
-------------------------|-------------------------|-------------------------|-------------------------|
--------------2-----2----|-----3-----3-----5--2----|--------------2-----2----|-----3-----3-----5--2----|
--1--1--0--0-----0-------|--3-----3-----5----------|--1--1--0--0-----0-------|--3-----3-----5----------|

-------------------------|-------------------------|-------------------------|-------------------------||
-------------------------|-------------------------|-------------------------|-------------------------||
--------------2-----2----|-----3-----3-----5--2----|--------------2-----2----|-----3-----3-----5--2----||
--1--1--0--0-----0-------|--3-----3-----5----------|--1--1--0--0-----0-------|--3-----3-----5----------||


12. Cock Push-Ups (N/A): Skit


11. The Road (Dropped D Tuning)

Intro

G||-----------------|
D||-----------------|
A||-----------------|
D||-7-7-7-7-7-7-7-7-|

Verse One ("The road is fuckin' hard)

|---------------------------------------------------------|
|---------------------------------------------------------|
|-------------------------------------2-2---------2-2-----|
|-7-7-7-7-5-5-0-0-7-7-7-7-5-5-0-0-7-7-----3-3-7-7----3-3-2|

("You g-go go go!")

|---------------------|
|---------------------|
|---------------------|
|-7-7-7-7-7-7-7-7-7-7-|

Verse Two ("The road is fuckin' hard")

|---------------------------------------------------------|
|---------------------------------------------------------|
|-------------------------------------2-2---------2-2-----|
|-7-7-7-7-5-5-0-0-7-7-7-7-5-5-0-0-7-7-----3-3-7-7----3-3-2|

("You g-go go go!")

|---------------------|
|---------------------|
|---------------------|
|-7-7-7-7-7-7-7-7-7-7-|

Tasty Baby in Michigan section

|============ 2x ============|
|----------------------------|
|----------------------------|
|-1-1------------------------|
|-----0h2-2-2h3-3-3-3p2-2-2--|

|-----------------------------|
|-----------------------------|
|-1-1-------------------------|
|-----0h2-2-2h3-3-3-3-3-3-3-3-|

Outro

|--------------------------||
|--------------------------||
|-3-3----------------------||
|-----2-2-1-1-3-3-6-6-5-5--||


13. Lee (Standard Tuning)

  |======= 4x ========|
G||-------------------|
D||-------------------|
A||-------------------|
E||-------------------|

Intro ("Lee")

--------------------------|--------------------------|--------------------------|--------------------------|
--------------------------|--------------------------|--------------------------|--------------------------|
--5--5--5--5--5--5--5--5--|--3--3--3--3--3--3--3--3--|--1--1--1--1--1--1--1--1--|--3--3--3--3--3--3--3--3--|
--------------------------|--------------------------|--------------------------|--------------------------|

Verse One ("Lee Lee Lee Lee Lee Lee Lee Lee Lee")

==================================================== 4x ===================================================|
--------------------------|--------------------------|--------------------------|--------------------------|
--------------------------|--------------------------|--------------------------|--------------------------|
--5--5--5--5--5--5--5--5--|--3--3--3--3--3--3--3--3--|--1--1--1--1--1--1--1--1--|--3--3--3--3--3--3--3--3--|
--------------------------|--------------------------|--------------------------|--------------------------|

("Skinny-dippin' in a sea of Lee")

--------------------------|--------------------------|--------------------------|--------------------------|
--------------------------|--------------------------|--------------------------|--------------------------|
--5--0--5--0--5--0--5--0--|--3--0--3--0--3--0--3--0--|--1--0--1--0--1--0--1--0--|--3--0--3--0--3--0--3--0--|
--------------------------|--------------------------|--------------------------|--------------------------|

Chorus ("To Lee Lee Lee, Lee Lee Lee")

----------------------------------------|---------------------------------------|
----------------------------------------|---------------------------------------|
--/17--17--17\--17--17--17\--17--17-17\-|--15--15--15\--15--15--15\--15--15-15\-|
----------------------------------------|---------------------------------------|

----------------------------------|----------------------------------|
----------------------------------|----------------------------------|
--13--13--13--13--13--13--13--13--|--15--15--15--15--15--15--15--15--|
----------------------------------|----------------------------------|

==================================================== 2x ===================================================|
--------------------------|--------------------------|--------------------------|--------------------------|
--------------------------|--------------------------|--------------------------|--------------------------|
--5--5--5--5--5--5--5--5--|--3--3--3--3--3--3--3--3--|--1--1--1--1--1--1--1--1--|--3--3--3--3--3--3--3--3--|
--------------------------|--------------------------|--------------------------|--------------------------|

Outro ("Just for Lee!")

==================================================== 2x ===================================================|
--------------------------|--------------------------|--------------------------|--------------------------|
--------------------------|--------------------------|--------------------------|--------------------------|
--5--5--5--5--5--5--5--5--|--3--3--3--3--3--3--3--3--|--1--1--1--1--1--1--1--1--|--3--3--3--3--3--3--3--3--|
--------------------------|--------------------------|--------------------------|--------------------------|

("Woah Lee!")

--------------------||
--------------------||
--5\----------------||
--------------------||


14. Friendship Test (N/A): Skit


15. Friendship (Standard Tuning)

Intro

  |======= 2x =======|
G||------------------|
D||------------------|
A||------------------|
E||------------------|

Verse One ("Friendship is rare")

==================================================== 2x ===================================================|
--------------------------|--------------------------|--------------------------|--------------------------|
--------------------------|--------------------------|--------------------------|--------------------------|
--2--2--2--2--2--2--2--2--|--2--2--2--2--2--2--2--2--|--------------------------|--------------------------|
--------------------------|--------------------------|--6--6--6--6--6--6--6--6--|--6--6--6--6--6--6--6--6--|

Chorus One ("It's rare to me, can't you see?")

==================================================== 2x ===================================================|
--------------------------|--------------------------|--------------------------|--------------------------|
--------------------------|--------------------------|--------------------------|--------------------------|
--------------------------|--------------------------|--2--2--2--2--2--2--2--2--|--2--2--2--2--2--2--2--2--|
--7--7--7--7--7--7--7--7--|--2--2--2--2--2--2--2--2--|--------------------------|--------------------------|

Verse Two: PLAY VERSE ONE AGAIN

Chorus Two: PLAY CHORUS ONE AGAIN

Bridge ("It's rare to me.")

|-------------------|-------------------|-------------------|-------------------|
|-------------------|-------------------|-------------------|-------------------|
|-------------------|--2----------------|-------------------|--2----------------|
|--7----------------|-------------------|--7----------------|-------------------|

Outro ("Friends will be friends")

================== 2x =====================|
-------------------|-----------------------|
-------------------|-----------------------|
-------------------|-----------------------|
--2----------------|--1--2--1--2--1--------|

                                                    |============= 2x ==============|
--------------------|-------------------------------|-------------------------------|
--------------------|-------------------------------|-------------------------------|
--------------------|-------------------------------|-------------------------------|
--2--------4--------|--2--2--2--2-2-2-2-2-2-2-2-2-2-|--2-2-2-2-2-2-2-2-2-2-2-2-2----|

================== 2x =====================|
-------------------|-----------------------|
-------------------|-----------------------|
-------------------|-----------------------|
--2----------------|--1--2--1--2--1--------|

-------------------------|-------------------------------|-------------------------------||
-------------------------|-------------------------------|-------------------------------||
-------------------------|-------------------------------|-------------------------------||
--2----2----2--2--2--2-2-|--2-2-2-2-2-2-2-2-2-2-2-2-2----|--2-2-2-2-2-2-2-2-2-2-2-2-2----||


16. Karate Schnitzel (N/A): Skit


17. Karate (N/A): No bass guitar


18. Rock Your Socks (Standard Tuning)

Intro

  |=============== 4x ===============|=============== 3x ===============|
G||----------------------------------|----------------------------------|
D||----------------------------------|----------------------------------|
A||----------------------------------|--0-0-0-0-3-3-3-3-6-6-6-6-5-3-5-3-|
E||--0-0-0-0-3-3-3-3-6-6-6-6-5-3-5-3-|----------------------------------|

Verse One ("It doesn't matter if it is good")

=============== 9x ===============|
----------------------------------|
----------------------------------|
----------------------------------|
--0-0-0-0-3-3-3-3-6-6-6-6-5-3-5-3-|

Classical Bach Section

====== 10x =======|
------------------|
------------------|
------------------|
------------------|

Chorus  One ("Give it up for KG, give it up for me")

======================= 2x ========================|
------------------------|--------------------------|
------------------------|--------------------------|
--7-7-7-0----7----7-----|--7--7--7--0--7--7--7--7--|
------------------------|--------------------------|

----------------------|--------------------------|
----------------------|--------------------------|
--0----0----0----0----|--0--0--2--2--4--4--6--6--|
----------------------|--------------------------|

----------------------|------------------------|
----------------------|------------------------|
--7----7----5----7----|--7----7----5--7--5--7/-|
----------------------|------------------------|

Bridge

=============== 4x ===============|
----------------------------------|
----------------------------------|
----------------------------------|
--0-0-0-0-3-3-3-3-6-6-6-6-5-3-5-3-|

Verse Two ("Now I know what a lot of you are sayin'")

=============== 25x ==============|
----------------------------------|-------------------|
----------------------------------|-------------------|
----------------------------------|-------------------|
--0-0-0-0-3-3-3-3-6-6-6-6-5-3-5-3-|--0----------------|

------------------|
------------------|
------------------|
------------------|

Chorus Two (2-3-4, Give it up for KG, give it up for me")

=========== 2x ===========|
--------------------------|
--------------------------|
--7-7-7-0----7--7--7--7---|
--------------------------|

---------------------------|--------------------------|
---------------------------|--------------------------|
--7-7-7-0----7--7-5h-7--7--|--7-7-7-0--------7-7-7-7--|
---------------------------|--------------------------|

--------------------------|--------------------------|------------------------|
--------------------------|--------------------------|------------------------|
--7-7-7-0----7--7/-12/----|--7-7-7-0----7--7--12/----|--7-7-7-0----7----7-----|
--------------------------|--------------------------|------------------------|

-------------------------|
-------------------------|
--0----7--7--0--7--0--7/-|
-------------------------|

Outro

----------------------------------|
----------------------------------|
--7-7-7-7-7-7-7-7-7-7-7-7-7-7-7-7/|
----------------------------------|

----------------------------------|----------------------------------|
--14--14--14--14--14--------------|--14--14--14--14--14--------------|
----------------------12--12--12--|----------------------12--12--12--|
----------------------------------|----------------------------------|

--14--------------14--------------|--14--14--12--14--14--12--14------|
------12--12--12------12--12--12--|------------------------------12--|
----------------------------------|----------------------------------|

--------------------------|----------------------||
--------------------------|----------------------||
--0--0--2--2--4--4--6--6--|--7----7----5----7----||
--------------------------|----------------------||


19. Drive-Thru (N/A): Skit


20. Double Team (Standard Tuning)

Intro ("Damn")

  |======= 26x ======|
G||------------------|
D||------------------|
A||------------------|
E||------------------|

[When drums sound]

--------------------------|--------------------------|
--------------------------|--------------------------|
--------------------------|--------------------------|
--5--5--5--5--5--5--5--5--|--3--3--3--3--7--7--7--7--|

("Here me and KG come naked")

--------------------------|---------------------------|--------------------------|-------------------------|
--------------------------|---------------------------|--------------------------|-------------------------|
--------------------------|---------------------------|--------------------------|-------------------------|
--0--x--0--x--0--x--4--6--|-----6--6--6--5--x--3--12--|--0--x--0--0--0-----0--4--|--6----6--6--5--x--3--3--|

--------------------------|--------------------------|--------------------------|--------------------------|
--------------------------|--------------------------|--------------------------|--------------------------|
--------------------------|--------------------------|-----------------------0--|-----0--2--0--2-----------|
--0--x--0--x--0--x--4--6--|-----6--6--5--x--3--x--2--|--0--0--2--x--2-----2-----|--------------------3--2--|

--------------------------|--------------------------|
--------------------------|--------------------------|
-----------------------0--|-----0--2--0--2-----------|
--0--0--2--x--2-----2-----|--------------------3--2--|

Sex Supreme

                                             |=============================== 2x ==============================|
---------------------|-----------------------|--------------------------------|--------------------------------|
---------------------|-----------------------|--------------------------------|--------------------------------|
---------------------|-----------------------|--------------------------------|--------------------------------|
--0------------------|-------------------5-5-|--0----0---0---0---0---0---0----|--3----3---3---3----5---5---5---|

--------------------------------|----------------------------------|---------------------------------|
--------------------------------|------------------7br-7-5---------|---------------------------------|
--------------------------------|--------------------------7-5-----|--5-7----------------------------|
--0----0---0---0---0---0---0----|--3----3---3---3--------------7-5-|--------0---0---0---0---0---0----|

--------------------------------|--------------------------------|--------------------------------|
--------------------------------|--------------------------------|--------------------5---7-------|
--------------------------------|--------------------------------|--------------------------------|
--3----3---3---3----5---5---5---|--0----0---0---0---0---0---0----|--3----3---3---3------------7---|

---------------------------------|----------------------------------|---------------------------------|
---------------------------------|------------------7br-7-5---------|---------------------------------|
--7-7----------------------------|--------------------------7-5-----|--5-7----------------------------|
--------0---0---0---0---0---0----|--3----3---3---3--------------7-5-|--------0---0---0---0---0---0----|

--------------------------------|
--------------------------------|
--------------------------------|
--3----3---3---3----5---5---5---|

Suckin' On Toes ("We don't mind sucking on toes!")

---------------------|--------------------------------|---------------------------------|
---------------------|--------------------------------|---------------------------------|
---------------------|--5--5-5-7-7-5-5--5-7-5-7-6-4-6-|-------------------------5-5-----|
--0------------------|--------------------------------|--0------3-----0-0-0-------------|

                                                                    |-3-|
                                |=========== 2x ============|=============== 4x ==============|
--------------------------------|---------------------------|---------------------------------|
--------------------------------|---------------------------|---------------------------------|
--5--5-5-7-7-5-5--5-7-5-7-6-4-6-|--3--3--3--x-2--2-2--2--2--|--5--5-5-5-7-5-5-3--3-3----------|
--------------------------------|---------------------------|------------------------3--3-3-3-|

Outro

----------------------------|------------2------------------|----------------------------|
----------------------------|-------------------------------|----------------------------|
--1--1--1-1-1-3--3-3--3--3--|--0--0--0-0---0--0-0-0-0-0-0-0-|--1--1--1-1-1-3--3-3--3--3--|
----------------------------|-------------------------------|----------------------------|

------------2------------------|------------------------------|------------------------------|
-------------------------------|------------------------------|------------------------------|
--0--0--0-0---0--0-0-0-0-0-0-0-|--1--1--1-1-1-3--3-3--3-3-3-3-|--6--6--6-6-6-8--8-8--8-8-8-8-|
-------------------------------|------------------------------|------------------------------|

------------------------------------------|--------------------------|--------------------------|
------------------------------------------|--------------------------|--------------------------|
--11--11--11--11-13--13-13-13-13-13-13-13-|--13-13-13-13-13-13-13-13-|--------------------------|
------------------------------------------|--------------------------|--5-----5-----5-----5-----|


  |--3-|  |--3--|  |--3--|  |--3--|     |--3--|  |--3--|  |--3--|  |--3--|     |--3--|  |--3--||--3--|  |--3--|
                                     |================ 2x ==================|
-------------------------------------|--------------------------------------|--------------------------------------|
--7----7--7--7--7--7--7--7--7--7--7--|--------------------------------------|--------------------------------------|
-------------------------------------|--------------------------------------|--------------------------------------|
--5----5--5--5--5--5--5--5--5--5--5--|--5--5--5--5--5--5--5--5--5--5--5--5--|--5--5--5--5--5--5-----5--5--5--5--5--|


   |--3--|  |--3--|  |--3--|  |--3--|   let ring------------|
|=============== 2x ===================|
|--------------------------------------|--------------------|--------------------|-------||
|--------------------------------------|--------------------|--7-----------------|-------||
|--------------------------------------|--------------------|--------------------|-------||
|--5--5--5--5--5--5--5--5--5--5--5--5--|--------------------|--5-----------------|-------||


21. City Hall (Standard Tuning)

Intro ("it's time to rise up, up up up")

  |======= 8x ========|
G||-------------------|---------------------------|------------------------|
D||-------------------|---------------------------|------------------------|
A||-------------------|---------------------------|------------------------|
E||-------------------|--4--5--4--5-4----5--4--5--|--4--5--4-5----4--------|

'Verse'/Fast Section

Lyrics to this section:

Lots of times when me and KG are watchin'
All the fuckin' shit that goes down at City Hall,
We get the feeling we should fuck shit up,
Yeah we should fuckin' start a riot.
A Riot!

We have 'em screaming in the streets,
we have 'em tippin' over shit and breakin' fuckin' windows of small businesses,
and settin' fuckin' fires!
and settin' fuckin' fires!
and settin' fuckin' fires!

======= 4x ========|========================= 13x
3x ========================|
-------------------|--------------------------|--------------------------|--------------------------|--------------------------|
-------------------|--------------------------|--------------------------|--------------------------|--------------------------|
-------------------|--------------------------|--------------------------|--------------------------|--------------------------|
-------------------|--5--5--5--5--5--5--5--5--|--1--1--1--1--3--3--3--3--|--5--5--5--5--5--5--5--5--|--8--8--8--8--3--3--3--3--|

-----------------------|
-----------------------|
-----------------------|
--5\-------------------|

Two Kings Section

Lyrics to this section:

And then after the smoke is cleared,
and the rubble has been swept away,
me and KG will peek out our heads.
We've been watching the riots on a monitor twenty floors below sea level,
from a bunker.

We did it Rage-Kage, we beat the bastards of City Hall!
[laughs] But now what will we do?
We must rebuild. But who will lead us in the rebuilding process?

======= 9x ========|======= 2x ========|
-------------------|-------------------|-------------------------|-------------------|
-------------------|-------------------|-------------------------|-------------------|
-------------------|-------------------|-------------------------|-------------------|
-------------------|--5----------------|--5-------------/5----3--|--2----------------|

-------------------|-------------------|-------------------|-------------------|
-------------------|-------------------|-------------------|-------------------|
-------------------|-------------------|--5----------------|-------------------|
--1----------------|--0----------------|-------------------|--0----------------|

Two Kings (Elbow Grease)

Lyrics to this section:

Man, it's got to be someone with the know-how
and the elbow grease to lead us to a new land.
No, not me and KG, we don't have the cognitive capacity to lead...
Alright, we'll do it!

[sung]
We'll lead as Two Kings,
We'll lead as Two Kings.
Ahhhaaa (Two Kings, we'll lead as Two Kings)
Ah-ha ah-how,
We'll lead as Two Kings.

-------------------------|-------------------------|--------------------------|-------------------|
-------------------------|-------------------------|--------------------------|-------------------|
-------------------------|-------------------------|--------------------------|-------------------|
--5----------------------|--5-------5--5-------3---|--5-------------/5----3---|--5----------------|

--------------------------|--------------------------|--------------------------|----------------------|
--------------------------|--------------------------|--------------------------|----------------------|
--------------------------|--------------------------|--------------------------|----------------------|
--2--2--2--2--2--2--2--2--|--3--3--3--3--3--3--3--3--|--0--0--0--0--0--0--0--0--|--0-------------------|

Two Kings (Legalisation)

Lyrics to this section:

[spoken]
The first decree is to legalize marijuana.
The tyranny and the bullshit's gone on too long.
You old fuckin' shrivs who blocked it's legalization,
you're banished from the land!

[sung]
We'll lead as Two Kings,
We'll lead as Two Kings.
Ahhhaaa (Two Kings, we'll lead as Two Kings)
Ah-ha ah-how,
Lead as Two Kings.

----------------------|-----------------------|----------------------|-------------------------|
----------------------|----------7---7--------|----------------------|-----------7--7-------5--|
----------------------|-----------------------|----------------------|-------------------------|
--5-------5--5--------|--5--------------------|--5-------5--5--------|--5----------------------|

                                                    |========== 2x ===========|
------------------------|---------------------------|-------------------------|--------------------------|
------------------------|----------------4---6---7--|--7-------7--7-------5---|--------------------------|
------------------------|-------------0-------------|-------------------------|--------------------------|
--5-------5--5-------3--|--5-------5----------------|-------------------------|--2--2--2--2--2--2--2--2--|

--------------------------|--------------------------|----------------------|
--------------------------|--------------------------|----------------------|
--------------------------|--------------------------|----------------------|
--3--3--3--3--3--3--3--3--|--0--0--0--0--0--0--0--0--|--0-------------------|

Two Kings (No More Pollution)

Lyrics to this section:

[spoken]
The second decree: no more pollution, no more car exhaust,
or ocean dumpage. From now on, we will travel in tubes!

[sung]
We'll lead as Two Kings, oh, yeah,
We'll fuckin' lead as Two Kings.

======== 3x =========|                           |======================= 2x ======================|
---------------------|---------------------------|------------------------|------------------------|
---------------------|----------------4---6---7--|------------------------|--7-------7--7-------5--|
---------------------|-------------0-------------|------------------------|------------------------|
--5------5--5--------|--5-------5----------------|--5-------5--5-------3--|------------------------|

--------------------------|--------------------------|--------------------------|----------------------|
--4--4--4--4--4--4--4--4--|--5--5--5--5--5--5--5--5--|--------------------------|----------------------|
--------------------------|--------------------------|--------------------------|----------------------|
--------------------------|--------------------------|--0--0--0--0--0--0--0--0--|--0-------------------|

Two Kings (No More rich people)

Lyrics to this section:

[spoken]
Get the scientists working on the tube technology, immediately.
(Tube technology.) Chop, chop, let's go.

[spoken]
Third decree: no more... rich people: and poor people.
From now on, we will all be the same... ummm, I dunno,
I gotta think about that...

[sung]
We'll lead as Two Kings
Ah yeah, ah yeahhhahahaha.
Ha-ha-ho-hee, ha-ha-ho-hee-ha-ha-ho-ho-ho-ho.

                                            |======== 3x =========|
|======== 2x =========|
---------------------|----------------------|---------------------|-----------------------|---------------------|
---------------------|--7-------7--7--------|---------------------|-----------------------|---------------------|
---------------------|----------------------|---------------------|-----------------------|---------------------|
--5------5--5--------|----------------------|--5------5--5--------|--5-------3---5--------|--5------5--5--------|

--------------------------|--------------------------|--------------------------|---------------------------|
--------------------------|--------------------------|--------------------------|-----2--0------------------|
--------------------------|--------------------------|--------------------------|-----------4--5--4--2------|
--2--2--2--2--2--2--2--2--|--3--3--3--3--3--3--3--3--|--0--0--0--0--0--0--0--0--|--0--------------------3---|

Two Kings (Potato Famine)

Lyrics to this section:

[spoken]
[JB:] Oh my God.
[KG:] Ahh... What?
[JB:] Dude, the red phone is flashing.
[KG:] Oh, yeah.
[JB:] Let me scoop that up. Hello? Two Kings.
[KG:] Who is it?
[JB:] What?! No! No fucking way!
[KG:] What?
[JB:] Rage, there's a potato famine in Idaho, you gotta go down there!
[KG:] Oh my God... what?
[JB:] Dude, I gotta stay here!
[KG:] Why do I have to go?
[JB:] Please! Please!
[KG:] Oh, God, okay.
[JB:] Awesome... is he gone? Alright, emergency meeting of Parliament.
All right Parliament, I know this is fucked up,
but Rage, he can't be King anymore.
Dudes, he's encroaching on my decrees!
Seriously, let's make him "Duke," a kick ass "Duke."
Or "leader formerly known as King," but-- uh-oh he's comin' back...

[sung]
We'll lead as Two Kings, oh yes
we'll really lead as Two Kings.

==================== 3x =====================|
---------------------|-----------------------|----------------------|-------------------------|--------------------------|
---------------------|-----------------------|----------------------|-------------------------|--------------------------|
---------------------|-----------------------|----------------------|-------------------------|--------------------------|
--5------5--5--------|--5-------3---5--------|--5------3---5--------|--5-------5--5-----3-----|--2--2--2--2--2--2--2--2--|

--------------------------|--------------------------|----------------------|
--------------------------|--------------------------|----------------------|
--------------------------|--------------------------|----------------------|
--3--3--3--3--3--3--3--3--|--0--0--0--0--0--0--0--0--|--0-------------------|

Two Kings (Lead formerly known as King)

===================== 3x ======================|
----------------------|------------------------|------------------------|-------------------------|
----------------------|--7-------7--7-------5--|--7-------7--7-------5--|-------------------------|
----------------------|------------------------|------------------------|-------------------------|
--5------5--5------3--|------------------------|------------------------|--5-------5--5-----3-----|

--------------------------|--------------------------|--------------------------|----------------------|
--------------------------|--------------------------|--------------------------|----------------------|
--------------------------|--------------------------|--------------------------|----------------------|
--2--2--2--2--2--2--2--2--|--3--3--3--3--3--3--3--3--|--0--0--0--0--0--0--0--0--|--0-------------------|

Two Kings (I poisoned your wine)

Lyrics to this section:

[spoken]
[KG:] Uh, dude?
[JB:] Rage.
[KG:] I went all over Idaho...
[JB:] Yeah?
[KG:] Uh, plenty of potatoes everywhere.
[JB:] What? There was no famine?
[KG:] Yeah, there was no famine, no.
[JB:] Dude.
[KG:] I don't know what's uh...
[JB:] A toast...
[KG:] A toast...
[JB:] Long live the "D."
[KG:] Long live the "D."
[clinking of glasses]
[JB:] Long live me. I'm sorry, I poisoned your wine.
[KG:] What?
[JB:] For the good of the land.
[KG:] You p-- I poisoned yours... huh heh, as well.

----------------------|---------------------------|-------------------------|---------------------------|
----------------------|----------------4---6---7--|--7-------7--7-------5---|----------------4---6------|
----------------------|-------------0-------------|-------------------------|-------------0-------------|
--5-------5--5--------|--5-------5----------------|-------------------------|--5-------5------------3---|

----------------------|----------------------|------------------------|---------------------------|--------------------------|
----------------------|----------------------|------------------------|---------------------------|--------------------------|
----------------------|----------------------|------------------------|---------------------------|--------------------------|
--5-------5--5--------|--5-------5--5--------|--5-------5--5----3-----|--5--------5--5--5--5--5---|--2--2--2--2--2--2--2--2--|

                                                                            |======= 2x ========|
--------------------------|--------------------------|----------------------|-------------------|
--------------------------|--------------------------|----------------------|-------------------|
--------------------------|--------------------------|----------------------|-------------------|
--3--3--3--3--3--3--3--3--|--0--0--0--0--0--0--0--0--|--0-------------------|-------------------|

("Noooooooooo!!!!!")

Lyrics to this section:

[sung]
City, city, city, city, city, city, shitty.
Shitty, city, shitty, shitty, city, city, shitty.
Hall, hall, hall, hall, hall, hall, hall, hall.

                       |========================= 3x ========================|
-----------------------|--------------------------|--------------------------|
-----------------------|--------------------------|--------------------------|
-----------------------|--------------------------|--------------------------|
----------------10\----|--5--5--5--5--5--5--5--5--|--1--1--1--1--3--3--3--3--|

--------------------------|--------------------------|----------------------|
--------------------------|--------------------------|----------------------|
--------------------------|--------------------------|----------------------|
--5--5--5--5--5--5--5--5--|--8--8--8--8--3--3--3--3--|--5\------------------|

People Inside me

Lyrics to this section:

People inside me are askin' me to smoke up City Hall,
'Cause no one here is talkin'.
People inside me are askin' me to blow up City Hall,
'Cause no one here is rockin'.

======= 3x ========|
-------------------|----------------------|-----------------------|------------------------|
-------------------|----------------------|--3--------5-----------|------------------------|
-------------------|----------------------|-----------------------|---------------------2--|
-------------------|--5-------5--5--------|-------------------3---|--5-------5--5----------|

--------------------------|----------------------|--------------------------|----------------------|
--------------------------|----------------------|--3--2--3--2--5--4--5--4--|----------------------|
--3--2--3--2--------------|--4-------------------|--------------------------|--4-------------------|
--------------3--2--3--2--|----------5-----------|--------------------------|----------5-----------|

--------------------------|----------------------|--------------------------|----------------------|
--------------------------|----------------------|--------------------------|----------------------|
--------------------------|--4-------------------|--------------------------|----------------------|
--1--0--1--0--3--2--3--2--|----------5-----------|--1--0--1--0--3--2--3--2--|--5-------5--5--------|

--------------------------|
--3--2--3--2--5--4--5--4--|
--------------------------|
--------------------------|

Rock-'em Sock-'em Robots

Lyrics to this section:

People inside me are askin' me to blow up City Hall,
'Cause everyone is Rock-'em Sock-'em Robots.
Everyone is Rock-'em Sock-'em Robots.
Everyone is Rock-'em Sock-'em GO! OH!


----------------------|-----------------------|----------------------|--------------------------|
----------------------|--3--------5-----------|----------------------|--------------------------|
----------------------|-----------------------|----------------------|--------------------------|
--5-------5--5--------|-------------------3---|--5-------5--5--------|--1--0--1--0--3--2--3--2--|

==================== 3x ========================|
---------------------|--------------------------|-------------------|------------------------||
---------------------|--------------------------|-------------------|------------------------||
---------------------|--------------------------|-------------------|------------------------||
--5------5--5--------|--1--0--1--0--3--2--3--2--|--5----------------|--(5)---------17--------||


21. Bonus Track: Malibu Nights (N/A): No bass guitar
comments
print report bad tab
4 comments total. Showing first comments.
0 reply
mustang_man384 wrote on December 4 2006, 11:17 pm

awesome tabs

THE D RULES!

0 reply
Naomi488B wrote on March 15 2007, 08:26 am

!!yay i have logged in!!

0 reply
tabfr3ak wrote on September 13 2007, 10:06 am

Yeah!!! Frickin nice! Great work dude and thx alot! :D

I want to post or [tab]
guest
You may want to rate the tab now too:
select rating
Please do not post tabs as comments. Select "correction" instead!