Oops, an error
Loading. Please wait.

Hang Tough Tab

ver2
ver2

Whole song

Interactive

More versions @911Tabs.com
807 views 3 this week
no commentswrite comment
1 2 3 4 5
please rate
Autoscroll
+/-
esc
set tempo
stop
Contributor
Hey! There's an official Ultimate Guitar app which is ideal
for learning songs when you're away from computer. Get the app
WARNING: You are trying to view
                                    content from Ultimate-Guitar.com
                                    in an unauthorized application,
                                    which is prohibited.

                                    Please use an official Ultimate
                                    Guitar Tabs application for iPhone,
                                    iPad or Android to access legitimate
                                    chords, guitar, bass, and drum tabs
                                    from Ultimate-Guitar.com database.

                                    Type "ultimate guitar tabs" in Apple
                                    App Store's or Android Market's
                                    search to find the application.
#----------------------------------PLEASE NOTE---------------------------------#
    #This file is the author's own work and represents their interpretation of the #
    #song. You may only use this file for private study, scholarship, or research. #
    #------------------------------------------------------------------------------##

                                   HANG TOUGH
                              As recorded by Tesla
                (From the 1989 Album THE GREAT RADIO CONTROVERSY)

Words by Jeff Keith

Music by Tommy Skeoch, Frank Hannon, Brian Wheat & Troy Lucketta
Arranged by Tesla



Rhythm I

     W                   Q    Q     Q     Q       S E  S H.
E||-------------------|------------------------|----------------------|
B||-------------------|------------------------|--x-5--x-5------------|
G||-------------------|-------xS----xS----x----|--x-4--x-4------------|
D||-------------------|-------xS----xS----x----|--x-2--x-2------------|
A||-------------------|-------xS----xS----x----|----------------------|
E||-------------------|------------------------|----------------------|


  S E  S H.              S E  S H.              S E  S H.
----------------------|----------------------|----------------------|
--x-5--x-5------------|--x-5--x-5------------|--x-5--x-5------------|
--x-4--x-4------------|--x-4--x-4------------|--x-4--x-4------------|
--x-2--x-2------------|--x-2--x-2------------|--x-2--x-2------------|
----------------------|----------------------|----------------------|
----------------------|----------------------|----------------------|


  S E  S H.              S E  S H.              S E  S H.
----------------------|----------------------|----------------------|
--x-5--x-5------------|----------------------|--x-3--x-3------------|
--x-4--x-4------------|--x-5--x-5------------|--x-2--x-2------------|
--x-2--x-2------------|--x-5--x-5------------|--x-0--x-0------------|
----------------------|--x-3--x-3------------|----------------------|
----------------------|----------------------|----------------------|


  W                   S E  S H.              H.           Q
-------------------|----------------------|---------------------|
-------------------|----------------------|---------------------|
-------------------|--x-9--x-9------------|--L------------9s----|
-------------------|--x-9--x-9------------|--L------------9s----|
-------------------|--x-7--x-7------------|--L------------7s----|
-------------------|----------------------|---------------------|


  W                   S E  S H.              S E  S H.
-------------------|----------------------|----------------------|
-------------------|----------------------|----------------------|
--7----------------|--x-9--x-9------------|--x-9--x-9------------|
--7----------------|--x-9--x-9------------|--x-9--x-9------------|
--5----------------|--x-7--x-7------------|--x-7--x-7------------|
-------------------|----------------------|----------------------|


  H.           Q        W                   S  S S S S S S S S  E.     Q
---------------------|-------------------|-----------------------------------|
---------------------|-------------------|-----------------------------------|
--L------------9s----|--7----------------|-----------7-----------------------|
--L------------9s----|--7----------------|--7h-9-9-9-5-9-9-9-7h-9~---/14\----|
--L------------7s----|--5----------------|--5h-7-7-7---7-7-7-5h-7~---/12\----|
---------------------|-------------------|-----------------------------------|


   Q    Q     S S S S  Q          E  E  Q     S S S S  Q
-----------------------------|-------------------------------|
-----------------------------|-------------------------------|
-----------------------------|-------------------------------|
-----------------------------|-------------------------------|
--/7----5~------7------------|--5g7--7--5~------7------------|
--------------5---5-3~-L~----|----------------5---5-3~-L~----|


  Q    Q     S S S S  Q          E  E  Q     S S S S  Q
----------------------------|-------------------------------|
----------------------------|-------------------------------|
----------------------------|-------------------------------|
----------------------------|-------------------------------|
--7----5~------7------------|--5g7--7--5~------7------------|
-------------5---5-3~-L~----|----------------5---5-3~-L~----|


  H         S S E   E   S S    H        S S E   E   S S
----------------------------|---------------------------|
------------8-7-------------|-----------8-7-------------|
--9~------------9~--L~--9-7-|--9------------9~--L~--9-7-|
----------------------------|---------------------------|
----------------------------|---------------------------|
----------------------------|---------------------------|


            |---3---|
  H         S  S    S E  Q
-------------------------------|
-------------------------------|
--9~--------9b-Lpbr-L-7--L\----|
-------------------------------|
-------------------------------|
-------------------------------|


                          |---3--|                               |---6---|   |--
   T   T   T   T   T   T  T   T  T  T   T   T   T   T   T  T  T  S   S   S   S
--19p-15h-19p-15h-19p-15--------15----------------------------------------------|
-------------------------19p-15----19p-15h-19p-15h-19p-15----17-19p-15h-19p-15h-|
----------------------------------------------------------19--------------------|
--------------------------------------------------------------------------------|
--------------------------------------------------------------------------------|
--------------------------------------------------------------------------------|


  S E  S H.              H.           Q        W
----------------------|---------------------|-------------------|
----------------------|---------------------|-------------------|
--x-9--x-9------------|--L------------9s----|--7----------------|
--x-9--x-9------------|--L------------9s----|--7----------------|
--x-7--x-7------------|--L------------7s----|--5----------------|
----------------------|---------------------|-------------------|


  S E  S H.              S E  S H.              H.           Q
----------------------|----------------------|---------------------|
----------------------|----------------------|---------------------|
--x-9--x-9------------|--x-9--x-9------------|--L------------9s----|
--x-9--x-9------------|--x-9--x-9------------|--L------------9s----|
--x-7--x-7------------|--x-7--x-7------------|--L------------7s----|
----------------------|----------------------|---------------------|


  W                   S  S S S S S S S S  E.     Q
-------------------|-----------------------------------|
-------------------|-----------------------------------|
--7----------------|-----------7-----------------------|
--7----------------|--7h-9-9-9-5-9-9-9-7h-9~---/14\----|
--5----------------|--5h-7-7-7---7-7-7-5h-7~---/12\----|
-------------------|-----------------------------------|


   Q    Q     S S S S  Q          E  E  Q     S S S S  Q
-----------------------------|-------------------------------|
-----------------------------|-------------------------------|
-----------------------------|-------------------------------|
-----------------------------|-------------------------------|
--/7----5~------7------------|--5g7--7--5~------7------------|
--------------5---5-3~-L~----|----------------5---5-3~-L~----|

Rhythm I
  Q    Q     S S S S  Q          E  E  Q     S S S S  Q
----------------------------|-------------------------------|
----------------------------|-------------------------------|
----------------------------|-------------------------------|
--5----4~-------------------|--4g5--5--4~-------------------|
--7----5~------7------------|--5g7--7--5~------7------------|
-------------5---5-3~-L~----|----------------5---5-3~-L~----|

Rhythm II
     S   S  S  S  S  S  E   Q     Q
|---------------------------------------|
|-------------13--L--x-12---L-----------|
|----------12--------x-12---L-----------|
|---12h-14-----------x-12---L-----------|
|---------------------------------------|
|--------------------------------15\----|

Rhythm I
  Q     S  S  E   Q.     S S    Q    S S E  H
-----------------------------|-----------------------|
-----------------------------|-----------------------|
--------x--x-10---L------x-x-|--5--------------------|
--7-----x--x-10---L------x-x-|--5----x-x-5--L--------|
--7-----x--x--8---L------x-x-|--3----x-x-5--L--------|
--5--------------------------|-------x-x-3--L--------|


  Q     S  S  E   Q.     S S    Q    S S E  H
-----------------------------|-----------------------|
-----------------------------|-----------------------|
--------x--x-10---L------x-x-|--5--------------------|
--7-----x--x-10---L------x-x-|--5----x-x-5--L--------|
--7-----x--x--8---L------x-x-|--3----x-x-5--L--------|
--5--------------------------|-------x-x-3--L--------|


  Q     S  S  E   Q.     S S    Q    S S E  H
-----------------------------|-----------------------|
-----------------------------|-----------------------|
--------x--x-10---L------x-x-|--5--------------------|
--7-----x--x-10---L------x-x-|--5----x-x-5--L--------|
--7-----x--x--8---L------x-x-|--3----x-x-5--L--------|
--5--------------------------|-------x-x-3--L--------|


  Q     S  S  E   H           E.  S E  E  H           W
---------------------------|-----------------------|-------------------|
---------------------------|-----------------------|-------------------|
--------x--x-10---L--------|--5---5-L--------------|-------------------|
--7-----x--x-10---L--------|--5---5-L--5--L--------|--L----------------|
--7-----x--x--8---L--------|--3---3-L--5--L--------|--L----------------|
--5------------------------|-----------3--L--------|--L----------------|


  Q     Q
--------------|
--------------|
--------------|
--L-----------|
--L-----------|
--L----12\----|


  |---6--| |---6--| |---6--| |---6--| |---6--| |---6--| |---6--| |---6--|
  S   S  S S   S  S S   S  S S   S  S S   S  S S   S  S S   S  S S   S  S
--7h-10p-7-7h-10p-7-7h-10p-7-7h-10p-7-7h-10p-7-7h-10p-7-7h-10p-7-7h-10p-7-|
--------------------------------------------------------------------------|
--------------------------------------------------------------------------|
--------------------------------------------------------------------------|
--------------------------------------------------------------------------|
--------------------------------------------------------------------------|


   |---6---|  |---6---|  |---6---| |---6--| |---6--| |---6--| |---6--| |---6--|
   S   S   S  S   S   S  S   S   S S   S  S S   S  S S   S  S S   S  S S   S  S
--10h-14p-10-10h-14p-10-10h-14p-10-9h-12p-9-9h-12p-9-9h-12p-9-9h-12p-9-9h-12p-9-|
--------------------------------------------------------------------------------|
--------------------------------------------------------------------------------|
--------------------------------------------------------------------------------|
--------------------------------------------------------------------------------|
--------------------------------------------------------------------------------|


   |---6---|  |---6---|  |---6---|  |---6---|  |---6---|  |---6---|  |---6---|
   S   S   S  S   S   S  S   S   S  S   S   S  S   S   S  S   S   S  S   S   S
--19h-22p-19-19h-22p-19-19h-22p-19-19h-22p-19-19h-22p-19-19h-22p-19-19h-22p-19-1-|
---------------------------------------------------------------------------------|
---------------------------------------------------------------------------------|
---------------------------------------------------------------------------------|
---------------------------------------------------------------------------------|
---------------------------------------------------------------------------------|


   |--6--|  |--6--|  |--6--|  |--6--|  |--6--|  |--6--|  |--6--|  |--6--|
   S  S  S  S  S  S  S  S  S  S  S  S  S  S  S  S  S  S  S  S  S  S  S  S
--22-22-22-21-21-21-19-19-19-17-17-17-------------------------------------|
--------------------------------------19-19-19-17-17-17-15-15-15-15-15-15-|
--------------------------------------------------------------------------|
--------------------------------------------------------------------------|
--------------------------------------------------------------------------|
--------------------------------------------------------------------------|


            |----3---|                             |---3---|
   E.    S  S     S  S  E    Q.      S S    E.   S S    S  S E   Q      Q
-------------------------------------7-9-|--9b---9-9pbr-Lp-7-9~--L~-----------|
--10b---10-10pbr--Lp-7-10~---L~----------|------------------------------------|
-----------------------------------------|------------------------------------|
-----------------------------------------|------------------------------------|
-----------------------------------------|------------------------------------|
-----------------------------------------|-----------------------------19\----|


  |---6--| |---6--|  |---6---|  |---6---|  |---6---|  |---6---|
  S  S   S S  S   S  S   S   S  S   S   S  S   S   S  S   S   S  Q
-------------------------------10h-12h-14------------17h-19h-21-21~----|
--------------------10h-12h-14------------15h-17h-19-------------------|
-----------7h-9h-11----------------------------------------------------|
--7h-9h-11-------------------------------------------------------------|
-----------------------------------------------------------------------|
-----------------------------------------------------------------------|


          |----3----|
   Q      S     S   S  E   H             Q     Q     S     E.   E  E
--21b----21pbr--Lp-19-21---L~--------|---L~---------------------------|
-------------------------------------|--------------17pbr--L----L-----|
-------------------------------------|--------------------------------|
-------------------------------------|--------------------------------|
-------------------------------------|--------------------------------|
-------------------------------------|--------------------------------|


   E.      S  E     S   S     W                     Q.       E   H
--------------------------|---------------------|-------------------------|
--17pbr----L--Lbr---Lp-15-|---------------------|-------------------------|
--------------------------|--16~----------------|---L~-------L\-----------|
--------------------------|---------------------|-------------------------|
--------------------------|---------------------|-------------------------|
--------------------------|---------------------|-------------------------|


  W                   W                   W
-------------------|-------------------|-------------------|
-------------------|-------------------|-------------------|
-------------------|-------------------|--4----------------|
-------------------|-------------------|-------------------|
-------------------|-------------------|--2----------------|
-------------------|-------------------|-------------------|


   W                    W                    Q.     S S E  S S S S E
--------------------|--------------------|-----------------------------|
--------------------|--------------------|-----------------------------|
--/6----------------|--/7----------------|--/9------x-x-9--x-7-L-x-6\--|
--------------------|--------------------|-----------------------------|
--/4----------------|--/5----------------|--/7------x-x-7--x-5-L-x-4\--|
--------------------|--------------------|-----------------------------|


  ^                   ^
  W                   W                   W
-------------------|-------------------|-------------------|
-------------------|-------------------|-------------------|
--4----------------|--2----------------|-------------------|
--4----------------|--2----------------|--4----------------|
--2----------------|--4----------------|--5----------------|
-------------------|-------------------|-------------------|


  Q    H.              E  E  E  E  H           E  E  E  E  H
--------------------|-----------------------|-----------------------|
-------5------------|-----------3--L--------|-----------2--L--------|
-------4------------|--------4--------------|--------2--------------|
-------6------------|-----4-----------------|-----2-----------------|
-------7------------|--2--------------------|--4--------------------|
--------------------|-----------------------|-----------------------|


                                                   ^
  E  E  E  E  H           E  E  E  E  H            W
-----------------------|------------------------|-------------------|
-----------3--L--------|-----------5--L~--------|-------------------|
--------2--------------|-----------4--L~--------|--4----------------|
-----4-----------------|--------6---------------|--4----------------|
--5--------------------|-----7------------------|--2----------------|
-----------------------|--0---------------------|-------------------|


  ^
  W                   W                    Q      Q      Q      E.    T  T
-------------------|-------------------|--------------------------------19-|
-------------------|-------------------|--22~----22~----22~----22~---22----|
--2----------------|-------------------|-----------------------------------|
--2----------------|--4----------------|-----------------------------------|
--4----------------|--5----------------|-----------------------------------|
-------------------|-------------------|-----------------------------------|


   S   S  T   T  T   T  T   T  T   T  T   T  T  T  T   T  T   T  T  T  T   T  S
--22p-19-22p-19-22p-19----------------------------------------------------------|
-----------------------22p-19-22p-19-22p-19----19-------------------------------|
--------------------------------------------21----21p-19-21p-19----19-----------|
----------------------------------------------------------------21----21p-19----|
-----------------------------------------------------------------------------21-|
--------------------------------------------------------------------------------|


  Q.     E  H           Q.     E  H           Q.     E  H
---------------------|---------------------|---------------------|
---------------------|--3------------------|---------------------|
--4------------------|--2------2--L--------|--4------------------|
--4------5--L--------|--0------2--L--------|--4------5--L--------|
--2------5--L--------|---------0--L--------|--2------5--L--------|
---------3--L--------|---------------------|---------3--L--------|


  Q.     E  H           Q.     E  H           Q.     E  H
---------------------|---------------------|---------------------|
--3------------------|---------------------|--3------------------|
--2------2--L--------|--4------------------|--2------2--L--------|
--0------2--L--------|--4------5--L--------|--0------2--L--------|
---------0--L--------|--2------5--L--------|---------0--L--------|
---------------------|---------3--L--------|---------------------|


  Q.     E  H           Q.     E  H           Q.     E  H
---------------------|---------------------|---------------------|
---------------------|--3------------------|---------------------|
--4------------------|--2------2--L--------|--4------------------|
--4------5--L--------|--0------2--L--------|--4------5--L--------|
--2------5--L--------|---------0--L--------|--2------5--L--------|
---------3--L--------|---------------------|---------3--L--------|


  Q.     E  H           Q.     E  H           Q.     E  H
---------------------|---------------------|---------------------|
--3------------------|---------------------|--3------------------|
--2------2--L--------|--4------------------|--2------2--L--------|
--0------2--L--------|--4------5--L--------|--0------2--L--------|
---------0--L--------|--2------5--L--------|---------0--L--------|
---------------------|---------3--L--------|---------------------|


  Q.     E  H           Q.     E  H           Q.     E  H
---------------------|---------------------|---------------------|
---------------------|--3------------------|---------------------|
--4------------------|--2------2--L--------|--4------------------|
--4------5--L--------|--0------2--L--------|--4------5--L--------|
--2------5--L--------|---------0--L--------|--2------5--L--------|
---------3--L--------|---------------------|---------3--L--------|


  E.  S E  E  H           H        S E.  Q       H        S E.  Q
-----------------------|----------------------|----------------------|
--3---3-L--------------|----------------------|----------------------|
--2---2-L--2--L--------|--L--------2-2---L----|--L--------2-2---L----|
--0---0-L--2--L--------|--L--------2-2---L----|--L--------2-2---L----|
-----------0--L--------|--L--------0-0---L----|--L--------0-0---L----|
-----------------------|----------------------|----------------------|


  H        S E.  Q       Q.     E  Q    Q       W
----------------------|----------------------|-------------------|
----------------------|----------------------|-------------------|
--L--------2-2---L----|--L------4--4---------|-------------------|
--L--------2-2---L----|--L------4--4---------|-------------------|
--L--------0-0---L----|--L------2--2---------|-------------------|
----------------------|----------------------|-------------------|


  W
-------------------||
-------------------||
-------------------||
-------------------||
-------------------||
-------------------||




Duration Legend
---------------
W - whole
H - half
Q - quarter
E - 8th
S - 16th
T - 32nd
X - 64th
. - note dotted
|-n-|  - n-tuplets


Tablature Legend
----------------
L - tied note
x - dead note
g - grace note
(n) - ghost note
> - accentuded note
NH - natural harmonic
AH - artificial harmonic
TH - tapped harmonic
SH - semi harmonic
PH - pitch harmonic
h - hammer on
p - pull off
b - bend
br - bendRelease
pb - preBend
pbr - preBendRelease
brb - bendReleaseBend
\n/ - tremolo bar dip
\n - tremolo bar dive
-/n - tremolo bar Release up
/n\ - tremolo bar inverted dip
/n - tremolo bar return
-\n - tremolo bar Release down
S - shift slide
s - legato slide
/ -  slide into from below or out of upwards
\ -  slide into from above or out of downwards
~ - vibrato
W - wide vibrato
tr - trill
TP - tremolo picking
T - tapping
S - slap
P - pop
< - fade in
^ - brush up
v - brush down
comments
We did not receive enough feedback on this tab! Please rate:
print report bad tab
1 2 3 4 5
I want to post or [tab]
guest
You may want to rate the tab now too:
select rating
Please do not post tabs as comments. Select "correction" instead!