Oops, an error
Loading. Please wait.

Paradise Tab

12,410 views 66 this week
no commentswrite comment
1 2 3 4 5
excellent!
x 4
Autoscroll
+/-
esc
set tempo
stop
Contributor
Difficulty
intermediate
WARNING: You are trying to view
                                    content from Ultimate-Guitar.com
                                    in an unauthorized application,
                                    which is prohibited.

                                    Please use an official Ultimate
                                    Guitar Tabs application for iPhone,
                                    iPad or Android to access legitimate
                                    chords, guitar, bass, and drum tabs
                                    from Ultimate-Guitar.com database.

                                    Type "ultimate guitar tabs" in Apple
                                    App Store's or Android Market's
                                    search to find the application.
Tesla 
Paradise(live)

Gtr I (E A D G B E) - 'Untitled'
Gtr II (E A D G B E) - 'Untitled'
Gtr III (E A D G B E) - 'Piano'

 Intro
 
  Gtrs I, II
          ~~~~~~                  ~~~~~~
|-----------------------|---------------------|-------------------|
|-5-----5h6-(6)-5-0--5--|-5-----5h6-(6)-5-0-5-|-------------------|
|-5-5---5h7-(7)-5-7--5--|-5-5---5h7-(7)-5-7-5-|-------------------|
|-----7-----------------|-----7---------------|-6s7----------(7)\-|
|-----7-----------------|-----7---------------|-------------------|
|-----------------------|---------------------|-------------------|
|
| Gtr III
|-0-----------------(0)-|-0-------------------|------0--0--0------|
|-1-----------------(1)-|-1-------------------|------1--0--1------|
|-2-----------------(2)-|-2-------------------|------2--2--2------|
|-----------------------|---------------------|-------------------|
|-0---------------------|-0-------------------|---0---------------|
|--------------------0--|---------------------|-------------------|


  Gtr II
                        ~                 ~       ~
|---------------------|-------------|------------------------|
|---------------------|-------------|-6-5-----6-5------------|
|-------------7s9s7p5-|-7-----------|-----7-------7----5h7p5-|
|----7--(7)-5---------|-------------|------------------------|
|---------------------|-------------|------------------------|
|---------------------|-------------|------------------------|
|
|----0---0------0-----|-3--3--1--1--|-3-----3-----1--1-------|
|----1---0------1-----|-5--5--3--3--|-5-----5-----3--3-------|
|----2---2------2-----|-2--2--2--2--|-2-----2-----2--2-------|
|---------------------|-0-----0-----|-0-----0-----0----------|
|---------------------|-------------|------------------------|
|-3-------------------|-------------|------------------------|


                                      Gtr II
  ~                ~
|----------------|------------------|------------------5-7-8-8s10-|
|----------------|------------------|------------5-6-8------------|
|-4----------4-5-|-4----------4h5p4-|------4-5-7------------------|
|----------------|------------------|----7------------------------|
|----------------|------------------|-----------------------------|
|----------------|------------------|-----------------------------|
|
|-0--0--0--0-----|-0--0--0--0-------|----0-------0-------0--------|
|-0--0--0--0-----|-0--0--0--0-------|----1-------0-------1--------|
|-2--2--2--2-----|-2--2--1--1-------|----2-------2-------2--------|
|----------------|------------------|-----------------------------|
|----------------|------------------|-0---------------------------|
|-0--------------|-0-----0----------|-----------------------------|


|------------------12-|-15-15-15-15-13-12-13p12------------12-|
|---------------13----|-------------------------15------13----|
|------------14-------|------------------------------14-------|
|---------------------|---------------------------------------|
|---------------------|---------------------------------------|
|---------------------|---------------------------------------|
|
|----0--0--0----------|--3--------3--------1-------1----------|
|----1--0--1----------|--5--------5--------3-------3----------|
|----2--2--2----------|--2--------2--------2-------2----------|
|---------------------|--0-----------------0------------------|
|---------------------|---------------------------------------|
|-3-------------------|---------------------------------------|


                  ~~
|-15-15-15-13-12------------------|
|----------------15----15b17r(15)-|
|---------------------------------|
|---------------------------------|
|---------------------------------|
|---------------------------------|
|
|--3-----3--------1--1------------|
|--5-----5--------3--3------------|
|--2-----2--------2--2------------|
|--0-----0--------0---------------|
|---------------------------------|
|---------------------------------|


   ~~                            ~~~~~~~~~~
|-----------------------|----------------------|
|-12--------12-13-12----|-12-13-12----(12)-----|
|--------------------14-|----------------------|
|-----------------------|----------------------|
|-----------------------|----------------------|
|-----------------------|----------------------|
|
|--0--0--0---0----------|--0-------0----0---0--|
|--0--0--0---0----------|--0-------0----0---0--|
|--2--2--2---2----------|--2-------2----1---1--|
|-----------------------|----------------------|
|-----------------------|----------------------|
|--0--------------------|--0------------0------|


  Gtrs I, II
          ~~~~~~                  ~~~~~~
|-----------------------|----------------------|
|-5-----5h6-(6)-5-0--5--|-5-----5h6-(6)-5-0-5--|
|-5-5---5h7-(7)-5-7--5--|-5-5---5h7-(7)-5-7-5--|
|-----7-----------------|-----7----------------|
|-----7-----------------|-----7----------------|
|-----------------------|----------------------|
|
|-0-----------------(0)-|-0--------------------|
|-1-----------------(1)-|-1--------------------|
|-2-----------------(2)-|-2--------------------|
|-----------------------|----------------------|
|-0---------------------|-0--------------------|
|--------------------0--|----------------------|


   1st, 2nd Verses
    Am           G/A   Dm                 G/A    G5     G7    Em7
    Gtr II
   

    Gtr I
||--5----5-5---5-----|-5--5-5-5-(5)-5-5-5-(5)\-|-3------1-------|
||o-5----5-5---5-6-6-|-6--6-6-6-(6)-6-6-6-(6)\-|---3------0-----|
||--5----5-5---5-7-7-|-7--7-7-7-(7)-7-7-7-(7)\-|-----0------0---|
||--7------------7-7-|-7--7-7-7-(7)-7-7-7-(7)\-|----------------|
||o-7----------------|-5----------------5-(5)\-|----------------|
||--5--------5-------|-------------------------|----------------|


  Em       F      G   G/A Am      G/ADm              G/A
 
|-0--0-0-0-1--x-3-x-x-3-|-5--------|-5--5--5-(5)--5\---|
|-0--0-0-0-1--x-3-x-x-3-|-5--------|-6--6--6-(6)--6\---|
|-0--0-0-0-2--x-4-x-x-4-|-5--------|-7--7--7-(7)--7\---|
|-2--2-2-2-3--x-5-x-x-5-|-7--------|-7--7--7-(7)--7\---|
|-2--2-2-2-3--x-5-x-x-5-|-7--------|--------------5\---|
|-0--0-0-0-1--x-3-x-x-3-|-5--------|-------------------|


  G5     G7    Em7Em           G

|-3------1------|-0--0-x-1-1-x-3-x-x-3-|
|---3------0----|-0--0-x-1-1-x-3-x-x-3-|
|-----0------0--|-0--0-x-2-2-x-4-x-x-4-|
|---------------|-2--2-x-3-3-x-5-x-x-5-|
|---------------|------x-3-3-x-5-x-x-5-|
|---------------|------x-1-1-x-3-x-x-3-|


  Gtrs I, II
          ~~~~~~                  ~~~~~~
|-----------------------|---------------------|
|-5-----5h6-(6)-5-0--5--|-5-----5h6-(6)-5-0-5-|
|-5-5---5h7-(7)-5-7--5--|-5-5---5h7-(7)-5-7-5-|
|-----7-----------------|-----7---------------|
|-----7-----------------|-----7---------------|
|-----------------------|---------------------|
|
| Gtr III
|-0-----------------(0)-|-0-------------------|
|-1-----------------(1)-|-1-------------------|
|-2-----------------(2)-|-2-------------------|
|-----------------------|---------------------|
|-0---------------------|-0-------------------|
|--------------------0--|---------------------|


  C        Am   G/A   F              G
  Gtr II
  
  Gtr I
|---------------x-x-|-1--1-1-x-x-1-x-3-x-x-3--|
|-----1--1-1--1-x-x-|-1--1-1-x-x-1-x-3-x-x-3--|
|-----0--2-2--2-x-x-|-2--2-2-x-x-2-x-4-x-x-4--|
|---2-2--2-2--2-x-x-|-3--3-3-x-x-3-x-5-x-x-5--|
|-3------0-0--0-x-x-|-3--3-3-x-x-3-x-5-x-x-5--|
|---------------x-x-|-1--1-1-x-x-1-x-3-x-x-3--|
|
|-------------------|-------------------------|
|-------------------|-------------------------|
|-------------------|-------------------------|
|-------------------|-------------------------|
|-------------------|-------------------------|
|-------------------|-------------------------|


  Gtr I
|-5---5---5-(5)-------|
|-5---5---5-(5)-------|
|-5---5---5-(5)-------|
|-7---7---------------|
|-7-------------------|
|-5-------------------|
|
| Gtr II
|---------------------|
|-----1------0----1---|
|-2---2------2----2---|
|-2-2---2-------2---2-|
|-0-------------------|
|---------------------|
|
| Gtr III
|-----0------0----0---|
|-----1------0----1---|
|-----2------2----2---|
|---------------------|
|-0-------------------|
|---------------------|


|------------------------------------------|---------------------|
|-5h6p5------------------------------------|-8---8-----6---6-----|
|-------5h7p5------------------------------|---9---9s7---7---7s9-|
|-------------5h7p5------------------------|---------------------|
|-------------------5h7p5-3h5p3-(3)---(3)/-|---------------------|
|------------------------------------------|---------------------|
|
|------------------------------------------|-3---3-----1---1-----|
|-------------1-----------0---------1------|-5---5-----3---3-----|
|-------------2-----------0---------2------|---------------------|
|-------2-----------2-----2---------2------|---0---0-----0---0---|
|------------------------------------------|---------------------|
|-3----------------------------------------|---------------------|
|
|-------------0-----------0---------0------|-3---3-----1---1-----|
|-------------1-----------0---------1------|-5---5-----3---3-----|
|-------------2-----------2---------2------|-2---2-----2---2-----|
|------------------------------------------|-0---------0---------|
|------------------------------------------|---------------------|
|-3----------------------------------------|---------------------|


                                        1.
|--------------------|-----0-------0---|-----0-------0---|
|-8---8-----6---6----|---0---0---0---0-|---0---0---0-----|
|---9---9s7---7---7\-|-2-------2-------|-2-------1-------|
|--------------------|-----------------|-----------------|
|--------------------|-----------------|-----------------|
|--------------------|-----------------|-----------------|
|
|-3---3-----1---1----|-----0-------0---|-----0-------0---|
|-5---5-----3---3----|---0---0---0---0-|---0---0---0-----|
|--------------------|-2-------2-------|-2-------1-------|
|---0---0-----0---0--|-----------------|-----------------|
|--------------------|-----------------|-----------------|
|--------------------|-----------------|-----------------|
|
|-3---3-----1---1----|-0---0---0---0---|-0---0---0---0---|
|-5---5-----3---3----|-0---0---0---0---|-0---0---0---0---|
|-2---2-----2---2----|-2---2---2---2---|-2---2---1---1---|
|-0---0-----0--------|-----------------|-----------------|
|--------------------|-----------------|-----------------|
|--------------------|-0---------------|-0-------0-------|


  Gtrs I, II
          ~~~~~~                  ~~~~~~
|-----------------------|----------------------||
|-5-----5h6-(6)-5-0--5--|-5-----5h6-(6)-5-0-5-o||
|-5-5---5h7-(7)-5-7--5--|-5-5---5h7-(7)-5-7-5--||
|-----7-----------------|-----7----------------||
|-----7-----------------|-----7---------------o||
|-----------------------|----------------------||
|
| Gtr III
|-0-----------------(0)-|-0--------------------||
|-1-----------------(1)-|-1-------------------o||
|-2-----------------(2)-|-2--------------------||
|-----------------------|----------------------||
|-0---------------------|-0-------------------o||
|--------------------0--|----------------------||


  2.
                       Am  AsusAm
                   Gtr I
                   

|----------------|-----------------|
|----------------|-----------------|
|----------------|-----------------|
|----------------|-----------------|
|----------------|-----------------|
|----------------|-----------------|
|
| Gtr II
|-----0-------0--|-----1---0---1---|
|---0---0---0----|-2---2---2---2---|
|-2-------1------|-2-2---2---2---1-|
|----------------|-0---------------|
|----------------|-----------------|
|----------------|-----------------|
|
| Gtr III
|-0---0---0---0--|-----0---0---0---|
|-0---0---0---0--|-----1---0---1---|
|-2---2---1---1--|-----2---2---2---|
|----------------|-----------------|
|----------------|-0---------------|
|-0-------0------|-----------------|


  Gtr I
|------------------------------------------|---------------------|
|-5h6p5------------------------------------|-8---8-----6---6-----|
|-------5h7p5------------------------------|---9---9s7---7---7s9-|
|-------------5h7p5------------------------|---------------------|
|-------------------5h7p5-3h5p3-(3)---(3)/-|---------------------|
|------------------------------------------|---------------------|
|
|------------------------------------------|-3---3-----1---1-----|
|-------------1-----------0---------1------|-5---5-----3---3-----|
|-------------2-----------2---------2------|---------------------|
|-------2-----------2-----2---------2------|---0---0-----0---0---|
|------------------------------------------|---------------------|
|-3----------------------------------------|---------------------|
|
|-------------0-----------0---------0------|-3---3-----1---1-----|
|-------------1-----------0---------1------|-5---5-----3---3-----|
|-------------2-----------2---------2------|-2---2-----2---2-----|
|------------------------------------------|-0---------0---------|
|------------------------------------------|---------------------|
|-3----------------------------------------|---------------------|


|--------------------|-----0-------0---|-----0-------0-----|
|-8---8-----6---6----|---0---0---0---0-|---0---0---0---0-0-|
|---9---9s7---7---7\-|-2-------2-------|-2-------1-----0-0-|
|--------------------|-----------------|---------------0-0-|
|--------------------|-----------------|-------------------|
|--------------------|-----------------|-------------------|
|
|-3---3-----1---1----|-----0-------0---|-----0-------0-----|
|-5---5-----3---3----|---0---0---0---0-|---0---0---0---0-0-|
|--------------------|-2-------2-------|-2-------1-----0-0-|
|---0---0-----0---0--|-----------------|---------------0-0-|
|--------------------|-----------------|-------------------|
|--------------------|-----------------|-------------------|
|
|-3---3-----1---1----|-0---0---0---0---|-0---0---0---0-----|
|-5---5-----3---3----|-0---0---0---0---|-0---0---0---0-----|
|-2---2-----2---2----|-2---2---2---2---|-2---2---1---1-----|
|-0---0-----0--------|-----------------|-------------------|
|--------------------|-----------------|-------------------|
|--------------------|-0---------------|-0-------0---------|


  F                  Em7Esus4       E     F
  Gtr II
 
  Gtr I
|---------------------|-0-0-0-0-0-0-0-0-0-1-1-||
|---------------------|-0-0-0-0-0-0-0-0-0-1-1-||
|-2-2--2---2-2--2--0--|-2-2-2-2-2-1-1-1-1-2-2-||
|-3-3--3---3-3--3--0--|-2-2-2-2-2-2-2-2-2-3-3-||
|-3-3--3---3-3--3--0--|-2-2-2-2-2-2-2-2-2-3-3-||
|-1-1--1---1-1--1--0--|-0-0-0-0-0-0-0-0-0-1-1-||


  F                   D              Em7
 
|-1-----------------|--------------------|
|-1---------1-1-7-7-|-7-------7-7-7--5-5-|
|-2---------2-2-7-7-|-7-7-7-7-7-7-7--5-5-|
|-3-3-3-3-3-3-3-7-7-|-7-7-7-7-7-7-7--5-5-|
|-3-3-3-3-3-3-3-5-5-|-5-5-5-5-5-5-5--3-3-|
|-1-1-1-1-1-1-1-----|--------------------|


  C                  G/A   D                   G/A
 

|------------------------|-2---2--2-(2)-2-2--2--||
|-5--5-5-5-(5)-5-5-5-x-x-|-3---3--3-(3)-3-3--3--||
|-5--5-5-5-(5)-5-5-5-x-x-|-2---2--2-(2)-2-2--2--||
|-5--5-5-5-(5)-5-5-5-x-x-|-0---0--0-(0)-0-0--0--||
|-3--3-3-3-(3)-3-3-3-x-x-|----------------------||
|------------------------|----------------------||


  Faster Q=102
  Am                                     G/A
  Gtr I
  

  Gtr II
|-^0-----------------|-(0)------------------|
|-^1-----------------|-(1)------------------|
|-^2-----------------|-(2)------------------|
|-^2-----------------|-(2)------------------|
|-^0-----------------|-(0)------------------|
|--------------------|----------------------|
|
| Gtr III
|--------------------|----------------------|
|------5-6-(6)-6-6-6-|-------5-6-(6)-6-6-6--|
|------5-7-(7)-7-7-7-|-------5-7-(7)-7-7-7--|
|------7-7-(7)-7-7-7-|-------7-7-(7)-7-7-7--|
|--------------------|----------------------|
|--5-----------------|--5-------------------|


    Am        Asus4               Am
    

||--0--0-0--0-0-(0)--0----0-0-0-0-0--|
||o-1--1-1--1-3-(3)--3----3-3-3-3-1--|
||--2--2-2--2-2-(2)--2----2-2-2-2-2--|
||--2--2-2--2-2-(2)--2----2-2-2-2-2--|
||o-0--0-0--0-0-(0)--0----0-0-0-0-0--|
||-----------------------------------|
|
||-----------------------------------|
||o---------5----6--(6)-6---6---6----|
||----------5----7--(7)-7---7---7----|
||----------7----7--(7)-7---7---7----|
||o----------------------------------|
||--5--------------------------------|


            Asus2               G/A GII     C(type 2)


|-0--0-0--0-0-(0)--0----0-0-0-0---|-3--3-3--3-3-(3)--3----3-3-3-3-3-|
|-1--1-1--1-3-(3)--3----3-3-3-3-0-|-0--0-0--0-1-(1)--1----1-1-1-1-1-|
|-2--2-2--2-2-(2)--2----2-2-2-2-0-|-0--0-0--0-0-(0)--0----0-0-0-0-0-|
|-2--2-2--2-2-(2)--2----2-2-2-2-0-|-0--0-0--0-2-(2)--2----2-2-2-2-2-|
|-0--0-0--0-0-(0)--0----0-0-0-0-0-|-2--2-2--2-3-(3)--3----3-3-3-3-3-|
|---------------------------------|-3--3-3--3-----------------------|
|
|---------------------------------|---------------------------------|
|---------5----6--(6)-6---6---6---|---------3----5--(5)-5---5---5---|
|---------5----7--(7)-7---7---7---|---------4----5--(5)-5---5---5---|
|---------7----7--(7)-7---7---7---|---------5----5--(5)-5---5---5---|
|---------------------------------|---------------------------------|
|-5-------------------------------|-3-------------------------------|


  GII       C(type 2)         G/A
  

|-3--3-3--3-3-(3)--3----3-3-3------||
|-0--0-0--0-1-(1)--1----1-1-1-0-0-o||
|-0--0-0--0-0-(0)--0----0-0-0-0-0--||
|-0--0-0--0-2-(2)--2----2-2-2-0-0--||
|-2--2-2--2-3-(3)--3----3-3-3-0-0-o||
|-3--3-3--3------------------------||
|
|----------------------------------||
|---------3----5--(5)-5---5---5---o||
|---------4----5--(5)-5---5---5----||
|---------5----5--(5)-5---5---5----||
|---------------------------------o||
|-3--------------------------------||


  F         Em      Em7 C         Dm      G/A
  
|-1--1-1--0-0--0-0--0-|-0-0-0-0-0-1-1-1-1-----|
|-1--1-1--0-0--0-0--1-|-1-1-1-1-1-3-3-3-3-0-0-|
|-2--2-2--0-0--0-0--0-|-0-0-0-0-0-2-2-2-2-0-0-|
|-3--3-3--2-2--2-2--2-|-2-2-2-2-2-0-0-0-0-0-0-|
|-3--3-3--2-2--2-2--3-|-3-3-3-3-3---------0-0-|
|-1--1-1--0-0--0-0----|-----------------------|


  F         Em          C
                       

|-1--1-1--0-0--0-0--0-|-0--0-0--|
|-1--1-1--0-0--0-0--1-|-1--1-1--|
|-2--2-2--0-0--0-0--0-|-0--0-0--|
|-3--3-3--2-2--2-2--2-|-2--2-2--|
|-3--3-3--2-2--2-2--3-|-3--3-3--|
|-1--1-1--0-0--0-0----|---------|


 4/4                                         3/4
  Gtrs I, II
|-^1--1-----1-------1-------|-0-0-(0)-------|--------|
|-^3----3-----3---3---3---3-|---------------|--------|
|-^2------2-----2-------2---|---------------|--------|
|-^0------------------------|---------------|--------|
|---------------------------|---------------|--------|
|---------------------------|---------------|--------|
|
| Gtr III
|-----------5-------5-------|-5----5---5----|-(5)----|
|--6--------6-------6-------|-5----5---6----|-(6)----|
|--7--------7-------7-------|-7----5---7----|-(7)----|
|--7------------------------|---------------|--------|
|--5--------5---------------|------5---5----|-(5)----|
|---------------------------|---------------|--------|


 Outro
  Slower Q=78
 4/4
  Gtr II
|---------1---------------0-------|---------0-----------------------|
|-----3-----3-----------3---3-----|-------3-3-----------3-------3---|
|---2---2-----2-------0-------0---|-----0-----0---------0-------0---|
|-0-------------0---2-------------|---0---------------0-------2-----|
|-----------------3-------------0-|-2-----------2-0-1-----0-3-----0-|
|---------------------------------|---------------------------------|
|
| Gtr I
|---------------------------------|---------------------------------|
|---------------------------------|---------------------3-------3---|
|---------------------------------|---------------------0-------0---|
|---------------------------------|-------------------0---0---2-----|
|---------------------------------|-----------------1-------3-------|
|---------------------------------|---------------------------------|


|-------0-1p0-----------0-1-0--------|
|-----3-------3---------------3------|
|---2-----------0-----0---------0----|
|-0-----------------2----------------|
|-----------------3------------------|
|------------------------------------|
|
|-------0-1p0-------------1-3--------|
|-----3-------3---------3-----3-3----|
|---2-----------0-----0--------------|
|-0-----------------2----------------|
|-----------------3------------------|
|------------------------------------|


|-------0-1-0---------------------|
|-------------3-------3-------3---|
|-----0---------------0-------0---|
|---0---------------0-------2-----|
|-2-------------0-1-----0-3-----0-|
|---------------------------------|
|
|---------0-----------------------|
|-------3-------3-----3-------3---|
|-----0-----0---------0-------0---|
|---0---------0-----0---0---2-----|
|-2---------------1-------3-------|
|---------------------------------|


|-------0-1-0-----------0-1-0-----|-----0-0-0-----------------------|
|-----3-------3---------------3---|-----3-3-3-----------3-------3---|
|---2-----------0-----0-----------|-----0-0-0-----------0-------0---|
|-0-----------------2-------------|---0---------------0-------2---0-|
|-----------------3-------------0-|-2---------------1-----0-3-------|
|---------------------------------|---------------------------------|
|
|---------1p0-------------0-------|---------0-----------------------|
|-----3-3-------3-------3-------3-|-------3-------------3-------3---|
|---2---------2-------0-----0-----|-----0-----0---0-----0-------0---|
|-0-----------------2---------2---|---0---------0-----0---0---2-----|
|-----------------3---------------|-2---------------1-------3-------|
|---------------------------------|---------------------------------|


|-------0-1-0-----------0-1-0-----|-------1-0-----------------------|
|-----3-------3-------3---3---3---|-----------3---3-----3-------3---|
|---2-----------0---------0-------|-----0-------0-------0-------0-0-|
|-0-----------------2-------------|---0---------------0-------2-----|
|-----------------3-------------0-|-2---------------1-----0-3-------|
|---------------------------------|---------------------------------|
|
|---------1p0-------------0-------|---------0-----------------------|
|-------3-------3---------------3-|-------3-------3-----3-------3---|
|-----2-------2-------0-0---0-----|-----0-----0---------0-------0---|
|-0-0---------------2---------2---|---0---------0-----0---0---2-----|
|-----------------3---------------|-2---------------1-------3-------|
|---------------------------------|---------------------------------|


                          ~~~~~~
|-------------------------------------|
|----5-6-8-10-8-6-5-8-6-5-------------|
|-/7----------------------7-(7)-------|
|-------------------------------------|
|-------------------------------------|
|-------------------------------------|
|
|-----------1p0--------------0--------|
|------3----------3-------3-----------|
|----2---2--------------0-------0---0-|
|--0------------0-----2-----------2---|
|-------------------3-----------------|
|-------------------------------------|


        ~~~~~~
|-----5-8-(8)-------8p5---5---------------|
|---6-------------------8---8-6b6.5-------|
|-----------------------------------7-7---|
|-----------------------------------------|
|-----------------------------------------|
|-----------------------------------------|
|
|----------0------------------------------|
|-------3-----------------3-----------3---|
|-----0-------0---0---------0-----------0-|
|---0-----------0-------0-----------2-----|
|-2-----------------1---------3-----------|
|-----------------------------------------|


|---------------------------------------------13-12-10----------------|
|-13b15==13r(13)-10-13-13b15==(13)r(13)-13-10----------13-10---13-10--|
|---------------------------------------------------------------------|
|---------------------------------------------------------------------|
|---------------------------------------------------------------------|
|---------------------------------------------------------------------|
|
|--------------------0--1p===========0---------------------0----------|
|-----------------3-------------------------3-----------3----------3--|
|---------2------------------------------------------0-------0--------|
|--0-------------------------------------0--------2-------------2-----|
|----------------------------------------------3----------------------|
|---------------------------------------------------------------------|


|-13p10------------------------------------------------------------------|
|-------13------13p10----------------------------------------------------|
|------------10-------12p10-12p10-12-12-12p10----10----------------------|
|---------------------------------------------12----12-10----------------|
|---------------------------------------------------------12s10-8-10-8-0-|
|------------------------------------------------------------------------|
|
|----------------0-------------------------------------------------------|
|-------------3--------------------------------------3---------------x---|
|----------0-----------0-----0-------------------------------------------|
|--------0-------------------------0-----------0-----------0-------2-----|
|--2-------------------------------------1----------------------3--------|
|------------------------------------------------------------------------|


|-----------0--1--0-----------------0--1p=0---------|
|--------3-----------3------------------------------|
|-----2-----------------0--------0-----------0------|
|---0-------------------------2---------------------|
|--------------------------3--------------------0---|
|---------------------------------------------------|
|
|----------------------10---------------------------|
|-------------10-11-13----11-13-11-10-11p10----10---|
|-----9-10-12-------------------------------12------|
|-/12-----------------------------------------------|
|---------------------------------------------------|
|---------------------------------------------------|


|---------0---1--0----------------------------|
|------------------------------3---------3----|
|-------0-----------0----------0---------0----|
|-----0----------------------0--------2-------|
|--2-------------------0--1------0--3-------0-|
|---------------------------------------------|
|
|     ~~~~~~~~~~~            ~~
|---------------------------------------------|
|---------------------------------------------|
|-10-12-----(12)---10-12-10-12-----10-9-10----|
|------------------------------------------12-|
|---------------------------------------------|
|---------------------------------------------|


|----------0-1--0--------------------0---1---0------|
|-------3----------3-----------------3---3---3-3----|
|----2----------------------------0--0---0---0-0----|
|-0-------------------0-----2-----------------------|
|------------------------3-----------------------0--|
|---------------------------------------------------|
|
|                                            ~~
|---------------------------------------------------|
|-----------------10-11-10h11p10----10-(10)-13------|
|-9-------10---12----------------12-----------------|
|---10-12-------------------------------------------|
|---------------------------------------------------|
|---------------------------------------------------|


                            H.=H
|--------------0---1--0------------------------------|-^1-----------|-^1----*|
|--------3-------------------------------------------|-^3-----------|-^3----*|
|-----0-----------------0----------0------------0----|-^2-----------|-^2----*|
|-------------------------------0----------2---------|-^0-----------|-^0----*|
|--2----------------------0--1-----------3-----------|--------------|-------*|
|----------------------------------------------------|--------------|-------*|
|
|                                                       ~~
|-10-12-13-13s15-(15)-------15-13-12-13------12------|--------------|-------*|
|---------------------------------------15--------13-|-15-----------|-------*|
|----------------------------------------------------|--------------|-------*|
|----------------------------------------------------|--------------|-------*|
|----------------------------------------------------|--------------|-------*|
|----------------------------------------------------|--------------|-------*|
|
| Gtr III
|----------------------------------------------------|--5-----------|-^5----*|
|----------------------------------------------------|--6--6--5--5--|-^6----*|
|----------------------------------------------------|--7--7--5--5--|-^7----*|
|----------------------------------------------------|--------------|-------*|
|----------------------------------------------------|--5-----------|-^5----*|
|----------------------------------------------------|--------------|-------*|
I want to post or [tab]
guest
You may want to rate the tab now too:
select rating
Please do not post tabs as comments. Select "correction" instead!