Oops, an error
Loading. Please wait.

Alone In The Dark Tab

ver2
ver2

Whole song

Interactive

More versions @911Tabs.com
14,971 views 15 this week
5 commentsread comments
1 2 3 4 5
excellent!
x 7
Autoscroll
+/-
esc
set tempo
stop
Contributor
Hey! There's an official Ultimate Guitar app which is ideal
for learning songs when you're away from computer. Get the app
WARNING: You are trying to view
                                    content from Ultimate-Guitar.com
                                    in an unauthorized application,
                                    which is prohibited.

                                    Please use an official Ultimate
                                    Guitar Tabs application for iPhone,
                                    iPad or Android to access legitimate
                                    chords, guitar, bass, and drum tabs
                                    from Ultimate-Guitar.com database.

                                    Type "ultimate guitar tabs" in Apple
                                    App Store's or Android Market's
                                    search to find the application.
TESTAMENT - ALONE IN THE DARK 2001
From the Album FIRST STRIKE STILL DEADLY
Copyright 2001 SPITFIRE RECORDINGS

Re-Transcribed/Editing/Updated by: Death8699 (Ryan Fanucchi)
Based On Previous Tabs & Solos by: Jarle Olsen & Zac Broaddus

For Questions, Comments, Newest Version, or Corrections contact
Death8699: at ArghEnemies@aol.com

Check Out Death8699.com, With More Transcriptions On It: http://www.death8699.com

Check Out Jarle's Web Site, With More Transcriptions On It: http://www.jarleholsen.com

.  - palm mute                  ph    - pinched harmonic
/  - slide up to                ah    - artificial harmonic
\  - slide down to              th    - tap harmonic
~  - vibrato                    hr    - natural harmonic
h  - hammer on                  b     - bend
p  - pull off                      Suffixes for bend
t  - tap with finger                    f - full bend    h - half bend
"  - tremolo picking                    r - release      t - tap bend
X  - percussion mute                    p - pick when bent
>  - accented note                 Prefixes
() - ghost note, sustained note         p - pre-bend     w - use bar
*  - see comment                        d - don't pick start of bend

--Transcriber's Notes--

I have spent the past 6 months on these songs trying to
get them as perfect as possible.  If you think further
corrections are needed, have the updated solos, or a
better version of this song please mail me at ArchEnemies
@aol.com.  I plan on tabbing this entire album, I have
been hard at work making my previous 'FSSD' tabs better.
Enjoy!

--Miscellaneous Notes--

P.M.H. - palm mute heavy
(**)   - see comment(s)
(^)    - pause; stacatto
(<>)   - pick-up note(s)
Gtr.1  - right channel (Eric Peterson)
Gtr.2  - left  channel (Alex Skolnick)

Tune Gtr to D (D,G,C,F,A,D)

--ALONE IN THE DARK--

 [Rhy.Fig.1]
||-------------------------------|-------------------------------||
||-------------------------------|-------------------------------||
||*------------------------------|-----------------5---------(5)-||[Gtrs.1&2]
||*-2----------(2)---------------|-2-----------(2)-3---------(3)-||
||--0----------(0)-3---------(3)-|-0-----------(0)---------------||
||-----------------1---------(1)-|-------------------------------||




[Lead #1]
|--------------------------------|--------------h-p--------------|
|---------12_13-12_13_12---------|------12_13-121312-------15fb~-|
|--/14~-----h-----h--p---13_14---|-/14~---h----------13_14-------|[Gtr.3]
|-sl-----------------------h-----|sl-------------------h---------|
|--------------------------------|-------------------------------|
|--------------------------------|-------------------------------|




||-------------------------------|-------------------------------||
||-------------------------------|-------------------------------||
||-------------------------------|-----------------5---------(5)-||[Gtrs.1&2]
||--2----------(2)---------------|-2-----------(2)-3---------(3)-||
||--0----------(0)-3---------(3)-|-0-----------(0)---------------||
||-----------------1---------(1)-|-------------------------------||
||                                                               ||
||                                                               ||
||                                                               ||
||------------------------>------|-->------------>---------------||
||------------------------>-->->-|-->------->->-->------->->-----||
||-----------------------10-1010-|-10-(10)-1010-10-(10)-1010-----||[Gtrs.1&2]
||--2--------8\7---------10-1010-|-10-(10)-1010-10-(10)-1010-----||
||--0-----0--8\7---0--0--8--8-8--|-8--(8)--8-8--8--(8)--8-8------||
||------------sl---------8--8-8--|-8--(8)--8-8--8--(8)--8-8---X\-||
          .        .  .                                        sl


                                          p
|-----------h-p------------------|------/1712--p-----------------|
|--15--13-121312-----------------|-----sl----1312----------------|
|----------------12----12/14~----|(14)\---------/14--------------|[Gtr.3]
|-------------------14--sl-------|----sl-------sl--14------------|
|--------------------------------|-------------------12----------|
|--------------------------------|---------------------15-13-12--|




|--------------------------------|-------------------------------|
|--------------------------------|-------------------------------|
|--------------------------------|-------------------------------|[Gtrs.1&2]
|--2-----------(2)-5/7---7--7--7-|-7--7--7--7\5----5--5--5--5--5-|
|--0-----------(0)---------------|-------------------------------|
|------------------3/5---5--5--5-|-5--5--5--5\3----3--3--3--3--3-|
                   sl    |__|__|   |__|__|   sl    |__|__|
                            3         3               3


|--------------------------------|-------------------------------|
|--------------------------------|------------------------20fb___|
|--------------------------------|----------------------X__)-----|[Gtr.3]
|-----------------------------10-|--------------------X__)-------|
|--151412--------------101214----|-141210-----------X__)---------|
|---------151312101213-----------|-------121013~(13)Rake---------|




|--------------------------------|-------------------------------|
|--------------------------------|-------------------------------|
|----------3---------------3---5-|-7---------------9-------------|[Gtrs.1&2]
|--5---X-----------X---X---------|-------------------------------|
|------X---1-------X---X---1---3-|-5---------------7-------------|
|--3-----------------------------|-------------------------------|
   .



|-----------------19hb_r-17------|-------------------------------|
|__r~-20fb~--(20)----------------|-------------------------------|
|--------------------------------|--19hb~-17/19~---/14~----------|[Gtr.3]
|--------------------------------|---------sl-----sl-------------|
|--------------------------------|-------------------------------|
|--------------------------------|-------------------------------|




|--------------------------------|-------------------------------||
|--------------------------------|-------------------------------||
|--9/10--------------------------|-(10)-------------------------*||[Gtrs.1&2]
|--------------------------------|------------------------------*||
|--7/8---------------------------|-(8)---------------------------||
|--sl----------------------------|-------------------------------||



                                               p   sl p
|----p---------------------------|---121315-/1713--/1915--1719---|
|--1512--------------------10----|-13-------sl---15-----17-------|
|-------12-/14~---14-12-10-------|-------------------------------|[Gtr.3]
|---------sl---------------------|-------------------------------|
|--------------------------------|-------------------------------|
|--------------------------------|-------------------------------|




||-------------------------------|-------------------------------||
||-------------------------------|-------------------------------||
||---------------%---------------|---------------%--------------*||[Gtrs.1&2]
||-------------------------------|------------------------------*||
||-------------------------------|-------------------------------||
||-------------------------------|-------------------------------||



|--19hb__r-----------------------|-------------------------------|
|----------18~-(18)--------------|-(18)--------------------------|
|--------------------------------|-------------------------------|[Gtr.3]
|--------------------------------|-------------------------------|
|--------------------------------|-------------------------------|
|--------------------------------|-------------------------------|


 [Main Riff]
||----------------------------|----------------------------|--------------|
||----------------------------|----------------------------|--------------|
||*---h-------------------3---|---h------------------------|---h----------|[Gtr.1]
||*-0___2--------2--------1---|-0___2--------2--------3----|-0___2--------|
||--0------0--0--0--0--0------|-0------0--0--0--0--0--1----|-0------0--0--|
||----------------------------|----------------------------|--------------|
||         .  .     .  .               .  .     .  .                .  .  |
||                                                                        |
||                                                                        |
||----------------------------|----------------------------|--------------|
||----------------------------|----------------------------|--------------|
||----------------------------|----------------------------|--------------|[Gtr.2]
||--2-------------------------|----------------------------|--------------|
||--0-------------------------|----------------------------|--------------|
||----------------------------|----------------------------|--------------|



|-----------------------------|----------------------------|--------------|
|-----------------------------|----------------------------|--------------|
|----------3------------------|-----------h----------------|---3----------|[Gtr.1]
|--2-------1-2--------2-------|-----5---0___2---------2----|---1----------|
|--0--0--0---0--0--0--0--0--0-|-3---3---0-------0--0--0--0-|-0------------|
|-----------------------------|-1--------------------------|--------------|
|     .  .      .  .     .  .                   .  .     .   .            |
|                                                                         |
|                                                                         |
|-----------------------------|----------------------------|--------------|
|-----------------------------|----------------------------|--------------|
|-----------------------------|-----------h----------------|---3----------|[Gtr.2]
|-----------------------------|-----5---0___2---------2----|---1----------|
|-----------------------------|-3---3---0-------0--0--0--0-|-0------------|
|-----------------------------|-1--------------------------|--------------|
                                                .  .     .   .



|-----------------------------|----------------------------|--------------||
|-----------------------------|----------------------------|--------------||
|----h------------------------|---h--------------------3---|--------------||[Gtr.1]
|--0___2---------2--------3---|-0___2---------2--------1---|-2(*)---------||
|--0-------0--0--0--0--0--1---|-0-------0--0--0--0--0------|-0(*)---------||
|-----------------------------|----------------------------|--------------||
|          .  .     .  .                .  .     .  .                     ||
|                                                                         ||
|                                                                         ||
|-----------------------------|----------------------------|--------------||
|-----------------------------|----------------------------|--------------||
|----h------------------------|---h--------------------3---|--------------||[Gtr.2]
|--0___2---------2--------3---|-0___2---------2--------1---|-2(*)---------||
|--0-------0--0--0--0--0--1---|-0-------0--0--0--0--0------|-0(*)---------||
|-----------------------------|----------------------------|--------------||
           .  .     .  .                .  .     .  .


(**) = Pause completely.


|-----------------------------|----------------------------|--------------||
|-----------------------------|----------------------------|--------------||
|-----------------------------|----------------------------|-------------*||[Gtrs.1&2]
|-----------------------------|--5-------------------------|-------------*||
|--3--------------------------|--3-------------------------|--------------||
|--1--------------------------|----------------------------|--------------||


 [Chorus Riff] (w/Gtr.3 Melody)
||----------------------------|----------------------------|--------------|
||----------------------------|----------------------------|--------------|
||*---h-------------------3---|---h------------------------|---h----------|[Gtrs.1&2]
||*-0___2--------2--------1---|-0___2---------2--------3---|-0___2--------|
||--0------0--0--0--0--0------|-0-------0--0--0--0--0--1---|-0------0--0--|
||----------------------------|----------------------------|--------------|
||         .  .     .  .                .  .     .  .               .  .  |
||                                                                        |
||                                                                        |
||----------------------------|----------------------------|--------------|
||----------------------------|----------------------------|--------------|
||-/14----(14)\/13-----10---9-|---9-(9)--------/12------10-|-8--8-(8)-----|[Gtr.3]
||----------------------------|----------------------------|--------------|
||-/12----(12)\/11-----8----7-|---7-(7)--------/10------8--|-6--6-(6)-----|
||sl--------Slides------------|---------------sl-----------|--------------|



|-----------------------------|----------------------------|--------------||
|-----------------------------|----------------------------|--------------||
|----------3------------------|----------------------------|-------------*||[Gtrs.1&2]
|--2-------1-2--------2-------|----------------------------|-5-----------*||
|--0--0--0---0--0--0--0--0--0-|-3--------------------------|-3------------||
|-----------------------------|-1--------------------------|--------------||
|     .  .      .  .     .  .                                             ||
|                                                                         ||
|                                                                         ||
|-----------------------------|----------------------------|--------------||
|-----------------------------|----------------------------|--------------||
|--8--/11--8---7--------------|-(7)------------------------|\------------*||[Gtr.3]
|-----------------------------|----------------------------|-------------*||
|--6--/9---6---5--------------|-(5)------------------------|\-------------||
|----sl-----------------------|----------------------------|sl------------||


Repeat Chorus Riff [1x]


||----------------------------|----------------------------|--------------|
||----------------------------|----------------------------|--------------|
||*---h-------------------3---|---h------------------------|---h----------|[Gtrs.1&2]
||*-0___2--------2--------1---|-0___2---------2--------3---|-0___2--------|
||--0------0--0--0--0--0------|-0-------0--0--0--0--0--1---|-0------0--0--|
||----------------------------|----------------------------|--------------|
||         .  .     .  .                .  .     .  .               .  .  |
||                                                                        |
||                                                                        |
||----------------------------|----------------------------|--------------|
||----------------------------|----------------------------|--------------|
||-----------3----------------|----------------------------|--------------|[Gtrs.1&2]
||--2--------1----2--------2--|----------------------------|-5------------|
||--0--0--0-------0--0--0--0--|-0--0--3--------------------|-3------------|
||----------------------------|-------1--------------------|--------------|
       .  .          .  .       .  .


|-----------------------------|----------------------------|--------------||
|-----------------------------|----------------------------|--------------||
|----h-------------------3----|---h------------------------|---h----------||[Gtrs.1&2]
|--0___2--------2--------1----|-0___2---------2--------3---|-0___2--------||
|--0------0--0--0--0--0-------|-0-------0--0--0--0--0--1---|-0------0--0--||
|-----------------------------|----------------------------|--------------||
|         .  .     .  .                 .  .     .  .               .  .  ||
|                                                                         ||
|-----------------------------|----------------------------|--------------||
|-----------------------------|----------------------------|--------------||
|-----------3-----------------|----------------------------|-------------*||[Gtrs.1&2]
|--2--------1----2(*)---------|----------------------------|-5-----------*||
|--0--0--0-------0(*)---------|-3--------------------------|-3------------||
|-----------------------------|-1--------------------------|--------------||
      .  .


(**) = Pause completely; as similar to above.


 [Verse]
||----------------------------|----------------------------|--------------|
||----------------------------|----------------------------|--------------|
||*---h-------------------3---|---h------------------------|---h----------|[Gtrs.1&2]
||*-0___2--------2--------1---|-0___2---------2--------3---|-0___2--------|
||--0------0--0--0--0--0------|-0-------0--0--0--0--0--1---|-0------0--0--|
||----------------------------|----------------------------|--------------|
||         .  .     .  .                .  .     .  .               .  .  |
||                                                                        |
||                                                                        |
||----------------------------|----------------------------|--------------|
||----------------------------|----------------------------|--------------|
||-----------3----------------|----------------------------|--------------|[Gtrs.1&2]
||--2--------1----2--------2--|----------------------------|-5------------|
||--0--0--0-------0--0--0--0--|-0--0--3--------------------|-3------------|
||----------------------------|-------1--------------------|--------------|
       .  .          .  .       .  .



|-----------------------------|----------------------------|--------------||
|-----------------------------|----------------------------|--------------||
|----h-------------------3----|---h------------------------|---h----------||[Gtrs.1&2]
|--0___2--------2--------1----|-0___2---------2--------3---|-0___2--------||
|--0------0--0--0--0--0-------|-0-------0--0--0--0--0--1---|-0------0--0--||
|-----------------------------|----------------------------|--------------||
|         .  .     .  .                 .  .     .  .               .  .  ||
|                                                                         ||
|                                                                         ||
|-----------------------------|----------------------------|--------------||
|-----------------------------|----------------------------|--------------||
|-----------3-----------------|----------------------------|-------------*||[Gtrs.1&2]
|--2--------1----2--------2---|----------------------------|-5-----------*||
|--0--0--0-------0--0--0--0---|-0--0--3--------------------|-3------------||
|-----------------------------|-------1--------------------|--------------||
      .  .          .  .        .  .


Repeat Chorus Riff [1x]


 [Fill 1]
||----------------------------|----------------------------|--------------||
||----------------------------|----------------------------|--------------||
||----h-------------------3---|---h------------------------|---h----------||[Gtrs.1&2]
||--0___2--------2--------1---|-0___2---------2--------3---|-0___2--------||
||--0------0--0--0--0--0------|-0-------0--0--0--0--0--1---|-0------0--0--||
||----------------------------|----------------------------|--------------||
||         .  .     .  .                .  .     .  .               .  .  ||
||                                                                        ||
||                                                                        ||
||----------------------------|----------------------------|--------------||
||----------------------------|----------------------------|--------------||
||-/14----(14)\/13-----10---9-|---9-(9)--------/12------10-|-8--8-(8)-----||[Gtr.3]
||----------------------------|----------------------------|--------------||
||-/12----(12)\/11-----8----7-|---7-(7)--------/10------8--|-6--6-(6)-----||
||sl--------Slides------------|---------------sl-----------|--------------||




||----------------------------|----------------------------|--------------||
||----------------------------|----------------------------|--------------||
||----------3-----------------|------------------------X-X-|-5------------||[Gtrs.1&2]
||-2--------1----2--------2---|----------3/5--7--------X-X-|-3--------5---||
||-0--0--0-------0--0--0--0---|-0--0--3--1/3--5------------|----------3---||
||----------------------------|-------1--sl----------------|--------------||
||    .  .          .  .        .  .                                      ||
||                                                                        ||
||                                                                        ||
||----------------------------|----------------------------|--------------||
||----------------------------|----------------------------|--------------||
||-8--/11--8---7--------------|-(7)------------------------|-(7)\---------||[Gtr.3]
||----------------------------|----------------------------|--------------||
||-6--/9---6---5--------------|-(5)------------------------|-(5)\---------||
||---sl-----------------------|----------------------------|----sl--------||


 [Rhy.Fig.2]                                              (Gtr.1&2 Split)
||-----------------------------------|----------------------------------||
||-----------------------------------|----------------------------------||
||*----------------------------------|----------------------------------||[Gtrs.1&2]
||*----------------------------------|----------------4-------5|--------||
||-------------------5\4-----------4-|----------------2___0---3|3~------||
||--0___2---2--2--2--3\2---2---2---2-|--2---2--2--2-----p------p.h.-----||
||    h     .  .  .   sl   .   .        .   .  .  .                     ||
||                                                                      ||
||                                                                      ||
||-----------------------------------|----------------------------------||
||-----------------------------------|--------------------------7~------||
||-----------------------------------|--------------------5--8----------||[Gtr.1]
||-----------------------------------|--------------4--7----------------||
||-------------------5\4-----------4-|--------3--6----------------------||
||--0___2---2--2--2--3\2---2---2---2-|--2--5----------------------------||
||    h     .  .  .   sl   .   .                                        ||
||                                                                      ||
||                                                                      ||
||-----------------------------------|----------------------------------||
||-----------------------------------|--------------------------10~-----||
||-----------------------------------|--------------------8--11---------||[Gtr.2]
||-----------------------------------|--------------7--10---------------||
||-------------------5\4-----------4-|--------6--9----------------------||
||--0___2---2--2--2--3\2---2---2---2-|--5--8----------------------------||
      h     .  .  .   sl   .   .


                                                          (Gtr.1&2 Split)
||-----------------------------------|----------------------------------||
||-----------------------------------|----------------------------------||
||-----------------------------------|----------------------------------||[Gtrs.1&2]
||-----------------------------------|------------------4-------5|------||
||-------------------5\4-----------4-|------------------2___0---3|3~----||
||--0___2---2--2--2--3\2---2---2---2-|--2---2--2--2-------p-------p.h.--||
||    h     .  .  .   sl   .   .        .   .  .  .                     ||
||                                                                      ||
||                                                                      ||
||-----------------------------------|----------------------------------||
||-----------------------------------|--------------------------7~------||
||-----------------------------------|--------------------5--8---------*||[Gtr.1]
||-----------------------------------|--------------4--7---------------*||
||-------------------5\4-----------4-|--------3--6----------------------||
||--0___2---2--2--2--3\2---2---2---2-|--2--5----------------------------||
||    h     .  .  .   sl   .   .        .  .  .  .  .  .  .  .          ||
||                                                                      ||
||                                                                      ||
||-----------------------------------|----------------------------------||
||-----------------------------------|--------------------------10~-----||
||-----------------------------------|--------------------8--11--------*||[Gtr.2]
||-----------------------------------|--------------7--10--------------*||
||-------------------5\4-----------4-|--------6--9----------------------||
||--0___2---2--2--2--3\2---2---2---2-|--5--8----------------------------||
      h     .  .  .   sl   .   .        .  .  .  .  .   . .   .


Repeat Verse Riff  [1x]
Repeat Chorus Riff [1x]


 [Fill 2]
||----------------------------|----------------------------|--------------||
||----------------------------|----------------------------|--------------||
||----h-------------------3---|---h------------------------|---h----------||[Gtrs.1&2]
||--0___2--------2--------1---|-0___2---------2--------3---|-0___2--------||
||--0------0--0--0--0--0------|-0-------0--0--0--0--0--1---|-0------0--0--||
||----------------------------|----------------------------|--------------||
||         .  .     .  .                .  .     .  .               .  .  ||
||                                                                        ||
||                                                                        ||
||----------------------------|----------------------------|--------------||
||----------------------------|----------------------------|--------------||
||-/14----(14)\/13-----10---9-|---9-(9)--------/12------10-|-8--8-(8)-----||[Gtr.3]
||----------------------------|----------------------------|--------------||
||-/12----(12)\/11-----8----7-|---7-(7)--------/10------8--|-6--6-(6)-----||
||sl--------Slides------------|---------------sl-----------|--------------||




||----------------------------|----------------------------|--------------||
||----------------------------|----------------------------|--------------||
||----------3-----------------|------------------------X-X-|-5------------||[Gtrs.1&2]
||-2--------1----2--------2---|----------3/5--7--------X-X-|-3--------5---||
||-0--0--0-------0--0--0--0---|-0--0--3--1/3--5--------X-X-|-3--------3---||
||----------------------------|-------1--sl----------------|----------3---||
||    .  .          .  .        .  .                                      ||
||                                                                        ||
||                                                                        ||
||----------------------------|----------------------------|--------------||
||----------------------------|----------------------------|--------------||
||-8--/11--8---7--------------|-(7)------------------------|-(7)\---------||[Gtr.3]
||----------------------------|----------------------------|--------------||
||-6--/9---6---5--------------|-(5)------------------------|-(5)\---------||
||---sl-----------------------|----------------------------|----sl--------||


Repeat Rhy.Fig.2  [1x]
Repeat Verse Riff [3/4x]


[Last Ending]
|-----------------------------|----------------------------|--------------||
|-----------------------------|----------------------------|--------------||
|-----------3-----------------|----------------------------|-------------*||[Gtrs.1&2]
|--2--------1----2(*)---------|----------------------------|-5-----------*||
|--0--0--0-------0(*)---------|-3--------------------------|-3------------||
|-----------------------------|-1--------------------------|--------------||
      .  .


(**) = Pause completely.


 [Rhy.Fig.3](**)                   ----Let notes ring out----
||-----------------------------|-----------------------------|
||-----------------------------|-----------6-6---6---||6-----|
||*----------------------------|-5-(5)----5---5-5----||5-----|[Gtrs.1&2]
||*-2-(2)----------------------|-3-(3)---3-----3-----||3-----|
||--0-(0)----------------------|-----------------------------|
||-----------------------------|-----------------------------|
||                                                           |
||                                                           |
||                                                           |
||--12\------------------------|-----------------------------|
||----sl----------6------------|-----------------------------|
||--------/9~---------9--(9)\7-|-4---------------------------|[Gtr.3]
||-------sl-----------------sl-|----5-------------/10-----7~-|
||-----------------------------|-------7-(7)/8-7-sl----------|
||-----------------------------|-----------sl----------------|



         sim.                            sim.
|------------------------------|-----------------------------||
|--------------5-5-------------|-----------6----||6-----/6\--||
|------------2-----2-------2---|-5-(5)----5-5---||5-----/5\-*||[Gtrs.1&2]
|--2-(2)---2---------2---2---2-|-3-(3)---3------||3-----/3\-*||
|--0-(0)-0-------------0-------|----------------------Slides-||
|------------------------------|-----------------------------||
|                                                            ||
|                                                            ||
|                                                            ||
|------------------------------|-----------------------------||
|------------------------------|-/13------10~----------(10)\-||
|--/9------7~-----/12------9~--|sl-------------------------sl||[Gtr.3]
|-sl-------------sl------------|-----------------------------||
|------------------------------|-----------------------------||
|------------------------------|-----------------------------||


(**) =  These are the basic riffs played over the lead.  On
        this album, there's substitutes within them but the
        base chords remain the same.


 [Rhy.Fig.4]
||--------------|--------------|--------------|--------------|
||--------------|--------------|--------------|--------------|
||--------------|--------------|--------------|--------------|[Gtr.1]
||--------------|--------------|--------------|--------2~----|
||--0--77--5--3-|-0--55--3--2--|-0---2---3--0-|-3--5--p.h.---|
||--------------|--------------|--------------|--------------|
||  .  ..  .  .   .  ..  .  .    .   .   .  .   .  .         |
||                                                           |
||                                                           |
||--------------|--------------|--------------|--------------|
||--------------|--------------|--------------|--------------|
||--------------|--------------|--------------|--------------|[Gtr.2]
||--2--2--------|-2-----2------|--------------|--------------|
||--0--0--0--0--|-0--0--0--0---|-3-3--------3-|----3---------|
||--------------|--------------|-1-1--1--1--1-|-1--1--1------|
          .  .       .     .          .  .      .     .



|---------------|--------------|--------------|--------------||
|---------------|--------------|--------------|--------------||
|---------------|--------------|--------------|--------------||[Gtr.1]
|---------------|--------------|--------------|--------------||
|--0--77--5--3--|-0--55--3--2--|-0---2---3--0-|-3--5___2-----||
|---------------|--------------|--------------|------p-------||
|  .  ..  .  .    .  ..  .  .    .   .   .  .   .            ||
|                                                            ||
|                                                            ||
|---------------|--------------|--------------|--------------||
|---------------|--------------|--------------|--------------||
|---------------|--------------|--------------|--------------||[Gtr.2]
|--2--2---------|-2-----2------|--------------|--------------||
|--0--0--0--0---|-0--0--0--0---|-3-3--------3-|----3---------||
|---------------|--------------|-1-1--1--1--1-|-1--1--1------||
         .  .        .     .          .  .      .     .



||--------------|--------------|--------------|--------------|
||--------------|--------------|--------------|--------------|
||--------------|--------------|--------------|--------------|[Gtr.1]
||--------------|--------------|--------------|--------2~----|
||--0---7--5--3-|-0---5--3--2--|-0---2---3--0-|-3--5--p.h.---|
||--------------|--------------|--------------|--------------|
||  .   .  .  .   .   .  .  .    .   .   .  .   .  .         |
||                                                           |
||                                                           |
||--------------|--------------|--------------|--------------|
||--------------|--------------|--------------|--------------|
||--------------|--------------|-4/5--------5-|-------5------|[Gtr.2]
||--2--2--------|-2------2-----|-2/3--3--3--3-|-3--3--3--3---|
||--0--0--0---0-|-0--0---0--0--|-sl-----------|--------------|
||--------------|--------------|--------------|--------------|
          .   .      .      .         .  .      .  .     .



|---------------|--------------|--------------|--------------||
|---------------|--------------|--------------|--------------||
|---------------|--------------|--------------|--------------||[Gtr.1]
|---------------|--------------|--------------|--------------||
|--0---7--5--3--|-0---5--3--2--|-0---2---3--0-|-3--5___2-----||
|---------------|--------------|--------------|------p-------||
|                                                            ||
|                                                            ||
|                                                            ||
|---------------|--------------|--------------|--------------||
|---------------|--------------|--------------|--------------||
|--4/5--------5-|---------5----|-(5)----------|-------%-----*||[Gtr.2]
|--2/3--3--3--3-|-3---3---3----|-(3)----------|-------------*||
|---sl----------|--------------|--------------|--------------||
|---------------|--------------|--------------|----------X\--||
        .  .      .   .                                   sl


 [Rhy.Fig.5]
||---------------------------------|---------------------------------|
||---------------------------------|---------------------------------|
||*--h-----------------------------|-4/5-----------5-----------5-----|[Gtr.1]
||*-0_2---------2-----------2------|-2/3---3---3---3---3---3---3---3-|
||--0---0---0---0---0---0---0----0-|-sl------------------------------|
||---------------------------------|---------------------------------|
||      .   .       .   .        .         .   .       .   .       . |
||                                                                   |
||                                                                   |
||---------------------------------|---------------------------------|
||---------------------------------|---------------------------------|
||*--------------------------------|-4/5-----------5-----------5-----|[Gtr.2]
||*-5/7---------7-----------7------|-2/3-----------3-----------3-----|
||--3/7---------5-----------5----0-|-2/3---3---3---3---3---3---3---3-|
||--3/5-5---5---5---5---5---5------|-sl------------------------------|
    sl  .   .       .   .        .         .   .       .   .       .



|----------------------------------|---------------------------------|
|----------------------------------|---------------------------------|
|----------------------------------|---------------------------------|[Gtr.1]
|--2----------2/3------------2/3---|---------------------------------|
|--2--2---2---2/3---2---2----2/3---|-0---0---0---0--0--0---0---0-----|
|-------------sl-------------sl----|---------------------------------|
|     .   .         .   .            .   .   .   .  .  .   .   .     |
|                                                                    |
|                                                                    |
|----------------------------------|---------------------------------|
|----------------------------------|---------------------------------|
|----------------------------------|---------------------------------|[Gtr.2]
|----------------------------------|---------------------------------|
|--2----------2/3------------2/3---|-0---0---0---0--0--0---0---0-----|
|--0--0---0---0/1---0---0----0/1---|---------------------------------|
      .   .   sl    .   .    sl      .   .   .   .  .  .   .   .



|----------------------------------|---------------------------------||
|----------------------------------|---------------------------------||
|----------------------------------|--------------------------------*||[Gtrs.1&2]
|----------------------------------|--------------------------------*||
|--3-------------------------------|-2-------------------------------||
|--1-------------------------------|-0-------------------------------||


Repeat Rhy.Fig.5 [3x]


[Lead #2] (w/Rhy.Fig.5 4x)   p p
|--12_13_12_10-12~-------|-131210---p-p-----------|---p-p--p---------------|
|----h--p--p-------------|--------131210---p------|-12108-108------p-p-----|
|------------------------|---------------1210-9~--|-----------10-12109-----|[Gtr.3]
|------------------------|------------------------|------------------------|
|------------------------|------------------------|------------------------|
|------------------------|------------------------|------------------------|




|------------------------|------------------------|------------------------|
|---p--------------------|------------------------|-----------------10-----|
|--109-------------------|------------------------|---------9-10-12--------|[Gtr.3]
|------12_10_12_10\9-109-|-------9----------------|-9-10-12----------------|
|--------p--h--p--sl--p--|-12-10---10-12~------12-|------------------------|
|------------------------|------------------------|------------------------|




|-------h-p--------------|-12_10_8_10_8----8---p--|--p-p-------------------|
|--13-121312----12-------|---p--p-h--p--12---1210-|-12108--p-p-----p-------|
|------------14----14~---|------------------------|-------1097----97-------|[Gtr.3]
|------------------------|------------------------|------------10----109---|
|------------------------|------------------------|--------------------p---|
|------------------------|------------------------|------------------------|




|-----------12-----------|------------------------|------------------------|
|------------------------|------------------------|------------------------|
|--7------9----9---9fb___|r---9hb___r---7---9~----|-9_10_9_7----9_7--------|[Gtr.3]
|----1097----------------|------------------------|--h--p-p--10~-p---------|
|------pp----------------|------------------------|------------------------|
|------------------------|------------------------|------------------------|




|------------------------|---p-p-------p-p--12----|------------------------|
|------------------------|-131210----151412----12-|------------------------|
|----------------121415--|--------14--------------|12----------------------|[Gtr.3]
|---------121415---h-h---|------------------------|---14-------------------|
|--121415---h-h----------|------------------------|------14----14----------|
|----h-h-----------------|------------------------|---------15----12~------|




|--------15-----------p--|------------------------|------------------------|
|--15fb-----15~-----1312-|----12------------------|------------------------|
|------------------------|-14----12~--------------|-(12)-------------------|[Gtr.3]
|------------------------|------------------------|------------------------|
|------------------------|------------------------|------------------------|
|------------------------|------------------------|------------------------|




|-1212131315151517171719-|-19192020---------------|-15fb___r~--------------|
|------------------------|---------20fb______r~---|------------------------|
|------------------------|------------------------|------------------------|[Gtr.3]
|------------------------|------------------------|------------------------|
|------------------------|------------------------|------------------------|
|------------------------|------------------------|------------------------|




|--15---13---12~------12-|--13--------------------|------------------------|
|------------------------|----------15---13-------|------------------------|
|------------------------|--------------------14--|-(14)-------------------|[Gtr.3]
|------------------------|------------------------|------------------------|
|------------------------|------------------------|------------------------|
|------------------------|------------------------|------------------------|


 [Rhy.Fig.6] (w/Lead)(**)
||----------------------|----------------------|---------------------||
||----------------------|----------------------|---------------------||
||*---------------------|----------------------|---------------------||[Gtrs.1&2]
||*---------------------|-2-(2)----------------|-----2-(2)-----------||
||--3--------5--------5-|-0-(0)----3--------5--|-5---0-(0)-----------||
||--1--------3--------3-|----------1--------3--|-3-------------------||
||                    .                          .                   ||
||                                                                   ||
||                                                                   ||
||                          h                    sim.          h     ||
||------------12-17--15-|-1213-12~-------------|-----1217-15-1213----||
||-------13-------------|----------------------|---13------------13~-||
||--14------------------|----------------------|-14------------------||[Gtr.3]
||Sweep-----------------|----------------------|---------------------||
||----------------------|----------------------|---------------------||
||----------------------|----------------------|---------------------||




||----------------------|----------------------|---------------------||
||----------------------|----------------------|---------------------||
||----------------------|----------------------|---------------------||[Gtrs.1&2]
||----------------------|-2-(2)----------------|---------------------||
||--3--------5--------5-|-0-(0)----3--------5--|-5-------------------||
||--1--------3--------3-|----------1--------3--|-3-------------------||
||                    .                          .                   ||
||                                                                   ||
||                                                                   ||
|| sim.                                                              ||
||------------15-19_15--|----------------------|---------------------||
||-------17--------p----|-17-------------------|---------------------||
||--16------------------|-----16~--------------|-(16)----------------||[Gtr.3]
||----------------------|----------------------|------------17-16-14-||
||----------------------|----------------------|---------------------||
||----------------------|----------------------|---------------------||




||----------------------|----------------------|---------------------||
||----------------------|----------------------|---------------------||
||----------------------|----------------------|----------hp---------||[Gtrs.1&2]
||-----7----------------|-----9----------------|----9/10-9109-7------||
||---------5___0--------|---------7___0--------|-7--sl----------10_0-||
||-5---------p-----5----|-7---------p-----7--8-|------------------p--||
|| .               .      .               .  .   .                   ||
||                                                                   ||
||                                                                   ||
||                                                                   ||
||----------------------|----------------------|---------------------||
||----------------------|----------------------|---12131515/17-17~---||
||----------------------|-------------------12-|-14-------sl---------||[Gtr.3]
||----14----------------|-------12--14--15-----|---------------------||
||-17----15-17-14-15-12-|-14_15----------------|---------------------||
||----------------------|---h------------------|---------------------||




||----------------------|----------------------|---------------------||
||----------------------|----------------------|---------------------||
||----------------------|----------------------|--------------------*||[Gtrs.1&2]
||-----7----------------|-----9----------------|--------------------*||
||---------5___0--------|---------7___0--------|-------------5_7-(7)-||
||-5---------p-----5----|-7---------p------8---|-5---7---8----h------||
|| .               .      .                .     .   .   .           ||
||                                                                   ||
||                                                                   ||
||                                                                   ||
||----------------------|----------------------|---------------------||
||-(17)-----------------|----------------------|---------------------||
||----------------------|----------%-----------|---------%----------*||[Gtr.3]
||----------------------|----------------------|--------------------*||
||----------------------|----------------------|---------------------||
||----------------------|----------------------|---------------------||


(**) = The last few bars of this riff are difficult to make out.  Listen
       to the song; this is my best interpretation for now.



 [Main rhythm; repeated]
||----------------------------|----------------------------|--------------|
||----------------------------|----------------------------|--------------|
||*---h-------------------3---|---h------------------------|---h----------|[Gtr.1]
||*-0___2--------2--------1---|-0___2--------2--------3----|-0___2--------|
||--0------0--0--0--0--0------|-0------0--0--0--0--0--1----|-0------0--0--|
||----------------------------|----------------------------|--------------|
||         .  .     .  .               .  .     .  .                .  .  |
||                                                                        |
||                                                                        |
||----------------------------|----------------------------|--------------|
||----------------------------|----------------------------|--------------|
||----------------------------|----------------------------|--------------|[Gtr.2]
||--2-------------------------|----------------------------|--------------|
||--0-------------------------|----------------------------|--------------|
||----------------------------|----------------------------|--------------|




|-----------------------------|----------------------------|--------------|
|-----------------------------|----------------------------|--------------|
|----------3------------------|-----------h----------------|---3----------|[Gtr.1]
|--2-------1-2--------2-------|-----5---0___2---------2----|---1----------|
|--0--0--0---0--0--0--0--0--0-|-3---3---0-------0--0--0--0-|-0------------|
|-----------------------------|-1--------------------------|--------------|
|     .  .      .  .     .  .                   .  .     .   .            |
|                                                                         |
|                                                                         |
|-----------------------------|----------------------------|--------------|
|-----------------------------|----------------------------|--------------|
|-----------------------------|-----------h----------------|---3----------|[Gtr.2]
|-----------------------------|-----5---0___2---------2----|---1----------|
|-----------------------------|-3---3---0-------0--0--0--0-|-0------------|
|-----------------------------|-1--------------------------|--------------|
                                                .  .     .   .



|-----------------------------|----------------------------|--------------||
|-----------------------------|----------------------------|--------------||
|----h------------------------|---h--------------------3---|--------------||[Gtr.1]
|--0___2---------2--------3---|-0___2---------2--------1---|-2(*)---------||
|--0-------0--0--0--0--0--1---|-0-------0--0--0--0--0------|-0(*)---------||
|-----------------------------|----------------------------|--------------||
|          .  .     .  .                .  .     .  .                     ||
|                                                                         ||
|                                                                         ||
|-----------------------------|----------------------------|--------------||
|-----------------------------|----------------------------|--------------||
|----h------------------------|---h--------------------3---|--------------||[Gtr.2]
|--0___2---------2--------3---|-0___2---------2--------1---|-2(*)---------||
|--0-------0--0--0--0--0--1---|-0-------0--0--0--0--0------|-0(*)---------||
|-----------------------------|----------------------------|--------------||
           .  .     .  .                .  .     .  .


(**) = Pause completely.


|-----------------------------|----------------------------|--------------||
|-----------------------------|----------------------------|--------------||
|-----------------------------|----------------------------|-------------*||[Gtrs.1&2]
|-----------------------------|--5-------------------------|-------------*||
|--3--------------------------|--3-------------------------|--------------||
|--1--------------------------|----------------------------|--------------||


Repeat Verse Riff  [1x]
Repeat Chorus Riff [1x]


 [Fill 3]
||----------------------------|----------------------------|--------------||
||----------------------------|----------------------------|--------------||
||----h-------------------3---|---h------------------------|---h----------||[Gtrs.1&2]
||--0___2--------2--------1---|-0___2---------2--------3---|-0___2--------||
||--0------0--0--0--0--0------|-0-------0--0--0--0--0--1---|-0------0--0--||
||----------------------------|----------------------------|--------------||
||         .  .     .  .                .  .     .  .               .  .  ||
||                                                                        ||
||                                                                        ||
||----------------------------|----------------------------|--------------||
||----------------------------|----------------------------|--------------||
||-/14----(14)\/13-----10---9-|---9-(9)--------/12------10-|-8--8-(8)-----||[Gtr.3]
||----------------------------|----------------------------|--------------||
||-/12----(12)\/11-----8----7-|---7-(7)--------/10------8--|-6--6-(6)-----||
||sl--------Slides------------|---------------sl-----------|--------------||




||----------------------------|----------------------------|--------------||
||----------------------------|----------------------------|--------------||
||----------3-----------------|----------------------------|--------------||[Gtrs.1&2]
||-2--------1----2--------2---|----------3/5--7------------|----------5---||
||-0--0--0-------0--0--0--0---|-0--0--3--1/3--5--------X-X-|-3--------3---||
||----------------------------|-------1--sl------------X-X-|-1--------3---||
||    .  .          .  .        .  .                                      ||
||                                                                        ||
||                                                                        ||
||----------------------------|----------------------------|--------------||
||----------------------------|----------------------------|--------------||
||-8--/11--8---7--------------|-(7)------------------------|-(7)\---------||[Gtr.3]
||----------------------------|----------------------------|--------------||
||-6--/9---6---5--------------|-(5)------------------------|-(5)\---------||
||---sl-----------------------|----------------------------|----sl--------||


Repeat Rhy.Fig.2 [1x]


 [Ending]
||----------------------------|----------------------------|--------------|
||----------------------------|----------------------------|--------------|
||*---h-------------------3---|---h------------------------|---h----------|[Gtrs.1&2]
||*-0___2--------2--------1---|-0___2---------2--------3---|-0___2--------|
||--0------0--0--0--0--0------|-0-------0--0--0--0--0--1---|-0------0--0--|
||----------------------------|----------------------------|--------------|
||         .  .     .  .                .  .     .  .               .  .  |
||                                                                        |
||                                                                        |
||----------------------------|----------------------------|--------------|
||----------------------------|----------------------------|--------------|
||-----------3----------------|----------------------------|--------------|[Gtrs.1&2]
||--2--------1----2--------2--|----------------------------|-5------------|
||--0--0--0-------0--0--0--0--|-0--0--3--------------------|-3------------|
||----------------------------|-------1--------------------|--------------|
       .  .          .  .       .  .



|-----------------------------|----------------------------|--------------||
|-----------------------------|----------------------------|--------------||
|----h-------------------3----|---h------------------------|---h----------||[Gtrs.1&2]
|--0___2--------2--------1----|-0___2---------2--------3---|-0___2--------||
|--0------0--0--0--0--0-------|-0-------0--0--0--0--0--1---|-0------0--0--||
|-----------------------------|----------------------------|--------------||
|         .  .     .  .                 .  .     .  .               .  .  ||
|                                                                         ||
|                                                                         ||
|-----------------------------|----------------------------|--------------||
|-----------------------------|----------------------------|--------------||
|-----------3-----------------|----------------------------|-------------*||[Gtrs.1&2]
|--2--------1----2(*)---------|----------------------------|-------------*||
|--0--0--0-------0(*)---------|----------------------------|--------------||
|-----------------------------|----------------------------|--------------||
      .  .


(**) = Ending chord!


'ALONE IN THE DARK' LYRICS
--------------------------

Music:  Skolnick, Peterson
Lyrics: Souza

When I was but very young
Sorcerers came to claim my mind
Leaving death and hatred to unmask
The master of the game had won
And let his final sin be known
Killing those who stand in his path

Alone in the dark
Where the demons are torturing me
The dark passages of revenge is all that I see

Armies of witches
Are called in from the north
Murders of elders occur
The high priest of evil
Has lowered his iron fist
Thousands of people will die

The slaughter of the innocent
The house is burning
That lights the sky
My nightmare has begun to unfold
The hissing of the cobras tongue
Sound and feel of ripping flesh
Fall two thousand feet from the sky

My terror has controlled my life and
Let my only weakness known
I got to rid this hell from my head
I fight off evil sorcerers
Rid my mind of his torture and
Meet the falling angel in his realm

Faustus prepares the legions of the night
Diviners from the far north arrive
Aimlessly people there huddled in a pack
Wreaking deadly havoc on mankind

I fall in my deepest sleep
To meet the evil asteroth
His title is the grand duke of hell
I fight until the end is near
To rid my mind of hopes and fears
My destination lies in my dreams

SET ME FREE
comments
print report bad tab
5 comments total. Showing first comments.
0 reply
British_Steal wrote on May 9 2009, 04:01 pm

Its in Standard tuning. At least on the album version.

0 reply
RealUnrealRob wrote on August 29 2009, 11:30 pm

No, it is in D. It's pretty easy if you compare it to playing on standard tuning and D standard. Remember, not drop D. Sweet tab.

0 reply
Duybi wrote on September 27 2009, 06:37 am

I don't understand why everybody does not acknowledge this song and others to belong on The Legacy rather than First Strike Still Deadly

I want to post or [tab]
guest
You may want to rate the tab now too:
select rating
Please do not post tabs as comments. Select "correction" instead!