Oops, an error
Loading. Please wait.

Alone In The Dark Tab

ver4
ver4

Whole song

Interactive

More versions @911Tabs.com
1,189 views 3 this week
no commentswrite comment
1 2 3 4 5
please rate
add to favorites launch autoscroll
font size
0
reset
Autoscroll
+/-
esc
set tempo
stop
Contributor
WARNING: You are trying to view
                                    content from Ultimate-Guitar.com
                                    in an unauthorized application,
                                    which is prohibited.

                                    Please use an official Ultimate
                                    Guitar Tabs application for iPhone,
                                    iPad or Android to access legitimate
                                    chords, guitar, bass, and drum tabs
                                    from Ultimate-Guitar.com database.

                                    Type "ultimate guitar tabs" in Apple
                                    App Store's or Android Market's
                                    search to find the application.
#----------------------------------PLEASE NOTE---------------------------------#
#This file is the author's own work and represents their interpretation of the #
#song. You may only use this file for private study, scholarship, or research. #
#------------------------------------------------------------------------------#

ALONE IN THE DARK
As recorded by Testament
(From the 1987 Album THE LEGACY)

Transcribed by cbliss66@aol.com
        

Words by Souza Music by Skolnick and Peterson
Arranged by Testament

Gtr I (E A D G B E) - 'Alex Rhy Gtr'
Gtr II (E A D G B E) - 'Eric Rhy Gtr'
Gtr III (E A D G B E) - 'Alex Solo Gtr'

 Intro Solo
  Moderately Q=140
  A5
 4/4
  Gtr III
             |--3--|                        |--3--|
   Q   E  E  S  S  S  E  E  E    Q    E  E  S  S  S  E  E  E
|-----------------------------|------------------------------|
|-----------------------------|------------------------------|
|-14--16h17-16h17p16-14-13h14-|-14---16h17-16h17p16p14-13h14-|
|-----------------------------|------------------------------|
|-----------------------------|------------------------------|
|-----------------------------|------------------------------|
|
| Gtrs I, II
|  W                            +W
|-----------------------------|------------------------------|
|-----------------------------|------------------------------|
|-----------------------------|------------------------------|
|--2--------------------------|-(2)--------------------------|
|--0--------------------------|-(0)--------------------------|
|-----------------------------|------------------------------|


  F5
   ~~~~~              ~~~
   H.         E  E    H.       E  E
|------------------|-----------------|
|-15b17------15-13-|-12--------------|
|------------------|----------12-----|
|------------------|-------------14--|
|------------------|-----------------|
|------------------|-----------------|
|
|  W                 +W
|------------------|-----------------|
|------------------|-----------------|
|------------------|-----------------|
|------------------|-----------------|
|--3---------------|-(3)-------------|
|--1---------------|-(1)-------------|


     A5
 4/4
      ~~~~~~~~~~~                           PM-----------------------------
                   |--3--|               |--3--|     |-------5-------|
   a  H     +E     E  E  E  S   S    S   E  E  E  S  E  E  E  E      E  E
|----------------/17p12-----------|---------------------------------------|
|-----------------------13p12-----|---------------------------------------|
|-12s14----(14)\--------------/14-|---------------------------------------|
|---------------------------------|-14------------------------------------|
|---------------------------------|-----12----------15-14-12--------------|
|---------------------------------|--------15-13-12----------15-----13-12-|
|
|     W                             +H.                         +Q
|---------------------------------|---------------------------------------|
|---------------------------------|---------------------------------------|
|---------------------------------|---------------------------------------|
|-----2---------------------------|-(2)-------------------------(2)s======|
|-----0---------------------------|-(0)-------------------------(0)s======|
|---------------------------------|---------------------------------------|


  F5
 -------------------|                     ~~~~
   |--3--|  |--3--|  |--3--|  |--3--|
   E  E  E  E  E  E  E  E  E  E  E  E     W
|-------------------------------------|---------|
|-------------------------------------|---------|
|-------------------------------------|---------|
|-------------------10----------------|---------|
|----------10-12-14----14-12-10-------|---------|
|-10-12-13----------------------12-10-|--13-----|
|
|  W                                     +W
|-------------------------------------|---------|
|-------------------------------------|---------|
|-------------------------------------|---------|
|-10----------------------------------|-(10)----|
|--8----------------------------------|--(8)----|
|-------------------------------------|---------|


  A5
 4/4
   E      +Q    +Q     +E       +E   +E
|----------------------------------------|
|-20b22==(20)--(20)r--(20)b22==(20)r(20)-|
|----------------------------------------|
|----------------------------------------|
|----------------------------------------|
|----------------------------------------|
|
|  W
|----------------------------------------|
|----------------------------------------|
|----------------------------------------|
|--2-------------------------------------|
|--0-------------------------------------|
|----------------------------------------|


                                         F5
             ~~~~~~~~~                                                ~~~
   +E       +E   +E   Q   E     +E   E    H.         S      +S   E    W
|------------------------19b20r(19)-17-|---------------------------|--------|
|-(20)b22==(20)-(20)r------------------|---------------------------|--------|
|--------------------------------------|-19b20------19pb20r(19)-17h|=19-----|
|--------------------------------------|---------------------------|--------|
|--------------------------------------|---------------------------|--------|
|--------------------------------------|---------------------------|--------|
|
|  +W                                     W                          +W
|--------------------------------------|---------------------------|--------|
|--------------------------------------|---------------------------|--------|
|--------------------------------------|---------------------------|--------|
|--(2)---------------------------------|---------------------------|--------|
|--(0)---------------------------------|--3------------------------|-(3)----|
|--------------------------------------|--1------------------------|-(1)----|


  A5
 4/4
    ~~~~                 ~~~~
    H.       S  S  E     H      Q   Q
|--------------------|-----------------|
|-----------15p12----|-----------------|
|-/14-------------12-|-/14-----14--12--|
|--------------------|-----------------|
|--------------------|-----------------|
|--------------------|-----------------|
|
|   W                   +W
|--------------------|-----------------|
|--------------------|-----------------|
|--------------------|-----------------|
|---2----------------|--(2)------------|
|---0----------------|--(0)------------|
|--------------------|-----------------|


  F5                                      D5 E5 F5
   |--3--|  |--3--|   |--3--|   |--3--|
   E  E  E  E  E  E   E  E  E   E  E  E    E  E  Q.       +Q    +E
|----------12-13-15-/17p13----/19p15----|-17-19-19b20====(19)r=(19)-|
|----10-13-----------------15--------17-|---------------------------|
|-10------------------------------------|---------------------------|
|---------------------------------------|---------------------------|
|---------------------------------------|---------------------------|
|---------------------------------------|---------------------------|
|
|  W                                       E  E  H.
|---------------------------------------|---------------------------|
|---------------------------------------|---------------------------|
|---------------------------------------|---------------------------|
|---------------------------------------|--7--9-10------------------|
|--3------------------------------------|--5--7--8------------------|
|--1------------------------------------|---------------------------|


                Fast Rock Q=194
  F5                A5          Eb5  A5          Bb5  A5          Eb5
                    Gtr I
    ~~~~              PM|   PM|        PM|   PM|        PM|   PM|
    W               E E E E E E Q    E E E E E E Q    E E E E E E Q
|----------------||----------------|----------------|----------------|
|--18------------||----------------|----------------|----------------|
|----------------||-------------3--|----------------|-------------3--|
|----------------||-2-----2-----1--|-2-----2-----3--|-2-----2-----1--|
|----------------||-0-0-0-0-0-0----|-0-0-0-0-0-0-1--|-0-0-0-0-0-0----|
|----------------||----------------|----------------|----------------|
|
|                   Gtr II
|  +H.       Q      W                W                W
|----------------||----------------|----------------|----------------|
|----------------||----------------|----------------|----------------|
|----------------||----------------|----------------|----------------|
|-(10)-----------||----------------|----------------|----------------|
|--(8)------13\--||----------------|----------------|----------------|
|-----------13\--||----------------|----------------|----------------|


       A5  F5 C5   A5           Eb5   A5           Bb5   A5           Eb5
  PM-|               PM-|   PM|         PM-|   PM|         PM-|   PM|
  E  E Q   Q  Q    E E  E E E E Q     E E  E E E E Q     E E  E E E E Q
|----------------|------------------|------------------|------------------|
|----------------|------------------|------------------|------------------|
|----------------|--------------3---|------------------|--------------3---|
|------2------5--|-2------2-----1---|-2------2-----3---|-2------2-----1---|
|-0--0-0---3--3--|-0-0--0-0-0-0-----|-0-0--0-0-0-0-1---|-0-0--0-0-0-0-----|
|----------1-----|------------------|------------------|------------------|
|
| Q.     E Q  Q    E H.           E   E H.           E   E H.           E
|----------------|------------------|------------------|------------------|
|----------------|------------------|------------------|------------------|
|----------------|------------------|------------------|------------------|
|-------------5--|-2----------------|-2----------------|-2----------------|
|----------3--3--|-0----------------|-0----------------|-0----------------|
|----------1-----|------------------|------------------|------------------|


  A5      F5 C5     A              G    F
   E Q.   Q  Q        H        +E   Q    E
|---------------||-------------------------|
|---------------||o------------------------|
|--2------------||--/14-------(14)-12---10-|
|--2---------5--||-------------------------|
|--0------3--3--||o-/12-------(12)-10----8-|
|---------1-----||-------------------------|
|
|                       PM|     PM-|
|  E Q.   Q  Q        E E E E   E   E Q
|---------------||-------------------------|
|---------------||o------------------------|
|-14------------||--------------------3----|
|------------5--||----2-----2---------1----|
|-12------3--3--||o---0-0-0-0---0---0------|
|---------1-----||-------------------------|


  E           D   C   Bb        C Bb
  H       +E  Q   E   E Q   E E E Q
|-------------------|----------------|
|-------------------|----------------|
|-9-------(9)-7---5-|-3-3---3-3-5-3--|
|-------------------|----------------|
|-7-------(7)-5---3-|-1-1---1-1-3-1--|
|-------------------|----------------|
|
|   PM|    PM-|         PM|   PM|
| E E E E  E  E Q     E E E E E E Q
|-------------------|----------------|
|-------------------|----------------|
|-------------------|-------------3--|
|-2-----2-------3---|-2-----2-----1--|
|-0-0-0-0--0--0-1---|-0-0-0-0-0-0----|
|-------------------|----------------|


  A      F5 C5         A5          Eb5  A5          Bb5  A5          Eb5
                         PM|   PM|        PM|   PM|        PM|   PM|
  H      Q  Q          E E E E E E Q    E E E E E E Q    E E E E E E Q
|---------------||-||-----------------|----------------|-----------------|
|--------------o||-||o----------------|----------------|-----------------|
|-2-------------||-||--------------3--|----------------|-------------3---|
|-----------5---||-||--2-----2-----1--|-2-----2-----3--|-2-----2-----1---|
|-0------3--3--o||-||o-0-0-0-0-0-0----|-0-0-0-0-0-0-1--|-0-0-0-0-0-0-----|
|--------1------||-||-----------------|----------------|-----------------|
|
| PM|                    PM|   PM|        PM|   PM|        PM|   PM|
| E E Q  Q  Q          E E E E E E Q    E E E E E E Q    E E E E E E Q
|---------------||-||-----------------|----------------|-----------------|
|--------------o||-||o----------------|----------------|-----------------|
|---------------||-||--------------3--|----------------|-------------3---|
|-----2-----5---||-||--2-----2-----1--|-2-----2-----3--|-2-----2-----1---|
|-0-0-0--3--3--o||-||o-0-0-0-0-0-0----|-0-0-0-0-0-0-1--|-0-0-0-0-0-0-----|
|--------1------||-||-----------------|----------------|-----------------|


                                  1st and Last Verse
  1.              2.
                                $
      A5 F5 C5     A5     F5 C5    A5          Eb5  A5          Bb5
  PM|                                PM|   PM|        PM|   PM|
  E E Q  Q  Q      E Q.   Q  Q     E E E E E E Q    E E E E E E Q
|---------------||--------------||----------------|----------------|
|--------------o||--------------||----------------|----------------|
|---------------||--------------||-------------3--|----------------|
|-----2-----5---||-2---------5--||-2-----2-----1--|-2-----2-----3--|
|-0-0-0--3--3--o||-0------3--3--||-0-0-0-0-0-0----|-0-0-0-0-0-0-1--|
|--------1------||--------1-----||----------------|----------------|
|
| PM|                                PM|   PM|        PM|   PM|
| E E Q  Q  Q      E Q.   Q  Q     E E E E E E Q    E E E E E E Q
|---------------||--------------||----------------|----------------|
|--------------o||--------------||----------------|----------------|
|---------------||--------------||-------------3--|----------------|
|-----2-----5---||-2---------5--||-2-----2-----1--|-2-----2-----3--|
|-0-0-0--3--3--o||-0------3--3--||-0-0-0-0-0-0----|-0-0-0-0-0-0-1--|
|--------1------||--------1-----||----------------|----------------|


  A5          Eb5      A5 F5 C5   A5          Eb5  A5          Bb5
    PM|   PM|      PM|              PM|   PM|        PM|   PM|
  E E E E E E Q    E E Q  Q  Q    E E E E E E Q    E E E E E E Q
|----------------|--------------|----------------|----------------|
|----------------|--------------|----------------|----------------|
|-------------3--|--------------|-------------3--|----------------|
|-2-----2-----1--|-----2-----5--|-2-----2-----1--|-2-----2-----3--|
|-0-0-0-0-0-0----|-0-0-0--3--3--|-0-0-0-0-0-0----|-0-0-0-0-0-0-1--|
|----------------|--------1-----|----------------|----------------|
|
|   PM|   PM|      PM|              PM|   PM|        PM|   PM|
| E E E E E E Q    E E Q  Q  Q    E E E E E E Q    E E E E E E Q
|----------------|--------------|----------------|----------------|
|----------------|--------------|----------------|----------------|
|-------------3--|--------------|-------------3--|----------------|
|-2-----2-----1--|-----2-----5--|-2-----2-----1--|-2-----2-----3--|
|-0-0-0-0-0-0----|-0-0-0--3--3--|-0-0-0-0-0-0----|-0-0-0-0-0-0-1--|
|----------------|--------1-----|----------------|----------------|


                                  Chorus
  A5          Eb5      A5 F5 C5    A              G    F    E           D   C
    PM|   PM|      PM|
  E E E E E E Q    E E Q  Q  Q       H        +E   Q    E   H       +E  Q   E
|----------------|--------------||------------------------|-------------------|
|----------------|--------------||------------------------|-------------------|
|-------------3--|--------------||-/14-------(14)-12---10-|-9-------(9)-7---5-|
|-2-----2-----1--|-----2-----5--||------------------------|-------------------|
|-0-0-0-0-0-0----|-0-0-0--3--3--||-/12-------(12)-10----8-|-7-------(7)-5---3-|
|----------------|--------1-----||------------------------|-------------------|
|
|   PM|   PM|      PM|                 PM|     PM-|           PM|    PM-|
| E E E E E E Q    E E Q  Q  Q       E E E E   E   E Q      E E E E  E  E Q
|----------------|--------------||------------------------|-------------------|
|----------------|--------------||------------------------|-------------------|
|-------------3--|--------------||-------------------3----|-------------------|
|-2-----2-----1--|-----2-----5--||---2-----2---------1----|-2-----2-------3---|
|-0-0-0-0-0-0----|-0-0-0--3--3--||---0-0-0-0---0---0------|-0-0-0-0--0--0-1---|
|----------------|--------1-----||------------------------|-------------------|


  Bb        C Bb   A      F5 C5   A              G    F    E           D   C
  E Q   E E E Q    H      Q  Q      H        +E   Q    E   H       +E  Q   E
|----------------|--------------|------------------------|-------------------|
|----------------|--------------|------------------------|-------------------|
|-3-3---3-3-5-3--|-2------------|-/14-------(14)-12---10-|-9-------(9)-7---5-|
|----------------|-----------5--|------------------------|-------------------|
|-1-1---1-1-3-1--|-0------3--3--|-/12-------(12)-10----8-|-7-------(7)-5---3-|
|----------------|--------1-----|------------------------|-------------------|
|
|   PM|   PM|      PM|                PM|     PM-|           PM|    PM-|
| E E E E E E Q    E E Q  Q  Q      E E E E   E   E Q      E E E E  E  E Q
|----------------|--------------|------------------------|-------------------|
|----------------|--------------|------------------------|-------------------|
|-------------3--|--------------|-------------------3----|-------------------|
|-2-----2-----1--|-----2-----5--|---2-----2---------1----|-2-----2-------3---|
|-0-0-0-0-0-0----|-0-0-0--3--3--|---0-0-0-0---0---0------|-0-0-0-0--0--0-1---|
|----------------|--------1-----|------------------------|-------------------|


  Bb        C      A      Bb5C5   D5         F5/C C5
  E Q   E E E Q    H      Q  Q    W          H    H
|----------------|--------------|----------|-----------||
|----------------|--------------|----------|-----------||
|-3-3---3-3-5-3--|-2------------|----------|-5---------||
|----------------|--------3--5--|-7--------|-3----5----||
|-1-1---1-1-3-1--|-0------1--3--|-5--------|-3----3----||
|----------------|--------------|----------|-----------||
|
|   PM|   PM|      PM|
| E E E E E E Q    E E Q  Q  Q    W          H    H
|----------------|--------------|----------|-----------||
|----------------|--------------|----------|-----------||
|-------------3--|--------------|----------|-5---------||
|-2-----2-----1--|-----2--3--5--|-7--------|-3----5----||
|-0-0-0-0-0-0----|-0-0-0--1--3--|-5--------|------3----||
|----------------|--------------|----------|-----------||


 Breakdown
  F#5     G5F#5             B5  C5   F#5     G5
  PM----|     PM----------|          PM----|     PM|                  ~~
  E E E E E E E E   E E E E E E Q    E E E E E E E E   E E E  E E  E  Q
|-----------------|----------------|-----------------|-------------------|
|-----------------|----------------|-----------------|----------------7--|
|-----------------|----------------|-----------------|----------5--8-----|
|---------5s4-----|---------4---5--|---------5s4-----|-----4--7----------|
|-4-------5s4-----|---------2-0-3--|-4-------5s4-----|-3-6---------------|
|-2-2-2-2-3s2-2-2-|-2-2-2-2--------|-2-2-2-2-3s2-2-2-|-------------------|
|
| PM----|     PM----------|          PM----|     PM|                  ~~
| E E E E E E E E   E E E E E E Q    E E E E E E E E   E E E  E E  E  Q
|-----------------|----------------|-----------------|-------------------|
|-----------------|----------------|-----------------|---------------10--|
|-----------------|----------------|-----------------|----------8-11-----|
|---------5s4-----|---------4---5--|---------5s4-----|-----7-10----------|
|-4-------5s4-----|---------2-0-3--|-4-------5s4-----|-6-9---------------|
|-2-2-2-2-3s2-2-2-|-2-2-2-2--------|-2-2-2-2-3s2-2-2-|-------------------|


                                                                 To Coda
  F#5     G5F#5             B5  C5   F#5     G5F#5
  PM----|     PM----------|          PM----|     PM|                  ~~
  E E E E E E E E   E E E E E E Q    E E E E E E E E   E E E  E E  E  Q
|-----------------|----------------|-----------------|-------------------||
|-----------------|----------------|-----------------|----------------7--||
|-----------------|----------------|-----------------|----------5--8-----||
|---------5s4-----|---------4---5--|---------5s4-----|-----4--7----------||
|-4-------5s4-----|---------2-0-3--|-4-------5s4-----|-3-6---------------||
|-2-2-2-2-3s2-2-2-|-2-2-2-2--------|-2-2-2-2-3s2-2-2-|-------------------||
|
| PM----|     PM----------|          PM----|     PM|                  ~~
| E E E E E E E E   E E E E E E Q    E E E E E E E E   E E E  E E  E  Q
|-----------------|----------------|-----------------|-------------------||
|-----------------|----------------|-----------------|---------------10--||
|-----------------|----------------|-----------------|----------8-11-----||
|---------5s4-----|---------4---5--|---------5s4-----|-----7-10----------||
|-4-------5s4-----|---------2-0-3--|-4-------5s4-----|-6-9---------------||
|-2-2-2-2-3s2-2-2-|-2-2-2-2--------|-2-2-2-2-3s2-2-2-|-------------------||


   2nd Verse
    A5          Eb5  A5          Bb5  A5          Eb5      A5 F5 C5
    Gtrs I, II
      PM|   PM|        PM|   PM|        PM|   PM|      PM|
    E E E E E E Q    E E E E E E Q    E E E E E E Q    E E Q  Q  Q    4x
||-----------------|----------------|----------------|----------------||
||o----------------|----------------|----------------|---------------o||
||--------------3--|----------------|-------------3--|----------------||
||--2-----2-----1--|-2-----2-----3--|-2-----2-----1--|-----2-----5----||
||o-0-0-0-0-0-0----|-0-0-0-0-0-0-1--|-0-0-0-0-0-0----|-0-0-0--3--3---o||
||-----------------|----------------|----------------|--------1-------||


   Chorus II
    A              G    F    E           D   C
    Gtr I
      H        +E   Q    E   H       +E  Q   E
||-------------------------|-------------------|
||o------------------------|-------------------|
||--/14-------(14)-12---10-|-9-------(9)-7---5-|
||-------------------------|-------------------|
||o-/12-------(12)-10----8-|-7-------(7)-5---3-|
||-------------------------|-------------------|
|
|   Gtr II
|       PM|     PM-|           PM|    PM-|
|     E E E E   E   E Q      E E E E  E  E Q
||-------------------------|-------------------|
||o------------------------|-------------------|
||--------------------3----|-------------------|
||----2-----2---------1----|-2-----2-------3---|
||o---0-0-0-0---0---0------|-0-0-0-0--0--0-1---|
||-------------------------|-------------------|


                  1.
  Bb        C Bb   A      F5 C5
  E Q   E E E Q    H      Q  Q
|----------------|----------------||
|----------------|---------------o||
|-3-3---3-3-5-3--|-2--------------||
|----------------|-----------5----||
|-1-1---1-1-3-1--|-0------3--3---o||
|----------------|--------1-------||
|
|   PM|   PM|      PM|
| E E E E E E Q    E E Q  Q  Q
|----------------|----------------||
|----------------|---------------o||
|-------------3--|----------------||
|-2-----2-----1--|-----2-----5----||
|-0-0-0-0-0-0----|-0-0-0--3--3---o||
|----------------|--------1-------||


                                         Breakdown II
  2.
  A      Bb5C5   D5         F5/C C5       F#5     G5F#5
                                          PM----|     PM|
  H      Q  Q    W          H    H        E E E E E E E E
|--------------|----------|-----------||------------------|
|--------------|----------|-----------||o-----------------|
|-2------------|----------|-5---------||------------------|
|--------3--5--|-7--------|-3----5----||----------5s4-----|
|-0------1--3--|-5--------|-3----3----||o-4-------5s4-----|
|--------------|----------|-----------||--2-2-2-2-3s2-2-2-|
|
| PM|                                     PM----|     PM|
| E E Q  Q  Q    W          H    H        E E E E E E E E
|--------------|----------|-----------||------------------|
|--------------|----------|-----------||o-----------------|
|--------------|----------|-5---------||------------------|
|-----2--3--5--|-7--------|-3----5----||----------5s4-----|
|-0-0-0--1--3--|-5--------|------3----||o-4-------5s4-----|
|--------------|----------|-----------||--2-2-2-2-3s2-2-2-|


                                                              3rd Verse
          B5  C5   F#5     G5F#5                               A5          Eb5
  PM----|          PM----|     PM|                  ~~           PM|   PM|
  E E E E E E Q    E E E E E E E E   E E E  E E  E  Q          E E E E E E Q
|----------------|-----------------|--------------------||-||------------------|
|----------------|-----------------|----------------7--o||-||o-----------------|
|----------------|-----------------|----------5--8------||-||--------------3---|
|---------4---5--|---------5s4-----|-----4--7-----------||-||--2-----2-----1---|
|---------2-0-3--|-4-------5s4-----|-3-6---------------o||-||o-0-0-0-0-0-0-----|
|-2-2-2-2--------|-2-2-2-2-3s2-2-2-|--------------------||-||------------------|
|
| PM----|          PM----|     PM|                  ~~           PM|   PM|
| E E E E E E Q    E E E E E E E E   E E E  E E  E  Q          E E E E E E Q
|----------------|-----------------|--------------------||-||------------------|
|----------------|-----------------|---------------10--o||-||o-----------------|
|----------------|-----------------|----------8-11------||-||--------------3---|
|---------4---5--|---------5s4-----|-----7-10-----------||-||--2-----2-----1---|
|---------2-0-3--|-4-------5s4-----|-6-9---------------o||-||o-0-0-0-0-0-0-----|
|-2-2-2-2--------|-2-2-2-2-3s2-2-2-|--------------------||-||------------------|


                                   1.               2.
  A5          Bb5  A5          Eb5      A5 F5 C5     A5     F5 C5
    PM|   PM|        PM|   PM|      PM|
  E E E E E E Q    E E E E E E Q    E E Q  Q  Q      E Q.   Q  Q
|----------------|----------------|---------------||--------------||
|----------------|----------------|--------------o||--------------||
|----------------|-------------3--|---------------||--------------||
|-2-----2-----3--|-2-----2-----1--|-----2-----5---||-2---------5--||
|-0-0-0-0-0-0-1--|-0-0-0-0-0-0----|-0-0-0--3--3--o||-0------3--3--||
|----------------|----------------|--------1------||--------1-----||
|
|   PM|   PM|        PM|   PM|      PM|
| E E E E E E Q    E E E E E E Q    E E Q  Q  Q      E Q.   Q  Q
|----------------|----------------|---------------||--------------||
|----------------|----------------|--------------o||--------------||
|----------------|-------------3--|---------------||--------------||
|-2-----2-----3--|-2-----2-----1--|-----2-----5---||-2---------5--||
|-0-0-0-0-0-0-1--|-0-0-0-0-0-0----|-0-0-0--3--3--o||-0------3--3--||
|----------------|----------------|--------1------||--------1-----||


 Interlude
  A5                                F5
  Gtr III
         ~~~~~~~~~~~
   H     H      +H     E. E +S  E    H    H        H     H
|-12\---------|-------------------|------------|--------------|
|-------------|--------6----------|------------|--------------|
|--------9----|-(9)-------9-(9)s7-|--4---------|--------------|
|-------------|-------------------|-------5----|--\2-----3----|
|-------------|-------------------|------------|--------------|
|-------------|-------------------|------------|--------------|
|
| Gtrs I, II
|  W            +W                   W            +W
|-------------|-------------------|------------|--------------|
|-------------|-------------------|------------|--------------|
|-------------|-------------------|------------|--------------|
|--2----------|-(2)---------------|-10---------|-(10)---------|
|--0----------|-(0)---------------|--8---------|--(8)---------|
|-------------|-------------------|------------|--------------|


  A5                        F5
  H    H       H     H       H     H        H     H
|-----------|-------------|-------------|---------8----||
|-----------|--------5----|--3----/8----|---5----------||
|------5----|--2----------|-------------|--------------||
|-2---------|-------------|-------------|--------------||
|-----------|-------------|-------------|--------------||
|-----------|-------------|-------------|--------------||
|
| W           +W             W             +W
|-----------|-------------|-------------|--------------||
|-----------|-------------|-------------|--------------||
|-----------|-------------|-------------|--------------||
|-2---------|-(2)---------|-10----------|-(10)---------||
|-0---------|-(0)---------|--8----------|--(8)---------||
|-----------|-------------|-------------|--------------||


                                     Gtr I
                                       PM--------------------------|
  W                 +H.           Q    E E E E E E E E   E E E E E E Q
|-5---------------|-(5)--------------|-----------------|----------------|
|-----------------|------------------|-----------------|----------------|
|-----------------|------------------|-----------------|----------------|
|-----------------|------------------|-----------------|-------------2--|
|-----------------|------------------|-0-7-5-3-0-5-3-2-|-0-2-3-0-5-3----|
|-----------------|------------------|-----------------|----------------|
|
|                                    Gtr II
| PM----------------------------|      PM--------------------------|
| E E E E E E E E    E  E E E E E Q    E E E E E E E E   E E E E E E Q
|-----------------|------------------|-----------------|----------------|
|-----------------|------------------|-----------------|----------------|
|-----------------|------------------|-----------------|----------------|
|-----------------|---------------2--|-----------------|-------------2--|
|-0-7-5-3-0-5-3-2-|--0--2-3-0-5-3----|---3-2-0---3-2-0-|---2-3---5-3----|
|-----------------|------------------|-1-------1-------|-1-----1--------|


  PM--------------------------|
  E E E E E E E E   E E E E E E Q
|-----------------|----------------|
|-----------------|----------------|
|-----------------|----------------|
|-----------------|-------------2--|
|-0-7-5-3-0-5-3-2-|-0-2-3-0-5-3----|
|-----------------|----------------|
|
| PM--------------------------|
| E E E E E E E E   E E E E E E Q
|-----------------|----------------|
|-----------------|----------------|
|-----------------|----------------|
|-----------------|-------------2--|
|-0-7-5-3-0-5-3-2-|-0-2-3-0-5-3----|
|-----------------|----------------|


  F5
      PM|      PM|      PM      PM|      PM|      PM
   E  E  E  E  E  E  E  E    E  E  E  E  E  E  E  E
|-------------------------|-------------------------||
|-------------------------|-------------------------||
|-10-------10-------10----|-10-------10-------10----||
|-10-10-10-10-10-10-10-10-|-10-10-10-10-10-10-10-10-||
|--8--8--8--8--8--8--8--8-|--8--8--8--8--8--8--8--8-||
|-------------------------|-------------------------||
|
|  PM--------------------------------------|
|  E  E  E  E  E  E  E  E    E  E  E  E  E  E  Q
|-------------------------|-------------------------||
|-------------------------|-------------------------||
|-------------------------|-------------------------||
|-------------------------|--------------------2----||
|-----3--2--0-----3--2--0-|-----2--3-----5--3-------||
|--1-----------1----------|--1--------1-------------||


 Guitar Solo
  A5                          F5
  Gtr III
                                                      ~
   S  S  S  S  H.              S  S  S  S  S  S  S  S H
|-12h13p12p10h12------------|-13p12p10-------------------------|
|---------------------------|----------13p12p10----------------|
|---------------------------|-------------------12p10-9--------|
|---------------------------|----------------------------------|
|---------------------------|----------------------------------|
|---------------------------|----------------------------------|
|
|        PM---|     PM|              PM---|           PM|    PM
|  E     E     E  E E E E E    E     E     E     E    E E  E E
|---------------------------|----------------------------------|
|---------------------------|----------------------------------|
|---------------------------|----------------------------------|
|--2--------------2-----2---|-10----------------10--------10---|
|--0-----0-----0--0-0-0-0-0-|--8-----8-----8-----8----8-8--8-8-|
|---------------------------|----------------------------------|


  D5/A
   S  S S  S S  S  S  S S  S S  S  S  S  S S
|----------------------------------------------|
|-12p10p8-10p8---------------------------------|
|--------------10-12p10p9-10p9-----------------|
|------------------------------12-10h12p10s9h==|
|----------------------------------------------|
|----------------------------------------------|
|
|       PM---|          PM---|           PM
|  E    E    E     E    E    E     E     E
|----------------------------------------------|
|----------------------------------------------|
|----------------------------------------------|
|--7---------------7---------------7-----------|
|--5---------------5---------------5-----------|
|--5----5----5-----5----5----5-----5-----5-----|


             A5      F5 E5
                   ~~~~~~~~~~~~
   S S  S  S S  S  H       +E
|------------------------------|
|------------------------------|
|------------------------------|
|-10p9-------9-----------------|
|------12-10---10-12------(12)-|
|------------------------------|
|
|  PM--|
|  E    E    Q       Q  Q
|------------------------------|
|------------------------------|
|------------------------------|
|------------2-----------------|
|--0----0----0-------3--2------|
|--------------------1--0------|


  A5                      F5
                                             ~~
   E E  E  E E  E  E  E    S  S  S  S  E  E  H
|-----------------------|------------------------------|
|--------------------10-|-13-12h13p12----12------------|
|------------9-10-12----|-------------14----14---------|
|----9-10-12------------|------------------------------|
|-12--------------------|------------------------------|
|-----------------------|------------------------------|
|
|    PM|     PM|                 PM---|      PM|    PM
|  E E  E  E E  E  E  E    E     E     E  E  E E  E E
|-----------------------|------------------------------|
|-----------------------|------------------------------|
|-----------------------|------------------------------|
|--2-------2-------2----|-10-------------10------10----|
|--0-0--0--0-0--0--0--0-|--8-----8-----8--8--8-8--8-8--|
|-----------------------|------------------------------|


  D5/A
   S  S S  S S  S S  S  S  S  S S  S S S  S
|-12p10p8h10p8----8-------------------------|
|--------------12---12p10-12p10p8-----------|
|---------------------------------10p9p7----|
|----------------------------------------10-|
|-------------------------------------------|
|-------------------------------------------|
|
|       PM---|          PM---|         PM----
|  E    E    E    E     E     E    E   E
|-------------------------------------------|
|-------------------------------------------|
|-------------------------------------------|
|--7--------------7----------------7--------|
|--5--------------5----------------5--------|
|--5----5----5----5-----5-----5----5---5----|


           A5       F5   E5           A5
                                                 ~~~~~~~~~~~~
  S S  S S S  S S S E  E E S    +S    E    +E  E H       +E
|---------------------12------------|------------------------|
|-----------------------------------|------------------------|
|-9p7------7--------9----9-9b11r(9)-|-9b10r(9)-7-9-------(9)-|
|-----10p9---10p9p7-----------------|------------------------|
|-----------------------------------|------------------------|
|-----------------------------------|------------------------|
|
|-----|                                     PM-|   PM|
| E    E   Q        Q    Q            E     E  E E E E E  E
|-----------------------------------|------------------------|
|-----------------------------------|------------------------|
|-----------------------------------|------------------------|
|----------2------------------------|-2----------2-----2-----|
|-0----0---0--------3----2----------|-0-----0--0-0-0-0-0--0--|
|-------------------1----0----------|------------------------|


  F5                             D5/A
                 ~~~~~~~~~
   S  S S S S S  Q    +Q.         S  S  S  S  S  S  S  S  S  S  S  S  S  S  S  S
|------------------------------|-------------------------------------------------|
|------------------------------|----------------------------13p12p10----15p14p12-|
|--9h10p9p7-9p7----------------|-------------------12h14h15----------14----------|
|---------------10---(10)------|----------12h14h15-------------------------------|
|------------------------------|-12h14h15----------------------------------------|
|------------------------------|-------------------------------------------------|
|
|       PM--|      PM|       PM         PM---|            PM---|            PM----
|  E    E   E    E E   E   E E    E     E     E     E     E     E     E     E
|------------------------------|-------------------------------------------------|
|------------------------------|-------------------------------------------------|
|------------------------------|-------------------------------------------------|
|-10------------10--------10---|--7-----------------7-----------------7----------|
|--8----8---8----8-8---8---8-8-|--5-----------------5-----------------5----------|
|------------------------------|--5-----5-----5-----5-----5-----5-----5-----5----|


                 A5       F5    E5
                            ~~~~
   |--3--|
   S  S  S  S  S  S  S  E  +H
|-12-------------------------------|
|----12----------------------------|
|-------12-------------------------|
|----------14----------------------|
|-------------14----14-------------|
|----------------15----12-(12)-----|
|
|----------|
|  E        E     Q         Q   Q
|----------------------------------|
|----------------------------------|
|----------------------------------|
|-----------------2----------------|
|--0--------0-----0---------3---2--|
|---------------------------1---0--|


  A5                              F5
                   ~~~~~~~~~~~~~               ~~
   E      +E    E  H        +E     E  E  E  E  H
|--------------15---------------|-----------------------|
|-15b17==(15)r----15-------(15)-|-13S12----12-----------|
|-------------------------------|-------14----12--------|
|-------------------------------|-----------------------|
|-------------------------------|-----------------------|
|-------------------------------|-----------------------|
|
|          PM--|     PM|              PM|      PM|    PM
|  E       E    E  E E E E   E     E  E  E  E  E E  E E
|-------------------------------|-----------------------|
|-------------------------------|-----------------------|
|-------------------------------|-----------------------|
|--2---------------2-----2------|-10-------10------10---|
|--0-------0----0--0-0-0-0---0--|--8--8--8--8--8-8--8-8-|
|-------------------------------|-----------------------|


  D5/A                                                          A5 F5     E5
                                                             ~~~~~~~~~~~~~~~~~~~~~
   S  S  S  S  S  S  S  S  S  S  S  S  S  S  S  S    E      +H        +Q     +S   S
|-12-12-13-13-13-15-15-15-17-17-17-19-19-19-20-20-|---------------------------------|
|-------------------------------------------------|-20b22==(20)------(20)---(20)r---|
|-------------------------------------------------|---------------------------------|
|-------------------------------------------------|---------------------------------|
|-------------------------------------------------|---------------------------------|
|-------------------------------------------------|---------------------------------|
|
|        PM---|            PM---|            PM------------|
|  E     E     E     E     E     E     E     E       E       E  Q  Q      Q
|-------------------------------------------------|---------------------------------|
|-------------------------------------------------|---------------------------------|
|-------------------------------------------------|---------------------------------|
|--7-----------------7-----------------7----------|-------------2-------------------|
|--5-----------------5-----------------5----------|--0-------0--0--3------2---------|
|--5-----5-----5-----5-----5-----5-----5-----5----|----------------1------0---------|


  F5             G5    A5
                             ~~~~~~~~~~~~~
   Q       +Q     Q.    E    H.       +E   E
|-15b17===(15)r--15----13-|-12-------(12)-12-|
|-------------------------|------------------|
|-------------------------|------------------|
|-------------------------|------------------|
|-------------------------|------------------|
|-------------------------|------------------|
|
|  H              Q.    E    W
|-------------------------|------------------|
|-------------------------|------------------|
|-------------------------|------------------|
|-------------------------|------------------|
|--3--------------5-----7-|--7---------------|
|--1--------------3-----5-|--5---------------|


  F5    G5    A5
                           |--3--|
   H     Q.    E    Q.     S  S  S  E  E  E  E
|-13-------------|--------------12-17-12--------|
|-------15----13-|-----------13----------13-----|
|----------------|-14-----14----------------14--|
|----------------|------------------------------|
|----------------|------------------------------|
|----------------|------------------------------|
|
|  H     Q.    E    W
|----------------|------------------------------|
|----------------|------------------------------|
|----------------|------------------------------|
|----------------|------------------------------|
|--3-----5-----7-|--7---------------------------|
|--1-----3-----5-|--5---------------------------|


  F5              G5             A5
   PM------------------------------|          PM-|        PM      PM------
   E.  E  +S   E.     E  +S   E.    S    +S   E.  E  +S   E.  E  +S   E.
|-------------------------------------|----------------------------------|
|-------------------------------------|----------------------------------|
|-------------------------------------|----------------------------------|
|-15--12-(12)-14-------------12-------|----------------------------------|
|--------------------15-(15)-------14-|-(14)-15--12-(12)-14--10-(10)-12--|
|-------------------------------------|----------------------------------|
|
|  H              Q.             E        W
|-------------------------------------|----------------------------------|
|-------------------------------------|----------------------------------|
|-------------------------------------|----------------------------------|
|-------------------------------------|----------------------------------|
|--3--------------5--------------7----|---7------------------------------|
|--1--------------3--------------5----|---5------------------------------|


  F5             G5          E5
                                                2/4
 -|                                   ~~~~~~~~~~~~~~~~
   E  +S   E.  E  +S   E.  E  E  a    W           +H
|-------------------------------10s|=12--------|-(12)----||
|----------------------------------|-----------|---------||
|-------------------------12-14----|-----------|---------||
|---------12--14-(14)-15-----------|-----------|---------||
|-14-(14)--------------------------|-----------|---------||
|----------------------------------|-----------|---------||
|
|  H               Q.         E       W           +H
|----------------------------------|-----------|---------||
|----------------------------------|-----------|---------||
|----------------------------------|-----------|---------||
|----------------------------------|--2--------|--(2)----||
|--3---------------5----------2----|--2--------|--(2)----||
|--1---------------3----------0----|--0--------|--(0)----||


  A5             Eb5  A5             Bb5  A5             Eb5       A5  F5 C5
 4/4
                                                              Gtr I
    ~~~~~~~~~~~~~~~~~~~~~~~~~~~~~~~~~~~~~~~~~~~
   +W                  +W                  +W                 Q.     E Q  Q
|-(12)--------------|-(12)--------------|-(12)--------------|-----------------|
|-------------------|-------------------|-------------------|-----------------|
|-------------------|-------------------|-------------------|-----------------|
|-------------------|-------------------|-------------------|-------------5---|
|-------------------|-------------------|-------------------|----------3--3---|
|-------------------|-------------------|-------------------|----------1------|
|
|                                                             Gtr II
|      PM|   PM|           PM|   PM|           PM|   PM|      PM-|
|   E  E E E E E Q      E  E E E E E Q      E  E E E E E Q    E  E Q   Q  Q
|-------------------|-------------------|-------------------|-----------------|
|-------------------|-------------------|-------------------|-----------------|
|----------------3--|-------------------|----------------3--|-----------------|
|---2------2-----1--|---2------2-----3--|---2------2-----1--|------2------5---|
|---0--0-0-0-0-0----|---0--0-0-0-0-0-1--|---0--0-0-0-0-0----|-0--0-0---3--3---|
|-------------------|-------------------|-------------------|----------1------|


                                                           D.S. al Coda
  A5           Eb5   A5           Bb5   A5           Eb5   A5     F5 C5
  E H.           E   E H.           E   E H.           E   E Q.   Q  Q
|------------------|------------------|------------------|--------------||
|------------------|------------------|------------------|--------------||
|------------------|------------------|------------------|--------------||
|-2----------------|-2----------------|-2----------------|-2---------5--||
|-0----------------|-0----------------|-0----------------|-0------3--3--||
|------------------|------------------|------------------|--------1-----||
|
|   PM-|   PM|         PM-|   PM|         PM-|   PM|
| E E  E E E E Q     E E  E E E E Q     E E  E E E E Q     E Q.   Q  Q
|------------------|------------------|------------------|--------------||
|------------------|------------------|------------------|--------------||
|--------------3---|------------------|--------------3---|--------------||
|-2------2-----1---|-2------2-----3---|-2------2-----1---|-2---------5--||
|-0-0--0-0-0-0-----|-0-0--0-0-0-0-1---|-0-0--0-0-0-0-----|-0------3--3--||
|------------------|------------------|------------------|--------1-----||


 Outro
  &
  A5          Eb5  A5          Bb5  A5          Eb5      A5 F5 C5
  Gtrs I, II
    PM|   PM|        PM|   PM|        PM|   PM|      PM|
  E E E E E E Q    E E E E E E Q    E E E E E E Q    E E Q  Q  Q
|----------------|----------------|----------------|--------------|
|----------------|----------------|----------------|--------------|
|-------------3--|----------------|-------------3--|--------------|
|-2-----2-----1--|-2-----2-----3--|-2-----2-----1--|-----2-----5--|
|-0-0-0-0-0-0----|-0-0-0-0-0-0-1--|-0-0-0-0-0-0----|-0-0-0--3--3--|
|----------------|----------------|----------------|--------1-----|


  A5          Eb5  A5          Bb5  A5          Eb5  A5
    PM|   PM|        PM|   PM|        PM|   PM|
  E E E E E E Q    E E E E E E Q    E E E E E E Q    E H.      E
|----------------|----------------|----------------|-------------*|
|----------------|----------------|----------------|-------------*|
|-------------3--|----------------|-------------3--|-------------*|
|-2-----2-----1--|-2-----2-----3--|-2-----2-----1--|-2-----------*|
|-0-0-0-0-0-0----|-0-0-0-0-0-0-1--|-0-0-0-0-0-0----|-0-----------*|
|----------------|----------------|----------------|-------------*|



Duration Legend
---------------
W - whole; H - half; Q - quarter; E - 8th; S - 16th; T - 32nd; X - 64th; a - acciaccatura
+ - note tied to previous; . - note dotted; .. - note double dotted
Uncapitalized letters represent notes that are staccato (1/2 duration)
Irregular groupings are notated above the duration line
Duration letters will always appear directly above the note/fret number it represents the
duration for.  Duration letters with no fret number below them represent rests.  Multi-
bar rests are notated in the form Wxn, where n is the number of bars to rest for.  Low
melody durations appear below the staff

Tablature Legend
----------------
 h   - hammer-on
 p   - pull-off
 b   - bend
 pb  - pre-bend
 r   - bend release (if no number after the r, then release immediately)
 /\  - slide into or out of (from/to "nowhere")
 s   - legato slide
 S   - shift slide
<n> - natural harmonic
[n]  - artificial harmonic
n(n) - tapped harmonic
 ~   - vibrato
 tr  - trill
 T   - tap
 TP  - trem. picking
 PM  - palm muting
\n/  - tremolo bar dip; n = amount to dip
 \n  - tremolo bar down
 n/  - tremolo bar up
/n\  - tremolo bar inverted dip
 =   - hold bend; also acts as connecting device for hammers/pulls
 <> - volume swell (louder/softer)
 x   - on rhythm slash represents muted slash
 o   - on rhythm slash represents single note slash

Misc Legend
-----------
 |  - bar
||  - double bar
||o - repeat start
o|| - repeat end
*|  - double bar (ending)
 :  - bar (freetime)
 $  - Segno
 &  - Coda
Tempo markers - <E/E./Q/Q./H/H.> = BPM(8/16=s8/s16), where s8 = swing 8ths, s16 = swing 16ths

comments
We did not receive enough feedback on this tab! Please rate:
print report bad tab
1 2 3 4 5
I want to post or [tab]
guest
You may want to rate the tab now too:
select rating
Please do not post tabs as comments. Select "correction" instead!