Oops, an error
Loading. Please wait.

As Seasons Gray Tab

599 views 1 this week
no commentswrite comment
1 2 3 4 5
please rate
Autoscroll
+/-
esc
set tempo
stop
Hey! There's an official Ultimate Guitar app which is ideal
for learning songs when you're away from computer. Get the app
WARNING: You are trying to view
                                    content from Ultimate-Guitar.com
                                    in an unauthorized application,
                                    which is prohibited.

                                    Please use an official Ultimate
                                    Guitar Tabs application for iPhone,
                                    iPad or Android to access legitimate
                                    chords, guitar, bass, and drum tabs
                                    from Ultimate-Guitar.com database.

                                    Type "ultimate guitar tabs" in Apple
                                    App Store's or Android Market's
                                    search to find the application.
Artist:TestAmenT
Title:As the Seasons Grey
Album:The Ritual
Transcribed by:Frost
Email:Frost1000@hotmail.com

.-palm mute
hb-half bend
2hb-2 string half bend


                                                                    
Eb-----------------------------------------------|------------------
Bb-----------------------------------------------|------------------
Gb-----------------------------------------------|------------------
Db--------------------4--------3--------2--------|------------------
Ab--2-----4-----5-----2--------1--------0-----2--|--2-----4---------
Eb--0-----2-----3-----------------------------0--|--0-----2---------
    .     .     .     .        .        .           .     .         

                                                                    
Eb-----------------------------|------------------------------------
Bb-----------------------------|------------------------------------
Gb-----------------------------|------------------------------------
Db-----------------------------|--------------------4--------3------
Ab--5-----7--8--9-----7-----5--|--2-----4-----5-----2--------1------
Eb--3-----5--6--7-----5-----3--|--0-----2-----3---------------------
    .     .  .  .     .           .     .     .  .           .      

                                                                    
Eb-----------------|------------------------------------------------
Bb-----------------|------------------------------------------------
Gb-----------------|------------------------------------------------
Db--------2--------|------------------------------------------------
Ab--------0-----2--|--2-----4-----5-----7--8--9-----7-----5---------
Eb--------------0--|--0-----2-----3-----5--6--7-----5-----3---------
          .           .     .     .     .  .  .     .               

                                                                    
Eb------------------------------------------------------------------
Bb------------------------------------------------------------------
Gb------------------------------------------------------------------
Db------------------------------------------------------------------
Ab-----7--------7-----5--------------2--2--2-----2-----2-----2------
Eb-----5-----------------6-----5-----0--0--0-----0-----0-----0------
                                     .  .  .     .     .     .      

                                                                    
Eb--------------------------------------------------|---------------
Bb--------------------------------------------------|---------------
Gb--------------------------------------------------|---------------
Db--------------------------------------------------|--7--7--7------
Ab-----2-----2-----2-----2-----2-----2-----2-----2--|---------------
Eb-----0-----0-----0-----0-----0-----0-----0-----0--|--5--5--5------
       .     .     .     .     .     .     .           .  .  .      

                                                                    
Eb------------------------------------------------------------------
Bb------------------------------------------------------------------
Gb------------------------------------------------------------------
Db-----2--2--2-----------------------8-----------7------------------
Ab-----------------x-----5--/--7------------------------------------
Eb-----0--0--0-----x-----5--/--7-----6-----0-----5-----0-----0------
       .  .  .                             .           .     .      

                                                                    
Eb------------------------------------------------------------------
Bb------------------------------------------------------------------
Gb------------------------------------------------------------------
Db-----------------------8-----7-----------5-----------7--\--5------
Ab-----------5--/--7------------------------------------------------
Eb-----0-----5--/--7-----6-----5-----0-----3-----0-----5--\--3------
       .                             .           .                  

                                                                    
Eb--------------------------------------|---------------------------
Bb--------------------------------------|---------------------------
Gb--------------------------------------|---------------------------
Db--/--7--\--5-----7--7--7-----2--2--2--|--------------------8------
Ab--------------------------------------|--x-----5--/--7------------
Eb--/--5--\--3-----5--5--5-----0--0--0--|--x-----5--/--7-----6------
                   .  .  .     .  .  .                              

                                                                    
Eb------------------------------------------------------------------
Bb------------------------------------------------------------------
Gb------------------------------------------------------------------
Db-----7--7--7-----2--2--2-----------------------8-----------7------
Ab-----------------------------x-----5--/--7------------------------
Eb-----5--5--5-----0--0--0-----x-----5--/--7-----6-----0-----5------
       .  .  .     .  .  .                             .            

                                                                    
Eb------------------------------------------------------------------
Bb------------------------------------------------------------------
Gb------------------------------------------------------------------
Db-----------------------------------8-----7-----------5------------
Ab-----------------------5--/--7------------------------------------
Eb-----0-----0-----0-----5--/--7-----6-----5-----0-----3-----0------
       .     .     .                             .           .      

                                                                    
Eb------------------------------------------------------------------
Bb------------------------------------------------------------------
Gb------------------------------------------------------------------
Db------------------------------------------------------------------
Ab-----7-----5------------------------------------------------------
Eb-----------------6-----5-----0--0--0-----0-----0-----0-----0------
                   .     .     .  .  .     .     .     .     .      

                   Gtr.1                                            
Eb--------------|---------------------------------------------------
Bb--------------|---------------------------------------------------
Gb--------------|---------------------------------------------------
Db--------------|--7--7--7-----2--2--2-----------------------8------
Ab--------------|--------------------------x-----5--/--7------------
Eb-----0-----0--|--5--5--5-----0--0--0-----x-----5--/--7-----6------
       .     .     .  .  .     .  .  .                              

                                                                    
Eb------------------------------------------------------------------
Bb------------------------------------------------------------------
Gb------------------------------------------------------------------
Db-----------7-----------------------------------8-----7------------
Ab-----------------------------------5--/--7------------------------
Eb-----0-----5-----0-----0-----0-----5--/--7-----6-----5-----0------
       .           .     .     .                             .      

                                                                    
Eb------------------------------------------------------------------
Bb------------------------------------------------------------------
Gb------------------------------------------------------------------
Db-----5-----------7--\--5--/--7--\--5-----7--7--7-----2--2--2------
Ab------------------------------------------------------------------
Eb-----3-----0-----5--\--3--/--5--\--3-----5--5--5-----0--0--0------
             .                             .  .  .     .  .  .      

                                                                    
Eb--|---------------------------------------------------------------
Bb--|---------------------------------------------------------------
Gb--|---------------------------------------------------------------
Db--|--------------------8-----7--7--7-----2--2--2------------------
Ab--|--x-----5--/--7-----------------------------------x-----5------
Eb--|--x-----5--/--7-----6-----5--5--5-----0--0--0-----x-----5------
                               .  .  .     .  .  .                  

                                                                    
Eb------------------------------------------------------------------
Bb------------------------------------------------------------------
Gb------------------------------------------------------------------
Db-----------8-----------7-----------------------------------8------
Ab--/--7-----------------------------------------5--/--7------------
Eb--/--7-----6-----0-----5-----0-----0-----0-----5--/--7-----6------
                   .           .     .     .                        

                                                                    
Eb--------------------------------------------------------|---------
Bb--------------------------------------------------------|---------
Gb--------------------------------------------------------|---------
Db-----7-----------5-----------------------------------2--|---------
Ab-----------------------------7-----5-----------------2--|---------
Eb-----5-----0-----3-----0-----------------6-----5-----0--|---------
             .           .                 .     .                  

    Gtr.2                                                           
Eb------------------------------------------------------------------
Bb------------------------------------------------------------------
Gb--/--7--------6---------------------------------/--7--------6-----
Db-----------------------/--10--------9--\--------------------------
Ab--/--5--------4---------------------------------/--5--------4-----
Eb-----------------------/--8---------7--\--------------------------
                                                                    

                             3 different gtrs.                      
Eb------------------------|-----------------------------------------
Bb------------------------|-----------------------------------------
Gb---------------------9--|-----------------------------------------
Db--------/--10--------9--|--9--\--8--x--8--\--7--x--7--\--5--x-----
Ab---------------------7--|--7--\--5--x--5--\--3--x--3--\--2--x-----
Eb--------/--8---------0--|--7--\--6--x--6--\--5--x--5--\--3--x-----
                                                                    

                                                                    
Eb-----------------|------------------------------------------------
Bb-----------------|------------------------------------------------
Gb-----------------|------------------------------------------------
Db--5--\--3--2--3--|--2--------2------------------------------------
Ab--2--p--0-----3--|--2--------2------------------------------------
Eb--3--\--1--0--1--|--0--------0-----0-----0-----0-----0-----0------
             .                       .     .     .     .     .      

                                                                    
Eb------------------------------------------------------------------
Bb------------------------------------------------------------------
Gb------------------------------------------------------------------
Db-----------------------------------------------8-----5--p--2------
Ab-----------------------------------5--/--7------------------------
Eb-----0-----0-----0-----0-----0-----5--/--7-----6-----3--p--0------
       .     .     .     .     .                                    

                                                                    
Eb------------------------------------------------------------------
Bb------------------------------------------------------------------
Gb------------------------------------------------------------------
Db-----------------------------------------------------------5------
Ab------------------------------------------------------------------
Eb-----0-----0-----0-----0-----0-----0-----0-----0-----0-----3------
       .     .     .     .     .     .     .     .     .            

                                                                    
Eb--------------------------|---------------------------------------
Bb--------------------------|---------------------------------------
Gb--------------------------|---------------------------------------
Db-----------7-----------8--|--2------------------------------------
Ab--------------------------|---------------------------------------
Eb-----0-----5-----0-----6--|--0-----0-----0-----0-----0-----0------
       .           .                 .     .     .     .     .      

                                                                    
Eb------------------------------------------------------------------
Bb------------------------------------------------------------------
Gb------------------------------------------------------------------
Db-----------------------------------------------------------8------
Ab-----------------------------------------------5--/--7------------
Eb-----0-----0-----0-----0-----0-----0-----0-----5--/--7-----6------
       .     .     .     .     .     .     .                        

                                                                    
Eb------------------------------------------------------------------
Bb------------------------------------------------------------------
Gb------------------------------------------------------------------
Db-----5--p--2------------------------------------------------------
Ab------------------------------------------------------------------
Eb-----3--p--0-----0-----0-----0-----0-----0-----0-----0--0--0------
                   .     .     .     .     .     .     .  .  .      

                                                                    
Eb--------------------------|---------------------------------------
Bb--------------------------|---------------------------------------
Gb--------------------------|---------------------------------------
Db-----------5-----7-----8--|--2------------------------------------
Ab--------------------------|---------------------------------------
Eb-----0-----3-----5-----6--|--0-----0-----0-----0-----0------------
       .                             .     .     .     .            

    A.H.        A.H.                                                
Eb------------------------------------------------------------------
Bb------------------------------------------------------------------
Gb------------------------------------------------------------------
Db--2-----------2--------------------------------------------8------
Ab-----------------------------------------------5--/--7------------
Eb--------0--------------0-----0-----0-----0-----5--/--7-----6------
          .              .     .     .     .                        

                                                                    
Eb------------------------------------------------------------------
Bb------------------------------------------------------------------
Gb------------------------------------------------------------------
Db-----5--p--2------------------------------------------------------
Ab------------------------------------------------------------------
Eb-----3--p--0-----0-----0-----0-----0-----0-----0-----0-----0------
                   .     .     .     .     .     .     .     .      

                                                                    
Eb--------------------------------------|---------------------------
Bb--------------------------------------|---------------------------
Gb--------------------------------------|---------------------------
Db-----------5-----------7-----------8--|--2------------------------
Ab--------------------------------------|---------------------------
Eb-----0-----3-----0-----5-----0-----6--|--0-----0-----0--0--0------
       .           .           .                 .     .  .  .      

                                                                    
Eb------------------------------------------------------------------
Bb------------------------------------------------------------------
Gb------------------------------------------------------------------
Db------------------------------------------------------------------
Ab-----------------------------------------------------------5------
Eb-----0-----0-----0-----0-----0-----0-----0-----0-----0-----5------
       .     .     .     .     .     .     .     .     .            

                                                                    
Eb------------------------------------------------------------------
Bb------------------------------------------------------------------
Gb------------------------------------------------------------------
Db-----------8-----5--p--2------------------------------------------
Ab--/--7------------------------------------------------------------
Eb--/--7-----6-----3--p--0-----0-----0-----0--0--0-----0-----0------
                               .     .     .  .  .     .     .      

                                                                    
Eb--------------------------------------------------|---------------
Bb--------------------------------------------------|---------------
Gb--------------------------------------------------|---------------
Db-----------------------5-----------7-----------8--|---------------
Ab-----2--------------------------------------------|--/--5---------
Eb-----0-----0-----0-----3-----0-----5-----0-----6--|--/--6---------
             .     .           .           .              .         

                                                                    
Eb--------------------------------------|---------------------------
Bb--------------------------------------|---------------------------
Gb--------------------------------------|---------------------------
Db--------------------------------------|--4-----------------2------
Ab--5-----5-----5-----4--4--4-----7--\--|--4-----------------2------
Eb--6-----6-----6-----5--5--5-----5--\--|--------2-----2------------
    .     .     .     .  .  .                    .     .            

                                                                    
Eb------------------------------------------------------------------
Bb------------------------------------------------------------------
Gb-----------5-----4-----------------------------5--p--2------------
Db--h--4-----5-----4-----------------2--h--4-----5--p--2-----4------
Ab--h--4-----------------------------2--h--4-----------------4------
Eb-----------------------2-----2------------------------------------
                         .     .                                    

                                                                    
Eb------------------------------------------------------------------
Bb------------------------------------------------------------------
Gb-----------------------------------5-----4------------------------
Db-----------------------2--h--4-----5-----4------------------------
Ab-----------------------2--h--4------------------------------------
Eb-----2-----2-----2-----------------------------2-----2--2--2------
       .     .     .                             .     .  .  .      

                                                                    
Eb------------------------------------------------------------------
Bb------------------------------------------------------------------
Gb-----4--p--2-----4--p--2------------------------------------------
Db-----4--p--2-----4--p--2-----------------------------------2------
Ab-----------------------------------------------------------2------
Eb-----------------------------0-----2-----2-----2-----2------------
                               .     .     .     .     .            

                                                                    
Eb------------------------------------------------------------------
Bb------------------------------------------------------------------
Gb-----------5--p--2-----------------------------------------5------
Db--h--4-----5--p--2-----------------------------2--h--4-----5------
Ab--h--4-----------------------------------------2--h--4------------
Eb-----------------------2-----2--2--2-----2------------------------
                         .     .  .  .     .                        

                                                                    
Eb------------------------------------------------------------------
Bb------------------------------------------------------------------
Gb--p--2-----------------------------------------5-----4------------
Db--p--2-----4-----------------------2--h--4-----5-----4------------
Ab-----------4-----------------------2--h--4------------------------
Eb-----------------2-----2-----2-----------------------------2------
                   .     .     .                             .      

                                                                    
Eb------------------------------------------------------------------
Bb------------------------------------------------------------------
Gb-----------------4--p--2-----4--p--2------------------------------
Db-----------------4--p--2-----4--p--2------------------------------
Ab------------------------------------------------------------------
Eb-----2--2--2-----------------------------0-----3-----0-----0------
       .  .  .                             .     .     .     .      

       etc.                                            2hb          
Eb--|-----------|---------------------------------------------------
Bb--|-----------|---------------------------------------------------
Gb--|-----------|---------------------------------------------------
Db--|-----------|--2-----------------------------------8^-----8-----
Ab--|-----------|---------------------------------------------------
Eb--|-----------|--0-----0-----0--0--0-----0-----0-----6------6-----
                         .     .  .  .     .     .                  

                                     2hb                            
Eb------------------------------------------------------------------
Bb------------------------------------------------------------------
Gb------------------------------------------------------------------
Db-----------------------------------7^-----7-----------------------
Ab------------------------------------------------------------------
Eb-----0-----0--0--0-----0-----0-----5------5-----0-----0--0--0-----
       .     .  .  .     .     .                  .     .  .  .     

                   2hb                                              
Eb------------------------------------------------------------------
Bb------------------------------------------------------------------
Gb------------------------------------------------------------2-----
Db-----------------6^-----6-----------------------------------2-----
Ab------------------------------------------------2-----1-----0-----
Eb-----0-----0-----4------4-----0-----2-----3-----------------------
       .     .                  .     .     .     .     .           

       Gtr.1                               2hb                      
Eb--|---------------------------------------------------------------
Bb--|---------------------------------------------------------------
Gb--|---------------------------------------------------------------
Db--|--------------------------------------8^-----8-----------------
Ab--|---------------------------------------------------------------
Eb--|--0--0--0-----0-----0-----0-----0-----6------6-----0-----0-----
       .  .  .     .     .     .     .                  .     .     

                         2hb                                        
Eb------------------------------------------------------------------
Bb------------------------------------------------------------------
Gb------------------------------------------------------------------
Db-----------------------7^-----7-----------------------------------
Ab------------------------------------------------------------------
Eb--0--0-----0-----0-----5------5-----0-----0--0--0-----0-----0-----
    .  .     .     .                  .     .  .  .     .     .     

       2hb                                            Gtr.2         
Eb-------------------------------------------------|----------------
Bb-------------------------------------------------|----------------
Gb-------------------------------------------------|----------------
Db-----6^------------------------------------------|----------------
Ab------------------7p5----------------------------|----------------
Eb-----4------0-------------6-----5-----3-----5p3--|----------------
              .             .     .     .                           

    hb              hb              hb                              
Eb--------------------------------------|---------------------------
Bb--------------------------------------|---------------------------
Gb--7^--7-----------6^--6-----------5^--|--2--------5---------------
Db--------------------------------------|--2--------5--------7------
Ab--------------------------------------|--0--------3--------5------
Eb--------------------------------------|---------------------------
                                                             .      

                                                                    
Eb------------------------------------------------------------------
Bb------------------------------------------------------------------
Gb-----------7------------------------------------------------------
Db-----5-----7--------2--------2------------------------------------
Ab-----3-----5--------2--------2------------------------------------
Eb--------------------0--------0-----0-----0-----0-----0-----0------
       .                             .     .     .     .     .      

                                                                    
Eb------------------------------------------------------------------
Bb------------------------------------------------------------------
Gb-----------------------------------------------------2------------
Db-----------------------------------------------------2------------
Ab-----------------------------------------------------0------------
Eb-----0-----0-----0-----0-----0-----0-----0-----0------------------
       .     .     .     .     .     .     .     .                  

                                                                    
Eb--------------------------|---------------------------------------
Bb--------------------------|---------------------------------------
Gb--5-----------------------|---------------------------------------
Db--5--------7-----5-----7--|--2--------2---------------------------
Ab--3--------5-----3-----5--|--2--------2---------------------------
Eb--------------------------|--0--------0-----0-----0-----0---------
             .     .     .                    .     .     .         

                                                                    
Eb------------------------------------------------------------------
Bb------------------------------------------------------------------
Gb------------------------------------------------------------------
Db------------------------------------------------------------------
Ab------------------------------------------------------------------
Eb--0-----0-----0-----0-----0-----0-----0-----0-----0-----0---------
    .     .     .     .     .     .     .     .     .     .         

                                                                    
Eb------------------------------------------------------------------
Bb------------------------------------------------------------------
Gb--2--------5------------------------------------------------------
Db--2--------5--------7-----5-----2-----3--------5-----5-----4------
Ab--0--------3--------5-----3-----0-----3--------5-----3-----2------
Eb--------------------------------------1--------3------------------
                      .     .     .                    .     .      

                                                                    
Eb--------|---------------------------------------------------------
Bb--------|---------------------------------------------------------
Gb--------|---------------------------------------------------------
Db-----2--|--------------------------4-----------------4------------
Ab-----0--|--------------------------4-----------------4------------
Eb--------|--2--2--2-----2-----2-----------2-----2-----------2------
       .     .  .  .     .     .           .     .           .      

                                                                    
Eb--------------------------------------------------------|---------
Bb--------------------------------------------------------|---------
Gb-----------------------------2-----4-----5-----2--------|---------
Db-----4-----------------4-----2-----4-----5-----2-----4--|---------
Ab-----4-----------------4-----------------------------4--|---------
Eb-----------2-----2--------------------------------------|--2------
             .     .                                         .      

                                                                    
Eb------------------------------------------------------------------
Bb------------------------------------------------------------------
Gb-----------------------------------------------------2-----4------
Db-----------4-----------------------4-----------------2-----4------
Ab-----------4-----------------------4------------------------------
Eb-----2-----------2-----2-----2-----------2-----0------------------
       .           .     .     .           .     .                  

                                                                    
Eb--------|---------------------------------------------------------
Bb--------|---------------------------------------------------------
Gb-----5--|---------------------------------------------------------
Db-----5--|--4-----------------------4------------------------------
Ab--------|--4-----------------------4------------------------------
Eb--------|--------2-----2-----2-----------2-----2-----2-----2------
                   .     .     .           .     .     .     .      

                                                                    
Eb--------------------------------------------------------|---------
Bb--------------------------------------------------------|---------
Gb-----------------------------2-----4-----5-----2--------|---------
Db-----------------------4-----2-----4-----5-----2-----4--|---------
Ab-----------------------4-----------------------------4--|---------
Eb--2--2-----2-----2--------------------------------------|--2------
    .  .     .     .                                         .      

                                                                    
Eb------------------------------------------------------------------
Bb------------------------------------------------------------------
Gb-----------------------------------------------------2-----4------
Db-----------------------------------4-----------------2-----4------
Ab-----------------------------------4------------------------------
Eb-----2-----2--2--2-----2-----2-----------2-----0------------------
       .     .  .  .     .     .           .     .                  

                                                                    
Eb--------|---------------------------------------------------------
Bb--------|---------------------------------------------------------
Gb-----5--|---------------------------------------------------------
Db-----5--|---------------------------------------------------------
Ab--------|--2------------------------------------------------------
Eb--------|--0-----0-----0--0--0-----0--0--0-----0--0--0-----0------
                   .     .  .  .     .  .  .     .  .  .     .      

                                                                    
Eb--------------------------------------------------------|---------
Bb--------------------------------------------------------|---------
Gb--------------------------------------------------------|---------
Db-----------------------------------------8-----5--p--2--|---------
Ab-----------------------------5--/--7--------------------|---------
Eb--0--0-----0--0--0-----0--0--5--/--7-----6-----3--p--0--|--0------
    .  .     .  .  .     .  .                                .      

                                                                    
Eb------------------------------------------------------------------
Bb------------------------------------------------------------------
Gb------------------------------------------------------------------
Db-----------------------------------------------------5-----7------
Ab------------------------------------------------------------------
Eb-----0-----0--0--0-----0-----0-----0--0--0-----0-----3-----5------
       .     .  .  .     .     .     .  .  .     .                  

                                                                    
Eb--------|---------------------------------------------------------
Bb--------|---------------------------------------------------------
Gb--------|---------------------------------------------------------
Db-----8--|--2------------------------------------------------------
Ab--------|---------------------------------------------------------
Eb-----6--|--0-----0-----0--0--0-----0--0--0-----0--0--0-----0------
                   .     .  .  .     .  .  .     .  .  .     .      

                                                                    
Eb--------------------------------------------------------|---------
Bb--------------------------------------------------------|---------
Gb--------------------------------------------------------|---------
Db-----------------------------------------8-----5--p--2--|---------
Ab-----------------------------5--/--7--------------------|---------
Eb--0--0-----0--0--0-----0--0--5--/--7-----6-----3--p--0--|--0------
    .  .     .  .  .     .  .                                .      

                                                                    
Eb------------------------------------------------------------------
Bb------------------------------------------------------------------
Gb------------------------------------------------------------------
Db-----------------------------------------------------5-----7------
Ab------------------------------------------------------------------
Eb-----0-----0--0--0-----0-----0-----0--0--0-----0-----3-----5------
       .     .  .  .     .     .     .  .  .     .                  

             etc.                                                   
Eb--------|--------|------------------------------------------------
Bb--------|--------|------------------------------------------------
Gb--------|--------|------------------------------------------------
Db-----8--|--------|------------------------------------------------
Ab--------|--------|------------------------------------------------
Eb-----6--|--------|------------------------------------------------
                                                                    



====================================================================
==          Created with a demo version of BUCKET O' TAB          ==
==            tablature creation software for Windows             ==
==                 http://www.his.com/~gse/bucket                 ==
====================================================================
comments
We did not receive enough feedback on this tab! Please rate:
print report bad tab
1 2 3 4 5
I want to post or [tab]
guest
You may want to rate the tab now too:
select rating
Please do not post tabs as comments. Select "correction" instead!