Oops, an error
Loading. Please wait.

Burnt Offering Bass Tab

491 views 1 this week
no commentswrite comment
1 2 3 4 5
please rate
add to favorites launch autoscroll
font size
0
reset
Autoscroll
+/-
esc
set tempo
stop
Contributor
Difficulty
novice
WARNING: You are trying to view
                                    content from Ultimate-Guitar.com
                                    in an unauthorized application,
                                    which is prohibited.

                                    Please use an official Ultimate
                                    Guitar Tabs application for iPhone,
                                    iPad or Android to access legitimate
                                    chords, guitar, bass, and drum tabs
                                    from Ultimate-Guitar.com database.

                                    Type "ultimate guitar tabs" in Apple
                                    App Store's or Android Market's
                                    search to find the application.
Standard Tuning

G||------------------|------------------|------------------|-------------------|
D||------------------|------------------|------------------|--------------7----|
A||------------------|------------------|------------------|-------------------|
E||------------------|------------------|------------------|-------------------|



-----------------------|--------------------|--------------------|
--9----7----------7----|--------------------|--------------------|
------------10---------|--------------------|---------------0----|
-----------------------|--0------------3----|--2-----------------|



--------------------|-----------------------|-------------------------|
---------------7----|--9----7----------7----|-----2--------2----------|
--------------------|------------10---------|--------2--------2-------|
--3-----------------|-----------------------|--0--------0----------0--|



--------------------------|------------------------|-----------------------|
-----3-----------2--------|-----2-------0-----2----|--0-------0-------0----|
--------3-----------2-----|--------2---------------|-----0-------0---------|
--1--------1--0--------0--|--0-------------0-------|-----------------------|



-------------------------|--------------------------|-------------------------|
-----2--------2----------|-----3-----------2--------|-----2-------0-----2--0--|
--------2--------2-------|--------3-----------2-----|--------2----------------|
--0--------0----------0--|--1--------1--0--------0--|--0-------------0--------|



-------------------------|---------------------|-------------------------|
-------------------------|---------------------|-------------------------|
----5--5--5--5--5--5--5--|---------------------|--8--------7----7--7--7--|
-------------------------|--0------0--0--------|-------------------------|



---------------------|--7----------------------|---------------------|
---------------------|-------------------------|---------------------|
--7--------5----7----|-------5--5--5--5--5--5--|---------------------|
---------------------|-------------------------|--0------0--0--------|



-------------------------|---------------------|--7----------------------|
-------------------------|---------------------|-------------------------|
--8--------7----7--7--7--|--7--------5----7----|-------5--5--5--5--5--5--|
-------------------------|---------------------|-------------------------|



-------------------|------------------|----------|-------------------|
-------------------|------------------|----------|-------------------|
-------------------|------------------|----------|-------------------|
--0----------------|------------------|----------|--0----------------|



------------------|------------------|------------------|--------------------|
------------------|------------------|------------------|--------------------|
------------------|------------------|------------------|--------------------|
------------------|------------------|------------------|--0--------------0--|



--------------------|-------------------|------------------|
--------------------|-------------------|------------------|
--------------------|-------------------|------------------|
--0--------------0--|--0----------------|------------------|



-------------------------|------------------------|-------------------------|
--2--2--2--2--3----2--2--|--2--2--2--2--2----2----|--2--2--2--2--3----2-----|
-------------------------|------------------------|----------------------3--|
-------------------------|------------------------|-------------------------|



-------------------------|-------------------------|------------------------|
-------------------------|--2--2--2--2--3----2--2--|--2--2--2--2--2----2----|
----2--1--0--------------|-------------------------|------------------------|
-------------4--3--2--1--|-------------------------|------------------------|



-------------------------|------------------|-------------------|
--2--2--2--2--3----2-----|------------------|-------------------|
----------------------3--|------------------|--3----------------|
-------------------------|------------------|-------------------|



-------------------|--------------------------|--------------------------|
-------------------|--------------------------|--------------------------|
--3----------------|--------------------------|--------2--3--5--3--2-----|
-------------------|--0----0--0-0-0--0--0--0--|--4--5-----------------5--|



--------------------------|--------------------------|
--------------------------|-----3-----2-----1--------|
--------------------------|--5-----4-----3-----2--0--|
--4----0--0-0-0--0--0--0--|--------------------------|



--------------------------|--------------------------|
--------------------------|--------------------------|
--------------------------|--------2--3--5--3--2-----|
--4----0--0-0-0--0--0--0--|--4--5-----------------5--|



--------------------------|--------------------|--------------------------|
--------------------------|--------------------|--------------------------|
--------------------------|--------------------|--------------------------|
--4----0--0-0-0--0--0--0--|--0------------1----|--0----0--0-0-0--0--0--0--|



--------------------------|--------------------------|
--------------------------|--------------------------|
--------2--3--5--3--2-----|--------------------------|
--4--5-----------------5--|--4----0--0-0-0--0--0--0--|



--------------------------|--------------------------|
-----3-----2-----1--------|--------------------------|
--5-----4-----3-----2--0--|--------------------------|
--------------------------|--4----0--0-0-0--0--0--0--|



--------------------------|--------------------------|---------------------|
--------------------------|--------------------------|--5------4------3----|
--------2--3--5--3--2-----|--------------------------|---------------------|
--4--5-----------------5--|--4----0--0-0-0--0--0--0--|---------------------|



--------------------------|--------------------------|
--2-----------------------|--------------------------|
--------------------------|--------2--3--5--3--2-----|
-------0--0-0-0--0--0--0--|--4--5-----------------5--|



--------------------------|--------------------------|
--------------------------|-----3-----2-----1--------|
--------------------------|--5-----4-----3-----2--0--|
--4----0--0-0-0--0--0--0--|--------------------------|



--------------------------|--------------------------|
--------------------------|--------------------------|
--------------------------|--------2--3--5--3--2-----|
--4----0--0-0-0--0--0--0--|--4--5-----------------5--|



--------------------------|--------------------|--------------------------|
--------------------------|--------------------|--------------------------|
--------------------------|--------------------|--------------------------|
--4----0--0-0-0--0--0--0--|--0------------1----|--0----0--0-0-0--0--0--0--|



--------------------------|--------------------------|
--------------------------|--------------------------|
--------2--3--5--3--2-----|--------------------------|
--4--5-----------------5--|--4----0--0-0-0--0--0--0--|



--------------------------|--------------------------|
-----3-----2-----1--------|--------------------------|
--5-----4-----3-----2--0--|--------------------------|
--------------------------|--4----0--0-0-0--0--0--0--|



--------------------------|--------------------------|---------------------|
--------------------------|--------------------------|--5------4------3----|
--------2--3--5--3--2-----|--------------------------|---------------------|
--4--5-----------------5--|--4----0--0-0-0--0--0--0--|---------------------|



-------------------------|------------------------|-------------------------|
--2--2--2--2--3----2--2--|--2--2--2--2--2----2----|--2--2--2--2--3----2-----|
-------------------------|------------------------|----------------------3--|
-------------------------|------------------------|-------------------------|



-------------------------|-------------------------|------------------------|
-------------------------|--2--2--2--2--3----2--2--|--2--2--2--2--2----2----|
----2--1--0--------------|-------------------------|------------------------|
-------------4--3--2--1--|-------------------------|------------------------|



-------------------------|-------------------------|--------------------------|
--2--2--2--2--3----2-----|-------------------------|--2-----------------------|
----------------------3--|----2--1--0--------------|--------------------------|
-------------------------|-------------4--3--2--1--|-------0--0-0-0--0--0--0--|



--------------------------|--------------------------|
--------------------------|--------------------------|
--------2--3--5--3--2-----|--------------------------|
--4--5-----------------5--|--4----0--0-0-0--0--0--0--|



--------------------------|--------------------------|
-----3-----2-----1--------|--------------------------|
--5-----4-----3-----2--0--|--------------------------|
--------------------------|--4----0--0-0-0--0--0--0--|



--------------------------|--------------------------|--------------------|
--------------------------|--------------------------|--------------------|
--------2--3--5--3--2-----|--------------------------|--------------------|
--4--5-----------------5--|--4----0--0-0-0--0--0--0--|--0------------1----|



--------------------------|--------------------------|
--------------------------|--------------------------|
--------------------------|--------2--3--5--3--2-----|
--0----0--0-0-0--0--0--0--|--4--5-----------------5--|



--------------------------|--------------------------|
--------------------------|-----3-----2-----1--------|
--------------------------|--5-----4-----3-----2--0--|
--4----0--0-0-0--0--0--0--|--------------------------|



--------------------------|--------------------------|
--------------------------|--------------------------|
--------------------------|--------2--3--5--3--2-----|
--4----0--0-0-0--0--0--0--|--4--5-----------------5--|



--------------------------|---------------------|-------------------------|
--------------------------|--5------4------3----|--2--2--2--2--3----2--2--|
--------------------------|---------------------|-------------------------|
--4----0--0-0-0--0--0--0--|---------------------|-------------------------|



------------------------|-------------------------|-------------------------|
--2--2--2--2--2----2----|--2--2--2--2--3----2-----|-------------------------|
------------------------|----------------------3--|----2--1--0--------------|
------------------------|-------------------------|-------------4--3--2--1--|



-------------------------|------------------------|-------------------------|
--2--2--2--2--3----2--2--|--2--2--2--2--2----2----|--2--2--2--2--3----2-----|
-------------------------|------------------------|----------------------3--|
-------------------------|------------------------|-------------------------|



-------------------------|--------------------------|--------------------------|
-------------------------|--2-----------------------|--------------------------|
----2--1--0--------------|--------------------------|--------2--3--5--3--2-----|
-------------4--3--2--1--|-------0--0-0-0--0--0--0--|--4--5-----------------5--|



--------------------------|--------------------------|
--------------------------|-----3-----2-----1--------|
--------------------------|--5-----4-----3-----2--0--|
--4----0--0-0-0--0--0--0--|--------------------------|



--------------------------|--------------------------|
--------------------------|--------------------------|
--------------------------|--------2--3--5--3--2-----|
--4----0--0-0-0--0--0--0--|--4--5-----------------5--|



--------------------------|--------------------|--------------------------|
--------------------------|--------------------|--------------------------|
--------------------------|--------------------|--------------------------|
--4----0--0-0-0--0--0--0--|--0------------1----|--0----0--0-0-0--0--0--0--|



--------------------------|--------------------------|
--------------------------|--------------------------|
--------2--3--5--3--2-----|--------------------------|
--4--5-----------------5--|--4----0--0-0-0--0--0--0--|



--------------------------|--------------------------|
-----3-----2-----1--------|--------------------------|
--5-----4-----3-----2--0--|--------------------------|
--------------------------|--4----0--0-0-0--0--0--0--|



--------------------------|--------------------------|--0------------------|
--------------------------|--------------------------|--5------4------3----|
--------2--3--5--3--2-----|--------------------------|---------------------|
--4--5-----------------5--|--4----0--0-0-0--0--0--0--|---------------------|



-------------------|--------------------|-------------------|
-------------------|--------------------|-------------------|
-------------------|---------------2----|--1----------------|
--0----------------|----------3---------|-------------------|



--------------------|-------------------|--------------------|
--------------------|-------------------|--------------------|
----------2---------|-------------------|---------------2----|
---------------3----|--0----------------|----------3---------|



-------------------|--------------------|-------------------|
-------------------|--------------------|-------------------|
--1----------------|----------2---------|--0----------------|
-------------------|---------------3----|-------------------|



--------------------|-------------------|--------------------|
---------------2----|--1----------------|----------2---------|
----------3---------|-------------------|---------------3----|
--------------------|-------------------|--------------------|



-------------------|--------------------|-------------------|
-------------------|---------------2----|--1----------------|
--0----------------|----------3---------|-------------------|
-------------------|--------------------|-------------------|



--------------------|------------------------|-----------------------|
----------2---------|------------------------|-------------2---------|
---------------1----|-------------------1----|------------------1----|
--------------------|--0----0-0---0--0-------|--0---0-0--------------|



------------------------|------------------------|------------------------|
------------------------|-------------2----------|------------------------|
-------------------1----|----------------1---1---|-------------------1----|
--0----0-0---0--0-------|--0---0-0---------------|--0----0-0---0--0-------|



-----------------------|------------------------|------------------------|
-------------2---------|------------------------|-------------2----------|
------------------1----|-------------------1----|----------------1---1---|
--0---0-0--------------|--0----0-0---0--0-------|--0---0-0---------------|



------------------------|-----------------------|------------------------|
------------------------|-----------------------|------------------------|
------------------------|------------------1----|------------------------|
--0----0-0---0----0-0---|--0----0-0---0---------|--0----0-0---0----0-0---|



-----------------------|------------------------|-----------------------|
-------------2---------|------------------------|-----------------------|
------------------1----|------------------------|------------------1----|
--0----0-0-------------|--0----0-0---0----0-0---|--0----0-0---0---------|



------------------------|------------------------|------------------------|
------------------------|-------------2----------|------------------------|
------------------------|----------------1---1---|-------------------1----|
--0----0-0---0----0-0---|--0----0-0--------------|--0----0-0---0--0-------|



-----------------------|------------------------|------------------------|
-------------2---------|------------------------|-------------2----------|
------------------1----|-------------------1----|----------------1---1---|
--0---0-0--------------|--0----0-0---0--0-------|--0---0-0---------------|



------------------------|-----------------------|------------------------|
------------------------|-------------2---------|------------------------|
-------------------1----|------------------1----|-------------------1----|
--0----0-0---0--0-------|--0---0-0--------------|--0----0-0---0--0-------|



-------------------------|-----------------|------------------------------|
-------------2--------1--|-----------------|------------------------------|
----------------1--0-----|--0-----5--------|------------------------------|
--0----0-0---------------|-----4-----3--4--|--0-0-0-0-0--0--0-0-0-0-0--0--|



------------------------------|-----------------------------|
------------------------------|--2--------------------------|
----------------------2----5--|-----------------------------|
--0-0-0-0-0-0-0-0-0-0---------|-----0--0--0-0-0-0-0--0--0-0-|



-----------------------------|-----------------------------|
--------------------2----3---|-----------------------------|
-----------------------------|-----------------------------|
--0-0-0-0-0-0-0-0-0----------|---0-0-0--0--0-0-0-0-0--0--0-|



------------------------------|-----------------------------|
------------------------------|--2--------------------------|
----------------------2----5--|-----------------------------|
--0-0-0-0-0-0-0-0-0-0---------|-----0--0--0-0-0-0-0--0--0-0-|



--------------------|------------------------------|
--3-----------------|------------------------------|
-----------3--------|------------------------------|
--------------------|--0-0-0-0-0--0--0-0-0-0-0--0--|



------------------------------|-----------------------------|
------------------------------|--2--------------------------|
----------------------2----5--|-----------------------------|
--0-0-0-0-0-0-0-0-0-0---------|-----0--0--0-0-0-0-0--0--0-0-|



-----------------------------|-----------------------------|
--------------------2----3---|-----------------------------|
-----------------------------|-----------------------------|
--0-0-0-0-0-0-0-0-0----------|---0-0-0--0--0-0-0-0-0--0--0-|



------------------------------|-----------------------------|
------------------------------|--2--------------------------|
----------------------2----5--|-----------------------------|
--0-0-0-0-0-0-0-0-0-0---------|-----0--0--0-0-0-0-0--0--0-0-|



--------------------|------------------------------|
--3-----------------|------------------------------|
-----------3--------|------------------------------|
--------------------|--0-0-0-0-0--0--0-0-0-0-0--0--|



------------------------------|-----------------------------|
------------------------------|--2--------------------------|
----------------------2----5--|-----------------------------|
--0-0-0-0-0-0-0-0-0-0---------|-----0--0--0-0-0-0-0--0--0-0-|



-----------------------------|-----------------------------|
--------------------2----3---|-----------------------------|
-----------------------------|-----------------------------|
--0-0-0-0-0-0-0-0-0----------|---0-0-0--0--0-0-0-0-0--0--0-|



------------------------------|-----------------------------|
------------------------------|--2--------------------------|
----------------------2----5--|-----------------------------|
--0-0-0-0-0-0-0-0-0-0---------|-----0--0--0-0-0-0-0--0--0-0-|



--------------------|------------------------------|
--3-----------------|------------------------------|
-----------3--------|------------------------------|
--------------------|--0-0-0-0-0--0--0-0-0-0-0--0--|



------------------------------|-----------------------------|
------------------------------|--2--------------------------|
----------------------2----5--|-----------------------------|
--0-0-0-0-0-0-0-0-0-0---------|-----0--0--0-0-0-0-0--0--0-0-|



-----------------------------|-----------------------------|
--------------------2----3---|-----------------------------|
-----------------------------|-----------------------------|
--0-0-0-0-0-0-0-0-0----------|---0-0-0--0--0-0-0-0-0--0--0-|



------------------------------|-----------------------------|
------------------------------|--2--------------------------|
----------------------2----5--|-----------------------------|
--0-0-0-0-0-0-0-0-0-0---------|-----0--0--0-0-0-0-0--0--0-0-|



--------------------|-------------------------|--------------------------|
--3-----------------|--------2----2--0-----0--|--2--2-2-2--0--2--2----3--|
-----------3--------|-------------------2-----|--------------------------|
--------------------|--0--0-------------------|--------------------------|



-------------------------|--------------------------|-------------------------|
--------2----2--0-----0--|--2--2-2-2--0--2--2----3--|--------2----2--0-----0--|
-------------------2-----|--------------------------|-------------------2-----|
--0--0-------------------|--------------------------|--0--0-------------------|



--------------------------|-------------------------|--------------------------|
--2--2-2-2--0--2--2----3--|--------2----2--0-----0--|--2--2-2-2--0--2--2----3--|
--------------------------|-------------------2-----|--------------------------|
--------------------------|--0--0-------------------|--------------------------|



----------------------------------|----------------------------------|
----------------------------------|----------------------------------|
--3-3-3-3-3-3-3-3-----------------|--3-3-3-3-3-3-3-3-----------------|
------------------4-4-4-4-4-4-4-4-|------------------2-2-2-2-2-2-2-2-|



----------------------------------|----------------------------------|
----------------------------------|----------------------------------|
--3-3-3-3-3-3-3-3-----------------|--3-3-3-3-3-3-3-3-----------------|
------------------4-4-4-4-4-4-4-4-|------------------2-2-2-2-2-2-2-2-|



----------------------|----------------------|----------------------|
----------------------|----------------------|----------------------|
--3---------3---------|--3---------3---------|----------------------|
-------4---------2----|-------4---------2----|--0----1----2----3----|



-------------------|------------------|------------------|------------------|
-------------------|------------------|------------------|------------------|
-------------------|------------------|------------------|------------------|
--0----------------|------------------|------------------|------------------|



--------------------|--------------------|-------------------|
--------------------|--------------------|-------------------|
--------------------|--------------------|-------------------|
--0--------------0--|--0--------------0--|--0----------------|



------------------|-------------------------|------------------------|
------------------|--2--2--2--2--3----2--2--|--2--2--2--2--2----2----|
------------------|-------------------------|------------------------|
------------------|-------------------------|------------------------|



-------------------------|-------------------------|-------------------------|
--2--2--2--2--3----2-----|-------------------------|--2--2--2--2--3----2--2--|
----------------------3--|----2--1--0--------------|-------------------------|
-------------------------|-------------4--3--2--1--|-------------------------|



------------------------|-------------------------|------------------------|
--2--2--2--2--2----2----|--2--2--2--2--3----2-----|------------------------|
------------------------|----------------------3--|--3--2--1--0------------|
------------------------|-------------------------|--------------1--0------|



--------------------------|--------------------------|
--2-----------------------|--------------------------|
--------------------------|--------2--3--5--3--2-----|
-------0--0-0-0--0--0--0--|--4--5-----------------5--|



--------------------------|--------------------------|
--------------------------|-----3-----2-----1--------|
--------------------------|--5-----4-----3-----2--0--|
--4----0--0-0-0--0--0--0--|--------------------------|



--------------------------|--------------------------|
--------------------------|--------------------------|
--------------------------|--------2--3--5--3--2-----|
--4----0--0-0-0--0--0--0--|--4--5-----------------5--|



--------------------------|--------------------|--------------------------|
--------------------------|--------------------|--2-----------------------|
--------------------------|--------------------|--------------------------|
--4----0--0-0-0--0--0--0--|--0------------1----|-------0--0-0-0--0--0--0--|



--------------------------|--------------------------|
--------------------------|--------------------------|
--------2--3--5--3--2-----|--------------------------|
--4--5-----------------5--|--4----0--0-0-0--0--0--0--|



--------------------------|--------------------------|
-----3-----2-----1--------|--------------------------|
--5-----4-----3-----2--0--|--------------------------|
--------------------------|--4----0--0-0-0--0--0--0--|



--------------------------|--------------------------|---------------------|
--------------------------|--------------------------|--5------4------3----|
--------2--3--5--3--2-----|--------------------------|---------------------|
--4--5-----------------5--|--4----0--0-0-0--0--0--0--|---------------------|



---------------------|---------------------|-------------------|
--5------4------3----|--5------4------3----|-------------------|
---------------------|---------------------|-------------------|
---------------------|---------------------|--0----------------|



------------------|--------------------|----------||
------------------|--------------------|----------||
------------------|--------------------|----------||
------------------|--0--0--------------|----------||

tabbed by Taz Mckell
comments
We did not receive enough feedback on this tab! Please rate:
1 2 3 4 5
I want to post or [tab]
guest
You may want to rate the tab now too:
select rating
Please do not post tabs as comments. Select "correction" instead!