Oops, an error
Loading. Please wait.

Burnt Offerings Tab

ver2
ver2

Whole song

Interactive

More versions @911Tabs.com
1,974 views 15 this week
no commentswrite comment
1 2 3 4 5
excellent!
x 2
Autoscroll
+/-
esc
set tempo
stop
Contributor
Hey! There's an official Ultimate Guitar app which is ideal
for learning songs when you're away from computer. Get the app
WARNING: You are trying to view
                                    content from Ultimate-Guitar.com
                                    in an unauthorized application,
                                    which is prohibited.

                                    Please use an official Ultimate
                                    Guitar Tabs application for iPhone,
                                    iPad or Android to access legitimate
                                    chords, guitar, bass, and drum tabs
                                    from Ultimate-Guitar.com database.

                                    Type "ultimate guitar tabs" in Apple
                                    App Store's or Android Market's
                                    search to find the application.
/---------------------------------------------------------------------------
/ The following is the author's own interpretation of the song, to be used -
/ for studying or private use only, removal of any part of this ten line   -
/ header is illegal!!!  Removal of the transcribers name or anything       -
/ relevant to the transcriber is also illegal, as so is the removal of the -
/ place inwhich the tab was downloaded. Publishing as well as printing of  -
/ the tab is illegal without permission of the transcriber and copyright   -
/ owner of the song. Failure to apply to these laws result will in legal   -
/ action from the appropriate parties.                                     -
/---------------------------------------------------------------------------

downloaded from Displacer's Tablature Site at
        http://www.dsrmusic.com/metaltab
join the death/black tab emailing list by filling out the free
subscription form at http://www.dsrmusic.com/metaltab
  
                   TESTAMENT - BURNT OFFERINGS 2001
               From the Album FIRST STRIKE STILL DEADLY
                   Copyright 2001 SPITFIRE RECORDS

                      Full Version - OCTOBER 2002

Re-Transcribed/Editing/Updated by: Death8699 (Ryan Fanucchi)
Based On Previous Tabs & Solos by: Jarle Olsen & Zac Broaddus

For Questions, Comments, Newest Version, or Corrections contact
 Death8699: at ArghEnemies@aol.com

Check Out Death8699.com, With More Transcriptions On It:
 http://www.death8699.com

Check Out Jarle's Web Site, With More Transcriptions On It:
 http://www.jarleholsen.com

.  - palm mute                  ph    - pinched harmonic
/  - slide up to                ah    - artificial harmonic
\  - slide down to              th    - tap harmonic
~  - vibrato                    hr    - natural harmonic
h  - hammer on                  b     - bend
p  - pull off                      Suffixes for bend
t  - tap with finger                    f - full bend    h - half bend
"  - tremolo picking                    r - release      t - tap bend
X  - percussion mute                    p - pick when bent
>  - accented note                 Prefixes
() - ghost note, sustained note         p - pre-bend     w - use bar
*  - see comment                        d - don't pick start of bend

--Transcriber's Notes--

I have spent the past 6 months on these songs trying to
get them as perfect as possible.  If you think further
corrections are needed, have the updated solos, or a
better version of this song please mail me at ArchEnemies
@aol.com.  I plan on tabbing this entire album, I have
been hard at work making my previous 'FSSD' tabs better.
Enjoy!

--Miscellaneous Notes--

P.M.H. - palm mute heavy
(**)   - see comment(s)
(^)    - pause; stacatto
(<>)   - pick-up note(s)
Gtr.1  - right channel (Eric Peterson)
Gtr.2  - left  channel (Alex Skolnick)

Tune Gtr to D (D,G,C,F,A,D)

--BURNT OFFERINGS--

 [Rhy.Fig.1] (Clean; let ring)
||-----------------0---------------|-----------------0----------------|
||-----0-------0-------0-----------|-----0-------0-------0------------|
||*--------0---------------0-------|---------0---------------0--------|[Gtr.1]
||*--------------------------------|----------------------------------|
||--7--------------------------/10-|-9---------------------------/12--|
||----------------------------sl---|----------------------------sl----|
||                                                                    |
||                                                                    |
||                                                                    |
||------------------0--------------|----------------------------------|
||------0-------0-------0----------|-----0----------0---------0-------|
||----------0---------------0------|----------------------------------|[Gtr.1]
||---------------------------------|-7---------9----------7-----------|
||-10------------------------------|----------------------------------|
||---------------------------------|----------------------------------|


[Lead #1](**)
|----------------------------------|-1915-----------------------------|
|--17-(17)~------------------------|-----17---------------------------|
|----------------------------------|-------1614-----------------------|[Gtr.2]
|----------------------------------|-----------1716-------------------|
|----------------------------------|---------------1719-(19)----------|
|----------------------------------|----------------------------------|
|                                                                     |
|                                                                     |
|                                                                     |
|----------------------------------|-2219-----------------------------|
|--20-(20)~------------------------|-----20---------------------------|
|----------------------------------|-------19-------------------------|[Gtr.3]
|----------------------------------|---------222119--17-(17)----------|
|----------------------------------|---------------21-----------------|
|----------------------------------|----------------------------------|


(**) = Lead fades in and out using the volume swell nob.  The timing
       isn't 100% in terms of both guitars playing harmonies.  These are
       from 'The Legacy', though Alex Skolnick doesn't change much of
       the notes on 'First Strike Still Deadly'.  So keep in mind that
       they're approximately what is played & listen to the song for
       timing purposes.  I've re-formatted the solos, enjoy!



|---------------------------------||-----------------0----------------|
|------0---------0----------------||-----0-------0-------0------------|
|--------------------------------*||*--------0---------------0--------|[Gtr.1]
|--5---------7-------------------*||*---------------------------------|
|---------------------------------||--7--------------------------/10--|
|---------------------------------||----------------------------sl----|
|                                                                     |
|                                                                     |
|                                                                     |
|----------------------------------|----------------------------------|
|----------------------------------|----------------------------------|
|----------------------------------|----------------------------------|[Gtr.2]
|----------------------------------|----------------------------------|
|--(19)----------------------------|---------------------------17-15--|
|----------------------------------|----------------------------------|
|                                                                     |
|                                                                     |
|                                                                     |
|----------------------------------|----------------------------------|
|----------------------------------|----------------------------------|
|----------------------------------|----------------------------------|[Gtr.3]
|--(17)----------------------------|---------------------------16-----|
|----------------------------------|------------------------------19--|
|----------------------------------|----------------------------------|




|------------------0---------------|------------------0---------------|
|------0-------0-------0-----------|------0-------0-------0-----------|
|----------0---------------0-------|----------0---------------0-------|[Gtr.1]
|----------------------------------|----------------------------------|
|--9---------------------------/12-|-10-------------------------------|
|-----------------------------sl---|----------------------------------|
|                                                                     |
|                                                                     |
|                                                                     |
|----------------------------------|----------------------------------|
|----------------------------------|----------------------------------|
|----------------------------------|----------------------------------|[Gtr.2]
|----------------------------------|----------------------------------|
|--14-(14)----------------------12-|----------------------------------|
|----------------------------------|-15-14----------------------------|
|                                                                     |
|                                                                     |
|                                                                     |
|----------------------------------|----------------------------------|
|----------------------------------|----------------------------------|
|----------------------------------|----------------------------------|[Gtr.3]
|----------------------------------|----------------------------------|
|--17-(17)-------------------17-15-|-14-14----------------------------|
|----------------------------------|----------------------------------|




|----------------------------------|----------------------------------||
|------0----------0---------0------|-----0---------0------------------||
|----------------------------------|---------------------------------*||[Gtr.1]
|--7---------9----------7----------|-5---------7---------------------*||
|----------------------------------|----------------------------------||
|----------------------------------|----------------------------------||




|----------------------------------|----------------------------------|
|--------------------------10-13---|-12~------------------------------|
|-----------------------11---------|----------------------------------|[Gtr.2]
|-----------------12-14------------|----------------------------------|
|--------12-14-15------------------|----------------------------------|
|--14-15---------------------------|----------------------------------|
|                                                                     |
|                                                                     |
|                                                                     |
|----------------------------------|----------------------------------|
|-----------------------------13---|----------------------------------|
|--------------------11-12-14------|----------------------------------|[Gtr.3]
|-----------12-14-16---------------|----------------------------------|
|--12-14-15------------------------|----------------------------------|
|----------------------------------|----------------------------------|


 [Rhy.Fig.1a] (Clean; let ring)
||------------------0-------------|-----0---------------0-------------|
||------0-------0-------0---------|---------0---------------0---------|
||*---------0---------------------|-------------0---------------0-----|[Gtr.1]
||*-------------------------------|-----------------------------------|
||--7-----------------------5---7-|-8---------------7-----------------|
||--------------------------------|-----------------------------------|




|---------------------------------|-----------------------------------|
|-------------------------10---12-|-12hb__________r-12~---------------|
|---------------------------------|-----------------------------------|[Gtr.2]
|---------------------------------|-----------------------------------|
|---------------------------------|-----------------------------------|
|---------------------------------|-----------------------------------|




|----------0----------------------|--------------------0--------------||
|--------------0-------0-------0--|-----0-------0---------0-----------||
|---------------------------------|---------0----------------0-------*||[Gtr.1]
|---------------------------------|-----------------------------0----*||
|--5___7-----------5-------7------|-5---------------------------------||
|----h----------------------------|-----------------------------------||




|---------------------------------|-------------------15_19-15~-------|
|--10_12--------------------------|-----------------X__)h-------------|
|----h------------14------16------|-14~-----------X__)----------------|[Gtr.2]
|---------------------------------|--------------Rake-----------------|
|---------------------------------|-----------------------------------|
|---------------------------------|-----------------------------------|
|                                                                     |
|                                                                     |
|                                                                     |
|---------------------------------|-------------------17_22-19~-------|
|---------------------------------|-----------------X__)h-------------|
|---------------------------------|---------------X__)----------------|[Gtr.3]
|---------------------------------|--------------Rake-----------------|
|---------------------------------|-----------------------------------|
|---------------------------------|-----------------------------------|




||------------------0-------------|-----0---------------0-------------|
||------0-------0-------0---------|---------0---------------0---------|
||*---------0---------------------|-------------0---------------0-----|[Gtr.1]
||*-------------------------------|-----------------------------------|
||--7-----------------------5---7-|-8---------------7-----------------|
||--------------------------------|-----------------------------------|




|---------------------------------|-----------------------------------|
|--17~---------------------15--17-|-17hb__________r-17~---------------|
|---------------------------------|-----------------------------------|[Gtr.2]
|---------------------------------|-----------------------------------|
|---------------------------------|-----------------------------------|
|---------------------------------|-----------------------------------|
|                                                                     |
|                                                                     |
|                                                                     |
|---------------------------------|-----------------------------------|
|--20~---------------------19-20--|-20fb__________r-20~---------------|
|---------------------------------|-----------------------------------|[Gtr.3]
|---------------------------------|-----------------------------------|
|---------------------------------|-----------------------------------|
|---------------------------------|-----------------------------------|




|----------0----------------------||----------------------------------|
|--------------0-------0-------0--||----------------------------------|
|--------------------------------*||----------------------------------|[Gtr.1]
|--------------------------------*||----------------------------------|
|--5___7-----------5-------7------||----------------------------------|
|----h----------------------------||----------------------------------|




|--19--15-------------------------||----------------------------------|
|----------17---------------------||----------------------------------|
|--------------16--14-------------||----------------------------------|[Gtr.2]
|----------------------17--16-----||----------------------------------|
|------------------------------17-||----------------------------------|
|---------------------------------||-17--15--14--15--12--14--15--14---|
|                                                                     |
|                                                                     |
|                                                                     |
|--22--19-------------------------||----------------------------------|
|----------20---------------------||----------------------------------|
|--------------19-----------------||----------------------------------|[Gtr.3]
|------------------22-21-19-17-16-||----------------------------------|
|---------------------------------||----------------------------------|
|---------------------------------||----------------------------------|


 [Fill 1] (Distorted Guitars)
||---------------------------------|----------------------------------||
||---------------------------------|----------------------------------||
||---------------------------------|----------------------------------||[Gtrs.1&2]
||---------------------------------|----------------------------------||
||--2-------2-------2-------2------|-2-------2-------2-------2--------||
||--0-------0-------0-------0------|-0-------0-------0-------0--------||
    .       .       .       .        .       .       .       .


 [Rhy.Fig.2]
||-------------------|--------------------------------|-------------------||
||-------------------|--------------------------------|-------------------||
||*-9------9--9----7-|-7/10---9---7-------------------|-9------7----9\7---||[Gtrs.1&2]
||*-9------9--9----7-|-7/10---9---7-------------------|-9------7----9\7---||
||--7------7--7----5-|-5/8----7---5___0---------------|-7------5----7\5---||
||-------------------|-sl-----------p-----0---0--0--0-|--------------sl---||
||                                        .   .  .  .                     ||
||                                                                        ||
||                                                                        ||
||-------------------|--------------------------------|-------------------||
||-------------------|--------------------------------|-------------------||
||--7----------------|--------------------------------|------------------*||[Gtrs.1&2]
||--7----------------|-4---4---4---4---4---4---4---4--|-4---4---4--------*||
||--5----------------|-5---5---5---7---7---7---5---5--|-5---7---7---------||
||-------------------|-|___|___|---|___|___|___|___|--|-|___|___|---------||
                           3             |_|_|              3
                                           5


 [Rhy.Fig.2a]
||-------------------|--------------------------------|-------------------||
||-------------------|--------------------------------|-------------------||
||*-9------9--9----7-|-7/10---9---7-------------------|-9------7----9\7---||[Gtrs.1&2]
||*-9------9--9----7-|-7/10---9---7-------------------|-9------7----9\7---||
||--7------7--7----5-|-5/8----7---5___0---------------|-7------5----7\5---||
||--7------7--7----5-|-5/8----------p-----0---0--0--0-|-7------5----7\5---||
||                      sl                .   .  .  .                sl   ||
||                                                                        ||
||                                                                        ||
||-------------------|--------------------------------|-------------------||
||-------------------|--------------------------------|-------------------||
||--7----------------|--------------------------------|------------------*||[Gtrs.1&2]
||--7----------------|-4---4---4---4---4---4---4---4--|-4---4---4--------*||
||--5----------------|-5---5---5---7---7---7---5---5--|-5---7---7---------||
||--5----------------|-|___|___|---|___|___|___|___|--|-|___|___|---------||
                           3             |_|_|              3
                                           5

 [Fill 2]
||-------------------|--------------------------------|-------------------||
||-------------------|--------------------------------|-------------------||
||-------------------|--------------------------------|-------------------||[Gtrs.1&2]
||-------------------|--------------------------------|-------------------||
||--2----------------|-(2)----------------------------|-(2)---------------||
||--0----------------|-(0)----------------------------|-(0)---------------||


 [Rhy.Fig.3]
||--------------------------------|--------------------------------||
||--------------------------------|--------------------------------||
||*-------------------------------|-------------------9/10---9/10--||[Gtr.1]
||*-----------------9\8-------9---|--------------------------------||
||--2---------------7\6-------7---|-------------------7/8----7/8---||
||--0---0---0---0----sl---0-------|-0---0--0--0---0---sl-----sl----||
||      .   .   .         .         .   .  .  .   .                ||
||                                                                 ||
||                                                                 ||
||--------------------------------|--------------------------------||
||--------------------------------|--------------------------------||
||--------------------------------|--------------------------------||[Gtr.2]
||--------------------------------|--------------------------------||
||--2-----------------------------|--------------------------------||
||--0-----------------------------|--------------------------------||




||--------------------------------|--------------------------------||
||--------------------------------|--------------------------------||
||-9------------------------------|-------------------------------*||[Gtr.1]
||---------------------9\8--------|-3-(3)-------------------------*||
||-7-------------------7\6--------|-3-(3)--2-1-0-------------------||
||-----0---0---0---0----sl---0----|--------|_|_|--4-4-3-3-2-2-1-0--||
||     .   .   .   .         .               3    |______|______|  ||
||                                                       8         ||
||                                                                 ||
||--------------------------------|--------------------------------||
||--------------------------------|--------------------------------||
||--------------------------------|--------------------------------||[Gtr.2]
||--------------------------------|--------------------------------||
||--------------------------------|--------------------------------||
||--------------------------------|--------------------------------||


 [Rhy.Fig.3a]
||--------------------------------|---------------------------------||
||--------------------------------|---------------------------------||
||*-------------------------------|-------------------9/10---9/10---||[Gtrs.1&2]
||*-----------------9\8-------9---|---------------------------------||
||--2---------------7\6-------7---|-------------------7/8----7/8----||
||--0---0---0---0----sl---0-------|-0---0--0--0---0---sl-----sl-----||
||      .   .   .         .         .   .  .  .   .                 ||
||                                                                  ||
||                                                                  ||
||--------------------------------|---------------------------------||
||--------------------------------|---------------------------------||
||--9-----------------------------|--------------------------------*||[Gtr.1]
||----------------------9\8-------|-3-(3)--------------------------*||
||--7-------------------7\6-------|-3-(3)--2---1---0----------------||
||-----0---0---0---0-----sl--0----|--------|___|___|---4--3--2--1---||
||     .   .   .   .         .                 3       |________|   ||
||                                                          |       ||
||                                                          4       ||
||--------------------------------|---------------------------------||
||--------------------------------|---------------------------------||
||-9------------------------------|--------------------------------*||[Gtr.2]
||---------------------9\8--------|--------------------------------*||
||-7-------------------7\6--------|-6-(6)--5---4---3----------------||
||-----0---0---0---0----sl---0----|--------|___|___|---7--6--5--4---||
       .   .   .   .         .                 3       |________|
                                                            |
                                                            4


Repeat Rhy.Fig.3a [2x]


 [Rhy.Fig.3b]                                            --No Palm-muting--
||----------------|------------------|------------------|-------------------||
||----------------|------------------|------------------|-------------------||
||----------------|------------------|------------------|---------%---------||[Gtr.1]
||-3-(3)----------|------------------|------------------|-------------------||
||-3-(3)----------|-2--1--0----------|-3-2-1-0----------|-------------------||
||----------------|-|__|__|--4-3-2-1-|-|_____|-4-3-2-1--|-------------------||
||                     3     |_____|      |    |_____|                      ||
||                              |         4       |                         ||
||                              4                 4      --No Palm-muting-- ||
||----------------|------------------|------------------|-------------------||
||----------------|------------------|------------------|-------------------||
||----------------|------------------|------------------|---------%---------||[Gtr.2]
||----------------|------------------|------------------|-------------------||
||-6-(6)----------|-5--4--3----------|-6-5-4-3----------|-------------------||
||----------------|-|__|__|--7-6-5-4-|-|_____|-7-6-5-4--|-------------------||
                       3     |_____|      |    |_____|
                                |         4       |
                                4                 4

 [Rhy.Fig.4]
||--------------------------------|---------------------------------|
||--------------------------------|---------------------------------|
||*-------------------------------|---------------------------------|[Gtr.1]
||*-------------------------------|---------6---7---9---7---6-------|
||--2(2)--------------------------|-7---8-----------------------8---|
||--0(0)--0---0--0--0---0---0---0-|---------------------------------|
||        .   .  .  .   .   .   .                                   |
||                                                                  |
||                                                                  |
||--------------------------------|---------------------------------|
||--------------------------------|---------------------------------|
||*-------------------------------|---------------------------------|[Gtr.2]
||*-------------------------------|---------9---10--12--10---9------|
||--2(2)--------------------------|-11--12----------------------12--|
||--0(0)--0---0--0--0---0---0---0-|---------------------------------|
          .   .  .  .   .   .   .




|---------------------------------|---------------------------------|
|---------------------------------|---------------------------------|
|---------------------------------|---------------------------------|[Gtr.1]
|---------------------------------|-9---12--8---11--7---10--6-------|
|--7~-----------------------------|-----------------------------8---|
|---------0---0--0--0---0---0---0-|---------------------------------|
|         .   .  .  .   .   .   .                                   |
|                                                                   |
|                                                                   |
|---------------------------------|---------------------------------|
|---------------------------------|---------------------------------|
|---------------------------------|---------------------------------|[Gtr.2]
|---------------------------------|-12--15--11--14--10--13--9-------|
|--11~----------------------------|-----------------------------12--|
|---------0---0--0--0---0---0---0-|---------------------------------|
|         .   .  .  .   .   .   .                                   |
|                                                                   |
|                                                                   |
|---------------------------------|---------------------------------|
|---------------------------------|---------------------------------|
|---------------------------------|---------------------------------|[Gtr.1]
|---------------------------------|---------6---7---9---7---6-------|
|--7~-----------------------------|-7---8-----------------------8---|
|---------0---0--0--0---0---0---0-|---------------------------------|
|         .   .  .  .   .   .   .                                   |
|                                                                   |
|                                                                   |
|---------------------------------|---------------------------------|
|---------------------------------|---------------------------------|
|---------------------------------|---------------------------------|[Gtr.2]
|---------------------------------|---------9---10--12--10--9-------|
|--11~----------------------------|-11--12----------------------12--|
|---------0---0--0--0---0---0---0-|---------------------------------|
          .   .  .  .   .   .   .




|---------------------------------|->--------->---------->----------||
|---------------------------------|->--------->---------->----------||
|---------------------------------|-9---------7---------10----------||[Gtr.1]
|---------------------------------|-9---------7---------10----------||
|--7~-----------------------------|-7---------5---------8-----------||
|---------0---0--0--0---0---0---0-|-7---------5---------8-----------||
|         .   .  .  .   .   .   .                                   ||
|                                                                   ||
|                                                                   ||
|---------------------------------|->--------->---------->----------||
|---------------------------------|->--------->---------->----------||
|---------------------------------|-9---------7---------10----------||[Gtr.2]
|---------------------------------|-9---------7---------10----------||
|--11~----------------------------|-7---------5---------8-----------||
|---------0---0--0--0---0---0---0-|---------------------------------||
          .   .  .  .   .   .   .




|---------------------------------|---------------------------------|
|---------------------------------|---------------------------------|
|--9------------------------------|---------------------------------|[Gtr.1]
|--9------------------------------|---------6---7---9---7---6-------|
|--7------------------------------|-7---8-----------------------8---|
|--7------0---0--0--0---0---0---0-|---------------------------------|
|         .   .  .  .   .   .   .                                   |
|                                                                   |
|                                                                   |
|---------------------------------|---------------------------------|
|---------------------------------|---------------------------------|
|--9------------------------------|---------------------------------|[Gtr.2]
|--9------------------------------|---------9---10--12--10---9------|
|--7------------------------------|-11--12----------------------12--|
|---------0---0--0--0---0---0---0-|---------------------------------|
|         .   .  .  .   .   .   .                                   |
|                                                                   |
|                                                                   |
|---------------------------------|---------------------------------|
|---------------------------------|---------------------------------|
|---------------------------------|---------------------------------|[Gtr.1]
|---------------------------------|-9---12--8---11--7---10--6-------|
|--7~-----------------------------|-----------------------------8---|
|---------0---0--0--0---0---0---0-|---------------------------------|
|         .   .  .  .   .   .   .                                   |
|                                                                   |
|                                                                   |
|---------------------------------|---------------------------------|
|---------------------------------|---------------------------------|
|---------------------------------|---------------------------------|[Gtr.2]
|---------------------------------|-12--15--11--14--10--13--9-------|
|--11~----------------------------|-----------------------------12--|
|---------0---0--0--0---0---0---0-|---------------------------------|
|         .   .  .  .   .   .   .                                   |
|                                                                   |
|                                                                   |
|---------------------------------|---------------------------------|
|---------------------------------|---------------------------------|
|---------------------------------|---------------------------------|[Gtr.1]
|---------------------------------|---------6---7---9---7---6-------|
|--7~-----------------------------|-7---8-----------------------8---|
|---------0---0--0--0---0---0---0-|---------------------------------|
|         .   .  .  .   .   .   .                                   |
|                                                                   |
|                                                                   |
|---------------------------------|---------------------------------|
|---------------------------------|---------------------------------|
|---------------------------------|---------------------------------|[Gtr.2]
|---------------------------------|---------9---10--12--10--9-------|
|--11~----------------------------|-11--12----------------------12--|
|---------0---0--0--0---0---0---0-|---------------------------------|
          .   .  .  .   .   .   .




|---------------------------------|--->------>------>----->---------||
|---------------------------------|--->------>------>----->---------||
|---------------------------------|--12-----11-----10-----9(*)-----*||[Gtr.1]
|---------------------------------|--12-----11-----10-----9(*)-----*||
|--7~-----------------------------|--10-----9------8------7(*)------||
|---------0---0--0--0---0---0---0-|--10-----9------8------7(*)------||
|         .   .  .  .   .   .   .                                   ||
|                                                                   ||
|                                                                   ||
|---------------------------------|--->------>------>----->---------||
|---------------------------------|--->------>------>----->---------||
|---------------------------------|--12-----11-----10-----9(*)-----*||[Gtr.2]
|---------------------------------|--12-----11-----10-----9(*)-----*||
|--11~----------------------------|--10-----9------8------7(*)------||
|---------0---0--0--0---0---0---0-|---------------------------------||
          .   .  .  .   .   .   .


(***) & (****) = Pickup notes; upon repeat play this chord instead of
                 low E5 chord.


Repeat Rhy.Fig.4 [1x]
Repeat Rhy.Fig.3 [2x]
Repeat Rhy.Fig.4 [1x]
Repeat Rhy.Fig.3 [2x]
Repeat Rhy.Fig.4 [1x]


 [Rhy.Fig.5](**)
||-------------------|-------------------|-------------------|------------------|
||-------------------|-------------------|-------------------|------------------|
||*------------------|-------------------|-------------------|------------------|[Gtr.1]
||*------------------|----------4--------|-3(3)--------3-----|-4----------------|
||--2---X\-----------|/5--------2--------|-1(1)---1"---1---1"|-2-------5--------|
||--0---X\---0"------|/3-----------------|-------------------|---------3___0----|
||       sl  .       sl                           .        .             p      |
||                                                                              |
||                                                                              |
||-------------------|-------------------|-------------------|------------------|
||-------------------|-------------------|-------------------|------------------|
||*------------------|-------------------|-------------------|------------------|[Gtr.2]
||*-9----------------|/12-------16-------|-15(15)------15----|-16------12\------|
||--7--------7"------|/10-------14-------|-13(13)-13"--13-13"|-14------10\------|
||--0----------------|sl-----------------|-------------------|-----------sl-----|
             .                                     .       .




|--------------------|-------------------|-------------------|------------------||
|--------------------|-------------------|-------------------|------------------||
|--------------------|-------------------|-------------------|-----------------*||[Gtr.1]
|--------------------|----------4--------|-3(3)--------3-----|-4---------------*||
|--2---X\------------|/5--------2--------|-1(1)---1"---1---1"|-2--------5-------||
|--0---X\---0"-------|/3-----------------|-------------------|----------3-------||
|       sl  .        sl                           .        .                    ||
|                                                                               ||
|                                                                               ||
|--------------------|-------------------|-------------------|------------------||
|--------------------|-------------------|-------------------|------------------||
|--------------------|-------------------|-------------------|-----------------*||[Gtr.2]
|--9-----------------|/12-------16-------|-15(15)------15----|-16-------12-----*||
|--7--------7"-------|/10-------14-------|-13(13)-13"--13-13"|-14-------10------||
|--0-----------------|sl-----------------|-------------------|------------------||
            .                                      .       .


(**) = Approximate; listen to the song for correct timing, etc.


Repeat Rhy.Fig.5 [1x]


 [Rhy.Fig.6](**) (Listen to song; sub w/Fill 3)
||-------------------|-------------------|-------------------|-------------------|
||-------------------|-------------------|-------------------|-------------------|
||*------------------|-------------------|-------------------|-------------------|[Gtr.1]
||*------------------|-------9----8(8)---|----------8--------|-9-----------------|
||--7----------------|/10----7----6(6)---|-6"-------6--6"----|-7-------10\-------|
||--5--------5"------|/8-----------------|-------------------|----------8\-------|
||           .       sl                    .           .                 sl      |
||                                                                               |
||                                                                               |
||-------------------|-------------------|-------------------|-------------------|
||-------------------|-------------------|-------------------|-------------------|
||*------------------|-------------------|-------------------|-------------------|[Gtr.2]
||*-14---------------|/17----16---15(15)-|---------15--------|-16------12\-------|
||--12-------12"-----|/15----14---13(13)-|-13"-----13--13"---|-14------10\-------|
||-------------------|sl-----------------|-------------------|-----------sl------|
              .                             .           .


(**) = Approximate; listen to the song for correct timing, etc.


 [Fill 3] (w/Rhy.Fig.6)
||-----------------------------------|-----------------------------------||
||-----------------------------------|-----------------------------------||
||*----------------------------------|----------------------------------*||[Gtr.3]
||*-----------5___7------------5___7-|----------------------------------*||
||--0--0--0-----h-----0--0--0----h---|-0--0--0--5___7---0--0--0--2___3---||
||-----------------------------------|------------h----------------h-----||
    .  .  .           .  .  .          .  .  .          .  .  .




(Fig.6 con't)
|--------------------|-------------------|-------------------|-------------------||
|--------------------|-------------------|-------------------|-------------------||
|--------------------|-------------------|-------------------|------------------*||[Gtr.1]
|--------------------|-------9----8(8)---|-------------------|-9----------------*||
|--\7----------------|/10----7----6(6)---|-------------------|-7--------8--------||
|--\5--------5"------|/8-----------------|-6"----------------|----------6--------||
|  sl        .       sl                    .                                     ||
|                                                                                ||
|                                                                                ||
|--------------------|-------------------|-------------------|-------------------||
|--------------------|-------------------|-------------------|-------------------||
|--------------------|-------------------|-------------------|------------------*||[Gtr.2]
|--\14---------------|/17----16---15(15)-|-------------------|-16\--------------*||
|--\12-------12"-----|/15----14---13(13)-|-13"---------------|-14\------8--------||
|--sl----------------|sl-----------------|-------------------|---sl-----6--------||
              .                             .


Repeat Rhy.Fig.6 (w/Fill 3) [1x]


 [Rhy.Fig.7]
||---------------------------------|-------------------------------||
||---------------------------------|-------------------------------||
||*--------------------------------|-----------------9-------------||[Gtr.1]
||*-------------------------8------|-----------------9------8------||
||--7---5---7-5-5---5---7---8------|-7---5---7-5-5---7------8------||
||--0---0---0-0-0---0---0---6------|-0---0---0-0-0----------6------||
||  .   .   . . .   .   .            .   .   . . .                 ||
||                                                                 ||
||                                                                 ||
||---------------------------------|-------------------------------||
||---------------------------------|-------------------------------||
||*--------------------------------|-----------------9-------------||[Gtr.2]
||*-------------------------8------|-----------------9------8------||
||--7---5---7-5-5---5---7----------|-7---5---7-5-5---7------8------||
||--0---0---0-0-0---0---0----6___0-|-0---0---0-0-0----------6___0--||
    .   .   . . .   .   .      p     .   .   . . .            p




||---------------------------------|-------------------------------||
||---------------------------------|-------------------------------||
||---------------------------------|------------------------------*||[Gtr.1]
||-------------------------8-------|------------------------------*||
||--7---5---7-5-5---5---7--8-------|-7---5---7-5-5----7------------||
||--0---0---0-0-0---0---0--6-------|-0---0---0-0-0----|----6----5--||
||  .   .   . . .   .   .            .   .   . . .    |____|____|  ||
||                                                         3       ||
||                                                                 ||
||---------------------------------|-------------------------------||
||---------------------------------|-------------------------------||
||---------------------------------|------------------------------*||[Gtr.2]
||-------------------------8-------|------------------5-----------*||
||--7---5---7-5-5---5---7----------|-7---5---7-5-5----|----4----3--||
||--0---0---0-0-0---0---0----6___0-|-0---0---0-0-0----|____|____|--||
    .   .   . . .   .   .      p     .   .   . . .         3


Repeat Rhy.Fig.7 [1x]


[Rhy.Fig.7a]
|-------------|-------------|-------------|-------------|-------------|
|-------------|-------------|-------------|-------------|-------------|
|*------------|-------------|-------------|-------------|-------------|[Gtr.1]
|*------------|-------------|-------------|-------------|-8-----------|
|---7----5----|-7-5-5--5--7-|-7-5-5--5--7-|-7-5-5--5--7-|-8-----------|
|---0----0----|-0-0-0--0--0-|-0-0-0--0--0-|-0-0-0--0--0-|-6-----------|
|   .    .      . . .  .  .   . . .  .  .   . . .  .  .               |
|                                                                     |
|                                                                     |
|-------------|-------------|-------------|-------------|-------------|
|-------------|-------------|-------------|-------------|-------------|
|*------------|-------------|-------------|-------------|-------------|[Gtr.2]
|*------------|-------------|-------------|-------------|-8-----------|
|---7----5----|-7-5-5--5--7-|-7-5-5--5--7-|-7-5-5--5--7-|-------------|
|---0----0----|-0-0-0--0--0-|-0-0-0--0--0-|-0-0-0--0--0-|----6___0----|
    .    .      . . .  .  .   . . .  .  .   . . .  .  .        p




|-------------|-------------|-------------|-------------|-------------|
|-------------|-------------|-------------|-------------|-------------|
|-------------|-------------|-------------|-------------|-9-----------|[Gtr.1]
|-------------|-------------|-------------|-------------|-9---8-------|
|---7----5----|-7-5-5--5--7-|-7-5-5--5--7-|-7---5---5---|-7---8-------|
|---0----0----|-0-0-0--0--0-|-0-0-0--0--0-|-0---0---0---|-----6-------|
|   .    .      . . .  .  .   . . .  .  .   .   .   .                 |
|                                                                     |
|                                                                     |
|-------------|-------------|-------------|-------------|-------------|
|-------------|-------------|-------------|-------------|-------------|
|-------------|-------------|-------------|-------------|-9-----------|[Gtr.2]
|-------------|-------------|-------------|-------------|-9---8-------|
|---7----5----|-7-5-5--5--7-|-7-5-5--5--7-|-7---5---5---|-7---8-------|
|---0----0----|-0-0-0--0--0-|-0-0-0--0--0-|-0---0---0---|-----6___0---|
    .    .      . . .  .  .   . . .  .  .   .   .   .           p




|-------------|-------------|-------------|-------------|-------------|
|-------------|-------------|-------------|-------------|-------------|
|-------------|-------------|-------------|-------------|-------------|[Gtr.1]
|-------------|-------------|-------------|-------------|-8-----------|
|---7----5----|-7-5-5--5--7-|-7-5-5--5--7-|-7-5-5--5--7-|-8-----------|
|---0----0----|-0-0-0--0--0-|-0-0-0--0--0-|-0-0-0--0--0-|-6-----------|
|   .    .      . . .  .  .   . . .  .  .   . . .  .  .               |
|                                                                     |
|                                                                     |
|-------------|-------------|-------------|-------------|-------------|
|-------------|-------------|-------------|-------------|-------------|
|-------------|-------------|-------------|-------------|-9-----------|[Gtr.2]
|-------------|-------------|-------------|-------------|-9---8-------|
|---7----5----|-7-5-5--5--7-|-7-5-5--5--7-|-7-5-5--5--7-|-7---8-------|
|---0----0----|-0-0-0--0--0-|-0-0-0--0--0-|-0-0-0--0--0-|-----6___0---|
    .    .      . . .  .  .   . . .  .  .   . . .  .  .         p




|-------------|-------------|-------------|-------------|-------------|
|-------------|-------------|-------------|-------------|-------------|
|-------------|-------------|-------------|-------------|------------*|[Gtr.1]
|-------------|-------------|-------------|-------------|------------*|
|---7----5----|-7-5-5--5--7-|-7-5-5--5--7-|-7---5---5---|-7-----------|
|---0----0----|-0-0-0--0--0-|-0-0-0--0--0-|-0---0---0---|-|---6---5---|
|   .    .      . . .  .  .   . . .  .  .   .   .   .     |___|___|   |
|                                                             3       |
|                                                                     |
|-------------|-------------|-------------|-------------|-------------|
|-------------|-------------|-------------|-------------|-------------|
|-------------|-------------|-------------|-------------|------------*|[Gtr.2]
|-------------|-------------|-------------|-------------|-5----------*|
|---7----5----|-7-5-5--5--7-|-7-5-5--5--7-|-7---5---5---|-|---4---3---|
|---0----0----|-0-0-0--0--0-|-0-0-0--0--0-|-0---0---0---|-|___|___|---|
    .    .      . . .  .  .   . . .  .  .   .   .   .         3


Repeat Rhy.Fig.7 (w/Fill 4) [2x]


[Fill 4](**)
|----------------|---------------|-----------------|
|----------------|---------------|-----------------|
|----------------|---------------|-----------------|[Gtr.1]
|----------------|---------------|-----------------|
|--7-------------|-6-------------|-5---------------|
|--|----6----5---|-|----5----4---|-|----4----3-----|
|  |____|____|     |____|____|     |____|____|     |
|       3               3               3          |
|                                                  |
|----------------|---------------|-----------------|
|----------------|---------------|-----------------|
|----------------|---------------|-----------------|[Gtr.2]
|--5-------------|-4-------------|-3---------------|
|--|----4----3---|-|----3----2---|-|----2----1-----|
|--|____|____|---|-|____|____|---|-|____|____|-----|
        3               3               3


(**) = Substitute this ending on the last part of
       Rhy.Fig.7.


 [Rhy.Fig.8]
||--------------|--------------|--------------|--------------|--------------|
||--------------|--------------|--------------|--------------|--------------|
||*-------------|--------------|--------------|--------------|--------------|[Gtr.1]
||*-------------|--------------|--------------|---------4----|--7----9------|
||--2--2--2-2-2-|-2--2--2-2-2--|-2--2--2-2-2--|-2---2---2----|--5----7------|
||--0--0--0-0-0-|-0--0--0-0-0--|-0--0--0-0-0--|-0---0--------|--------------|
||  .  .  . . .   .  .  . . .    .  .  . . .    .   .                       |
||                                                                          |
||                                                                          |
||--------------|--------------|--------------|--------------|--------------|
||--------------|--------------|--------------|--------------|--------------|
||*-------------|--------------|--------------|--------------|--------------|[Gtr.2]
||*-------------|--------------|--------------|--------------|--7----9------|
||--7--7--7-7-7-|-7--7--7-7-7--|-7--7--7-7-7--|-7---7---9----|--5----7------|
||--0--0--0-0-0-|-0--0--0-0-0--|-0--0--0-0-0--|-0---0---7----|--------------|
    .  .  . . .   .  .  . . .    .  .  . . .    .   .




|---------------|--------------|--------------|--------------|--------------|
|---------------|--------------|--------------|--------------|--------------|
|---------------|--------------|--------------|-4/5-----5----|------4-------|[Gtr.1]
|---------------|--------------|--------------|-2/3-----3----|------2-------|
|--2--2--2-2-2--|-2--2--2-2-2--|-2-2-2--2--2--|-sl-----------|--------------|
|--0--0--0-0-0--|-0--0--0-0-0--|-0-0-0--0--0--|--------------|--------------|
|  .  .  . . .    .  .  . . .    . . .  .  .                                |
|                                                                           |
|                                                                           |
|---------------|--------------|--------------|--------------|--------------|
|---------------|--------------|--------------|--------------|--------------|
|---------------|--------------|--------------|--------------|--------------|[Gtr.2]
|---------------|--------------|--------------|-9/10----10---|------9-------|
|--7--7--7-7-7--|-7--7--7-7-7--|-7-7-7--7--7--|-7/8-----8----|------7-------|
|--0--0--0-0-0--|-0--0--0-0-0--|-0-0-0--0--0--|-sl-----------|--------------|
   .  .  . . .    .  .  . . .    . . .  .  .




|---------------|--------------|--------------|--------------|--------------|
|---------------|--------------|--------------|--------------|--------------|
|---------------|--------------|--------------|--------------|--------------|[Gtr.1]
|---------------|--------------|--------------|---------4----|--7----9------|
|--2--2--2-2-2--|-2--2--2-2-2--|-2--2--2-2-2--|-2---2---2----|--5----7------|
|--0--0--0-0-0--|-0--0--0-0-0--|-0--0--0-0-0--|-0---0--------|--------------|
|  .  .  . . .    .  .  . . .    .  .  . . .    .   .                       |
|                                                                           |
|                                                                           |
|---------------|--------------|--------------|--------------|--------------|
|---------------|--------------|--------------|--------------|--------------|
|---------------|--------------|--------------|--------------|--------------|[Gtr.2]
|---------------|--------------|--------------|--------------|--7----9------|
|--7--7--7-7-7--|-7--7--7-7-7--|-7--7--7-7-7--|-7---7---9----|--5----7------|
|--0--0--0-0-0--|-0--0--0-0-0--|-0--0--0-0-0--|-0---0---7----|--------------|
   .  .  . . .    .  .  . . .    .  .  . . .    .   .




|---------------|--------->----|--------------|--->----------|--------------||
|---------------|--------->----|--------------|--->----------|--------------||
|---------------|---------5----|-(5)----------|---5----------|-(5)---------*||[Gtr.1]
|---------------|---------3----|-(3)----------|---3----------|-(3)---------*||
|--2--2--2-2-2--|-2---2---3----|-(3)----------|---3----------|-(3)----------||
|--0--0--0-0-0--|-0---0--------|--------------|--------------|--------------||
|  .  .  . . .    .   .                                                     ||
|                                                                           ||
|                                                                           ||
|---------------|---------->---|--------------|---->---------|--------------||
|---------------|---------->---|--------------|---->---------|--------------||
|---------------|---------10---|-(10)---------|---10---------|-(10)--------*||[Gtr.2]
|---------------|---------10---|-(10)---------|---10---------|-(10)--------*||
|--7--7--7-7-7--|-7---7---8----|-(8)----------|---8----------|-(8)----------||
|--0--0--0-0-0--|-0---0---8----|-(8)----------|---8----------|-(8)----------||
   .  .  . . .    .   .


Repeat Rhy.Fig.8 [3x]


[Lead #2] (w/Rhy.Fig.8 2x)h p              h p                h p
|------151915-----|-----152015------|----151915-------|-----152015------|
|----17--h-p-17---|---17------17----|--17-------17----|---17------17----|
|--16----------16-|-16----------16--|16-----------16--|-16----------16--|[Gtr.3]
|-----------------|-----------------|-----------------|-----------------|
|-----------------|-----------------|-----------------|-----------------|
|-----------------|-----------------|-----------------|-----------------|
  (Sweeps)         sim.              sim.              sim.




  --------Triplets, fast!--------      pp
|-191715-171514---|-151412-141210---|12108-p----------|-----------------|
|--|_|_|--|_|_|---|--|_|_|--|_|_|---|-----128-10fb__r~|-(10)------------|
|----3------3-----|----3------3-----|-----------------|-----------------|[Gtr.3]
|-----------------|-----------------|-----------------|-----------------|
|-----------------|-----------------|-----------------|-----------------|
|-----------------|-----------------|-----------------|-----------------|




  ------Pinched harmonics------
|---h-p----h-p----|--hp-------------|-----------------|-----------------|
|-121312-101210---|-8108-7_8_7------|-----------------|-----------------|
|-----------------|-------h-p----9--|-9fb______r-7-9~-|-(9)-------------|[Gtr.3]
|-----------------|-----------------|-----------------|-----------------|
|-----------------|-----------------|-----------------|-----------------|
|-----------------|-----------------|-----------------|-----------------|
|                                                                       |
|                                                                       |
|                                                                       |
|--10_8_7---------|-----------------|-----------------|-----------------|
|----p-p--10_8_7--|-----------------|-----------------|-----------------|
|-----------p-p---|-9_7_5-----------|-----------------|-----------------|[Gtr.3]
|-----------------|--p-p--9_7_5-----|-----9---999-7-9-|-7----------9----|
|-----------------|--------p-p--8~--|-(8)-------------|-----10-9--------|
|-----------------|------------p.h.-|-----------------|-----------------|
|                                         .   ... . .   .    . .   .    |
|                                                                       |
|                                                                       |
|-----------------|-----------------|-----------------|-----------------|
|-----------------|-----------------|-----------------|----------7------|
|-----------------|-----------------|-----------------|---910910--10hbr-|[Gtr.3]
|--9-9-9---7-9----|-7_9_10-7_9_10---|-9_10_12-9_10_12-|-12--------------|
|-----------------|--h-h----h-h-----|--h--p----h--h---|-----------------|
|-----------------|-----------------|-----------------|-----------------|
   . . .   . .



                    ---Fast ascending approaching the end of the solo---
|-----------------|/10_8_7-/12_10_8-|/14_12_10--------|-/141210-/151412-|
|-----------------|sl-p-p--sl-p--p--|sl-p--p--12_10_8-|sl--p-p-sl--p-p--|
|--(10)---8---10~-|-----------------|-----------p--p--|-----------------|[Gtr.3]
|-----------------|-----------------|-----------------|-----------------|
|-----------------|-----------------|-----------------|-----------------|
|-----------------|-----------------|-----------------|-----------------|
|                                                                       |
|                                                                       |
|                                                                       |
|--12/19---15-----|-19-20-20fb__r~--|-19~-(19)--------|-(19)\-----------|
|---sl--------17--|-----------------|-----------------|-----sl----------|
|-----------------|-----------------|-----------------|-----------------|[Gtr.3]
|-----------------|-----------------|-----------------|-----------------|
|-----------------|-----------------|-----------------|-----------------|
|-----------------|-----------------|-----------------|-----------------|


 [Rhy.Fig.9]
||----------------------------------|----------------------------------||
||----------------------------------|----------------------------------||
||*---------------------------------|----------------------------------||[Gtrs.1&2]
||*-9---9\7-9---------------------9-|--------------------9---9---------||
||--7---7\5-7-------------5-------7-|------------5-------7---7---------||
||-------sl-----0--0--7-------0-----|--0--0--7-------0-----------0-----||
||              .  .  .   .   .        .  .  .   .   .   .   .   .     ||
||                                                                     ||
||                                                                     ||
||----------------------------------|----------------------------------||
||----------------------------------|----------------------------------||
||----------------------------------|---------------------------------*||[Gtrs.1&2]
||------9/10---------------------10-|-(10)----------------------------*||
||------7/8----------------------8--|-(8)------------------------------||
||--0---sl--------------------------|----------------------------------||
    .


 [Rhy.Fig.9a]
||----------------------------------|----------------------------------||
||----------------------------------|----------------------------------||
||*---------------------------------|----------------------------------||[Gtrs.1&2]
||*-9\7-9-------------------------9-|--------------------9---9---------||
||--7\5-7-----------------5-------7-|------------5-------7---7---------||
||---sl---------0--0--7-------0-----|--0--0--7-------0-----------0-----||
||              .  .  .   .   .        .  .  .   .   .   .   .   .     ||
||                                                                     ||
||                                                                     ||
||----------------------------------|----------------------------------||
||----------------------------------|----------------------------------||
||----------------------------------|---------------------------------*||[Gtrs.1&2]
||------9/10---------------------10-|-(10)----------------------------*||
||------7/8----------------------8--|-(8)------------------------------||
||--0---sl--------------------------|----------------------------------||
    .


Repeat Rhy.Fig.9a [1x]


 [Fill 5]
||----------------------------------|----------------------------------||
||----------------------------------|----------------------------------||
||*---------------------------------|----------------------------------||[Gtrs.1&2]
||*-9\7-9-------------------------9-|----------------------------------||
||--7\5-7-----------------5-------7-|------------/X\-------------------||
||---sl---------0--0--7-------0-----|-/X\--------/X\--------X\---------||
                .  .  .   .   .       -----Various Slides-----


 [Rhy.Fig.10]
||------------------------|--------------------------||
||------------------------|--------------------------||
||*-----------------------|--------------------------||[Gtrs.1&2]
||*-----------------------|--------------------------||
||--3---3---3---3---3---3-|--------------------------||
||--|_________|_________|-|-4---4---4---4---4---4----||
||            6             |_________|_________|    ||
||                                    6              ||
||                                                   ||
||------------------------|--------------------------||
||------------------------|--------------------------||
||------------------------|-------------------------*||[Gtrs.1&2]
||------------------------|-------------------------*||
||--3---3---3---3---3---3-|--------------------------||
||--|_________|_________|-|-2---2---2---2---2---2----||
              6             |_________|_________|
                                      6


Repeat Rhy.Fig.10 [1x]


 [Rhy.Fig.10a]
||------------------------|--------------------------||
||------------------------|--------------------------||
||*-----------------------|--------------------------||[Gtr.1]
||*-----------------------|--------------------------||
||--3---3---3---3---3---3-|--------------------------||
||--|_________|_________|-|-4---4---4---4---4---4----||
||            6             |_________|_________|    ||
||                                    6              ||
||                                                   ||
||------------------------|--------------------------||
||------------------------|--------------------------||
||*-----------------------|--------------------------||[Gtr.2]
||*-2---2---2---2---2---2-|--------------------------||
||--|_________|_________|-|-3---3---3---3---3---3----||
||------------6-----------|-|_________|_________|----||
                                      6



||------------------------|--------------------------||
||------------------------|--------------------------||
||------------------------|-------------------------*||[Gtr.1]
||------------------------|-------------------------*||
||--3---3---3---3---3---3-|--------------------------||
||--|_________|_________|-|-2---2---2---2---2---2----||
||            6             |_________|_________|    ||
||                                    6              ||
||                                                   ||
||------------------------|--------------------------||
||------------------------|--------------------------||
||------------------------|-------------------------*||[Gtr.2]
||-2---2---2---2---2---2--|-------------------------*||
||-|_________|_________|--|-1---1---1---1---1---1----||
||-----------6------------|-|_________|_________|----||
                                      6


[Rhy.Fig.10b]
|-----------------------------|-----------------------------|
|-----------------------------|-----------------------------|
|-----------------------------|-----------------------------|[Gtrs.1&2]
|-5-------------------5-------|-----------5-----------------|
|-3---------6---------3-------|-4---------3---------6-------|
|-----------4-----------------|-2-------------------4-------|
|                                                           |
|                                                           |
|                              Segue into next riff . . . . |
|-----------------------------|-----------------------------|
|-----------------------------|-----------------------------|
|-----------------------------|-----------------------------|[Gtrs.1&2]
|--5--------------------------|-----------------------------|
|--3---------4---------2------|--3---------4---------5------|
|------------2---------0------|--1---------2---------3------|


 [Rhy.Fig.3c]
||--------------------------------|--------------------------------||
||--------------------------------|--------------------------------||
||*-------------------------------|-------------------9/10---9/10--||[Gtr.1]
||*-----------------9\8-------9---|--------------------------------||
||--2---------------7\6-------7---|-------------------7/8----7/8---||
||--0---0---0---0----sl---0-------|-0---0--0--0---0---sl-----sl----||
||      .   .   .         .         .   .  .  .   .                ||
||                                                                 ||
||                                                                 ||
||--------------------------------|--------------------------------||
||--------------------------------|--------------------------------||
||--------------------------------|--------------------------------||[Gtr.2]
||--------------------------------|--------------------------------||
||--2-----------------------------|--------------------------------||
||--0-----------------------------|--------------------------------||




||--------------------------------|--------------------------------||
||--------------------------------|--------------------------------||
||-9------------------------------|-------------------------------*||[Gtr.1]
||---------------------9\8--------|-3-(3)-------------------------*||
||-7-------------------7\6--------|-3-(3)--2-1-0-------------------||
||-----0---0---0---0----sl---0----|--------|_|_|--4-4-3-3-2-2-1-0--||
||     .   .   .   .         .               3    |______|______|  ||
||                                                       8         ||
||                                                                 ||
||--------------------------------|--------------------------------||
||--------------------------------|--------------------------------||
||--------------------------------|--------------------------------||[Gtr.2]
||--------------------------------|--------------------------------||
||--------------------------------|--------------------------------||
||--------------------------------|--------X\----------------------||
                                           sl




||--------------------------------|--------------------------------||
||--------------------------------|--------------------------------||
||*-------------------------------|-------------------9/10---9/10--||[Gtrs.1&2]
||*-----------------9\8-------9---|--------------------------------||
||--2---------------7\6-------7---|-------------------7/8----7/8---||
||--0---0---0---0----sl---0-------|-0---0--0--0---0---sl-----sl----||
||      .   .   .         .         .   .  .  .   .                ||
||                                                                 ||
||                                                                 ||
||--------------------------------|--------------------------------||
||--------------------------------|--------------------------------||
||-9------------------------------|-------------------------------*||[Gtr.1]
||---------------------9\8--------|-------------------------------*||
||-7-------------------7\6--------|--------------------------------||
||-----0---0---0---0----sl---0----|-7hb______r~-----(7)~-----------||
||     .   .   .   .         .                                     ||
||                                                                 ||
||                                                                 ||
||--------------------------------|--------------------------------||
||--------------------------------|--------------------------------||
||-9------------------------------|-------------------------------*||[Gtr.2]
||---------------------9\8--------|-------------------------------*||
||-7-------------------7\6--------|--------------------------------||
||-----0---0---0---0----sl---0----|-2hb______r~-----(2)~-----------||
       .   .   .   .         .


Repeat Rhy.Fig.3a            [2x]
Repeat Rhy.Fig.3b            [1x]
Repeat Rhy.Fig.4 (w/Fill 6)  [1x]


[Fill 6]                                              rit. . . . . . . . . .
|--->--------------|--->--------------|-->---------------|------------------|
|--->------->---->-|--->------->---->-|-->------->---->--|------------------|
|--12------11---10-|--12------11---10-|-12------11---10--|-9"---------------|[Gtr.1]
|--12------11---10-|--12------11---10-|-12------11---10--|-9"---------------|
|--10------9----8--|--10------9----8--|-10------9----8---|-7"---------------|
|--10------9----8--|--10------9----8--|-10------9----8---|-7"---------------|
|                                                                           |
|                                                                           |
|                                                     rit. . . . . . . . . .|
|--->--------------|-->---------------|-->---------------|------------------|
|--->------->---->-|-->------->---->--|-->------->---->--|------------------|
|--12------11---10-|-12------11---10--|-12------11---10--|-9"---------------|[Gtr.2]
|--12------11---10-|-12------11---10--|-12------11---10--|-9"---------------|
|--10------9----8--|-10------9----8---|-10------9----8---|-7"---------------|
|------------------|------------------|------------------|------------------|


[Free Time]
|------------------|------------------|------------------|------------------|
|------------------|------------------|------------------|------------------|
|--(9)-------------|-(9)--------------|-(9)--------------|------------------|[Gtr.1]
|--(9)-------------|-(9)--------------|-(9)-----------2--|-2----------------|
|--(7)-------------|-(7)--------------|-(7)-----------2--|-2----------------|
|--(7)-------------|-(7)--------------|-(7)-----------0--|-0----------------|
|                                                                           |
|                                                                           |
|                                                                           |
|------------------|------------------|------------------|------------------|
|------------------|------------------|------------------|------------------|
|--(9)-------------|-(9)--------------|-(9)-----------9--|-9---(9)\---------|[Gtr.2]
|--(9)-------------|-(9)--------------|-(9)-----------9--|-9---(9)\---------|
|--(7)-------------|-(7)--------------|-(7)-----------7--|-7---(7)\---------|
|------------------|------------------|---------------0--|-0---(0)\---------|
|                                                                 sl        |
|                                                                           |
|                                                                           |
|------------------|------------------|--------------15__|-15__(15)\--------|
|------------------|------------------|--------------19fb|-19fb(19)\--------|
|------------------|------------------|------------------|---------sl-------|[Gtr.3]
|------------------|------------------|------------------|------------------|
|------------------|------------------|------------------|------------------|
|------------------|------------------|------------------|------------------|
                                                                       (End!)


'BURNT OFFERINGS' LYRICS
------------------------

Music:  Skolnick, Peterson
Lyrics: Souza, Peterson

Summoned to the house of sйance
To play the evil tarot cards
To find out what our fate will bring us
Before the war

Approaching now the hour of tiamat
Evil feelings in the air
The chosen wait impatiently
To find the rituals of power
Come out of the fire
Making the legacy known
Takes its toll at last
Now knowing when it strikes

The endless feuding shows its fate
The people are all shocked with fright
They know the end is coming near
It's time to fight
The revolution holds on strong
The armies have all met their match
Entire world up in arms
Destruction sees the spirits of anger
Come up from the gallows
Conjured my demons appear
Summoned to my cast, prey this deadly mass
Taken by the fire you fail

The world became a vast wasteland
Survivors turn to cannibals
Killing everything in sight
Warfare tonight
The armies are all closing in
The populations getting small
Feelings are as cold as ice
Survival names its price
Starting to burn
The rape and violence grows high
A kingdom will rise
To rule with contempt
They will surprise
Kill and repent
The weakness in armies
"Won't die"

Leaving now the house of sйance
Speculating destiny
Wonder if the cards were true
Will wait to find out and will wait to see

Check Out Death8699.com, With More Transcriptions On It:
 http://www.death8699.com

Check Out Jarle's Web Site, With More Transcriptions On It:
 http://www.jarleholsen.com

  Visit MetalTabs.com for more metal tablature
comments
We did not receive enough feedback on this tab! Please rate:
print report bad tab
1 2 3 4 5
I want to post or [tab]
guest
You may want to rate the tab now too:
select rating
Please do not post tabs as comments. Select "correction" instead!