Oops, an error
Loading. Please wait.

Dangers Of The Faithless Tab

ver1
ver1

Intro

Whole song

More versions @911Tabs.com
383 views 1 this week
no commentswrite comment
1 2 3 4 5
please rate
Autoscroll
+/-
esc
set tempo
stop
Contributor
Hey! There's an official Ultimate Guitar app which is ideal
for learning songs when you're away from computer. Get the app
WARNING: You are trying to view
                                    content from Ultimate-Guitar.com
                                    in an unauthorized application,
                                    which is prohibited.

                                    Please use an official Ultimate
                                    Guitar Tabs application for iPhone,
                                    iPad or Android to access legitimate
                                    chords, guitar, bass, and drum tabs
                                    from Ultimate-Guitar.com database.

                                    Type "ultimate guitar tabs" in Apple
                                    App Store's or Android Market's
                                    search to find the application.

         ----------------------------------------------------------------------
                                    Dangers Of The Faithless - Testament
         ----------------------------------------------------------------------

Testament - The Formation of Damnation (2008) - Dangers Of The Faithless


Tabbed by: SacredJones (2012)
This is my very first tab here, so please rate and comment.
I may have missed some phrasing and such, I made this in two days.
You can variate the fingerings, I just transcribed this by ear on my
fingerings.


Tuning:Eb/D# standard


   Intro
eb|----------------------------------------------------------------|
Bb|----------------------------------------------------------------|
Gb|---------9-/12\11--7-/9\6---4------------9-/12\11--7-/9\6---4---|
Db|----------------------------------------------------------------|
Ab|-2-------7-/10\9---5-/7\4---2----2-------7-/10\9---5-/7\4---2---|
Eb|-0-----------------------------3-0----------------------------3-|


   First harmony
eb|----------------------------------------------------------------|
Bb|----------------------------------------------------------------|
Gb|----------------------------------------------------------------|
Db|----------------------------------------------------------------|
Ab|-2-------10/14\12--9/10/12--10-9-2------10/14\12--9/10/12--10-9-|
Eb|-0-------------------------------0------------------------------|


   Second harmony
eb|----------------------------------------------------------------|
Bb|------------12-11--------------------------12-11----------------|
Gb|---------12-------11-14-12--9-----------12-------11-14-12--9----|
Db|-------------------------------9------------------------------9-|
Ab|-2-------------------------------2------------------------------|
Eb|-0-------------------------------0------------------------------|


Pre-verse
        .     .     .           . . . . .   .   .   .
eb|---------------------------------------------------|
Bb|---------------------------------------------------|
Gb|---------------------------------------------------|
Db|---------------------------------------------------|
Ab|-2-----5-----2-----8-----2-------------7---5---5---|
Eb|-0---0-6---0-0---0-6---0-0---0-2-3-2-0---0---0-6-0-|

        .     .     .           . . . . .   .
eb|---------------------------------------------|
Bb|---------------------------------------------|
Gb|---------------------------------------------|
Db|---------------------------------------5---4-|
Ab|-2-----8-----2-----5-----2-------------------|
Eb|-0---0-6---0-0---0-6---0-0---0-2-3-2-0---0---|


Verse riff, play 4x
    . . . . PH. . . . PH. . . . PH. . .       .
eb|-------------------------------------------------|
Bb|-------------------------------------------------|
Gb|-------------------------------------------------|
Db|-------------------------------------------------|
Ab|---------7---------6---------5-------7-8-7---5-7-|
Eb|-0-3-6-5---0-5-6-5---0-5-6-5---0-5-6-5-6-5-0-3-5-|
      Pre ting
        dic war...


Play this harmony on the second time, 2 times
(I'm not sure about the rhythm, you'll figure it out)
eb|-------------------------------------------------|
Bb|-------------------------------------------------|
Gb|12----------11-------10--------9-----------------|
Db|12----------11-------10--------9-----------------|
Ab|-------------------------------------------------|
Eb|-------------------------------------------------|


Chorus 3x
        .     .     .           . . . . .   .   .   .
eb|---------------------------------------------------|
Bb|---------------------------------------------------|
Gb|---------------------------------------------------|
Db|---------------------------------------------------|
Ab|-2-----5-----2-----8-----2-------------7---5---5---|
Eb|-0---0-6---0-0---0-6---0-0---0-2-3-2-0---0---0-6-0-|
          Through
              the
                years..


4th time of chorus
        .     .     .           . . . . .   .
eb|---------------------------------------------|
Bb|---------------------------------------------|
Gb|---------------------------------------------|
Db|---------------------------------------5---4-|
Ab|-2-----5-----2-----8-----2-------------7---5-|
Eb|-0---0-6---0-0---0-6---0-0---0-2-3-2-0---0---|


Play verse
Play chorus
play intro w/ 1st harmony


   Second harmony to bridge riff 1
eb|--------------------------------------------------------------------|
Bb|------------12-11--------------------------12-11--------------------|
Gb|---------12-------11-14-12--9-----------12-------11-14-12--9--------|
Db|-------------------------------9------------------------------------|
Ab|-2-------------------------------2----------------------------5-7-8-|
Eb|-0-------------------------------0----------------------------3-5-6-|


Bridge riff 1 2x            .   .   . . . ... . . ... . . . .   . 
eb|-----------------------------------------------------------------|
Bb|-----------------------------------------------------------------|
Gb|-----------------------------------------------------------------|
Db|-----------------------------------------------------------------|
Ab|---------------------------3---8---------------------------5---8-|
Eb|-0-3-6-0-3-5-0-3-6-0-3-5-0-3-0-6-0-3-6-003-5-0-336-0-3-5-0-3-0-6-|


Harmony on 2nd time         .   .   . . . ... . . ...           . 
eb|-----------------------------------------------------------------|
Bb|-----------------------------------------------------------------|
Gb|-----------------------------------------------------------------|
Db|-----------------------------------------------------------------|
Ab|---1-4---1-3---1-4---1-3---1---4---1-4---1-3---114---1-3---5---8-|
Eb|-3-----3-----3-----3-----3---3---3-----33----3-----3-----3-3-0-6-|


Bridge riff 2
    . .   . .   . .   . .   .   .   . .   . .   . .
eb|--------------------------------------------------------------------------|
Bb|--------------------------------------------------------------------------|
Gb|-------------------------------------------------9-6----------------------|
Db|-------------------------5-5-5-5---------------------9-7-10-9-7-9-7-------|
Ab|-----4-----2-----4-----2-5-5-5-5-----4-----2------------------------10----|
Eb|-0-2---0-2---0-2---0-2---3-3-3-3-0-2---0-2---0-2--------------------------|


Bridge riff 1
Bridge riff 2 (end lick little different)
Bridge riff 1


Pre-solo riff 4x
eb|----------------------|
Bb|----------------------|
Gb|----------------------|
Db|-7----7-10---5----5-8-|
Ab|-5----5-8----3----3-6-|
Eb|----------------------|

Harmony on 3rd time 2x
eb|----------------------|
Bb|----------------------|
Gb|-7----7-10---5----5-8-|
Db|----------------------|
Ab|----------------------|
Eb|----------------------|


   End         Something like this
eb|---------|---------------------|
Bb|---------|---------------------|
Gb|---------|---------------------|
Db|-1-0-----|---------------------|
Ab|-2-1-2-1-|---------7---------6-|
Eb|-----3-2-|-0-5-6-5---0-5-6-5---|



GUITAR SOLO

The solo starts by sliding your finger lightly (like on natural harmonics)
on the Db string from the nut towards the 12th fret and alternate picking,
this creates the harmonic slide

played over Verse riff
            PH    . PH. PH  . PH_
eb|----------------------------------------9b10r9-7h9-5h7~~~7---5------------|
Bb|---------------------------8-----------x----------------(8)----8-5---8-5--|
Gb|-12------9~~~--7-9-7-9---9---9--------x----------------------------7------|
Db|-12-----------------------------------------------------------------------|
Ab|--------------------------------------------------------------------------|
Eb|--------------------------------------------------------------------------|

              PH
eb|--------------------------------------------------------------------------|
Bb|-------5---------------15b17~~~-----15-15b17~~-17-15-12-15-17-14-12-------|
Gb|-7-6-7---7-6~~~~~~---16-----------16--------------------------------14-12-|
Db|-------------------17-----------17----------------------------------------|
Ab|--------------------------------------------------------------------------|
Eb|--------------------------------------------------------------------------|


eb|--------------------------------------------15pb19r17--15h12--12----------|
Bb|-12---------------------------------------------------------15---15b17----|
Gb|----14-12-------12--------------------------------------------------------|
Db|----------14-12----14-12-------14~~b16r14---------------------------------|
Ab|-------------------------14-12--------------------------------------------|
Eb|--------------------------------------------------------------------------|


eb|-12--------------------------------------------------------|
Bb|-----15-12-15b17-15-12-15b17-15-12-15b17-15-12-15b17-15-12-|
Gb|-----------------------------------------------------------|
Db|-----------------------------------------------------------|
Ab|-----------------------------------------------------------|
Eb|-----------------------------------------------------------|


Played over bridge riff 1
eb|-6-0-0-5-0-0-3-0-6-0-0-5-0-0-3-0-6-0-0-5-0-0-3-0-6-5-0-6-5-0-3-0----------|
Bb|--------------------------------------------------------------------------|
Gb|--------------------------------------------------------------------------|
Db|--------------------------------------------------------------------------|
Ab|--------------------------------------------------------------------------|
Eb|--------------------------------------------------------------------------|


eb|-6-0-0-5-0-0-3-0-6-0-0-5-0-0-3-0-6-0-0-5-0-0-3-0-5-3-0---5-3-0------------|
Bb|-------------------------------------------------------3-------3----------|
Gb|--------------------------------------------------------------------------|
Db|--------------------------------------------------------------------------|
Ab|--------------------------------------------------------------------------|
Eb|--------------------------------------------------------------------------|

This is the harmony on the second time

eb|10-0-0-8-0-0-6-0-100-0-8-0-0-6-0-100-0-8-0-0-6-0-108-0-108-0-6-0----------|
Bb|--------------------------------------------------------------------------|
Gb|--------------------------------------------------------------------------|
Db|--------------------------------------------------------------------------|
Ab|--------------------------------------------------------------------------|
Eb|--------------------------------------------------------------------------|


eb|10-0-0-8-0-0-6-0-100-0-8-0-0-6-0-100-0-8-0-0-6-0-|
Bb|-------------------------------------------------|
Gb|-------------------------------------------------|
Db|-------------------------------------------------|
Ab|-------------------------------------------------|
Eb|-------------------------------------------------|

eb|-5-3-0---5-3-0---5-3-0---5-3-0---|
Bb|-------3-------3-------3-------3-|
Gb|---------------------------------|
Db|---------------------------------|
Ab|---------------------------------|
Eb|---------------------------------|

   End harmony (Not sure if right)
eb|10-8-6--10-8-6--10-8-6--10-6-8---|
Bb|-------8-------8-------8-------8-|
Gb|---------------------------------|
Db|---------------------------------|
Ab|---------------------------------|
Eb|---------------------------------|


Played over bridge riff 2
            PH
eb|----------------------5---4-2-0-2-0---------------------------------------|
Bb|-9b11--6-9~~~-----5-----------------2-4-2---2-----------------------------|
Gb|--------------4h6---6---6-----------------5---5-4-2---2-4-5-4-2-4-2-------|
Db|----------------------------------------------------4---------------4-2-4-|
Ab|--------------------------------------------------------------------------|
Eb|--------------------------------------------------------------------------|


                   Played over bridge riff 1
                    PH     PH   Sweep____________________
eb|---------------|---------------5----9----10---12---14---------|
Bb|---------------|--------------6-6-10-10-1212-1414-1515--17~~~~|
Gb|-2-------2-----|-------------7---11----12---14---16-----------|
Db|---4-2-4---4-2-|----------------------------------------------|
Ab|---------------|-7b10--r7~~~----------------------------------|
Eb|---------------|----------------------------------------------|


Played over pre-solo riff
                       PH Sweep
eb|--------------------------15-18-17-15-13-11-10~~~|
Bb|-------------------------16----------------------|
Gb|-7----7-10---5----5-8---15-----------------------|
Db|-----------------------17------------------------|
Ab|----------------------18-------------------------|
Eb|-------------------------------------------------|


                          Sweep                PH
eb|--------------------------15-18-17-15-13-15-15~~~|
Bb|-------------------------16----------------------|
Gb|-7----7-10---5----5-8---15-----------------------|
Db|-----------------------17------------------------|
Ab|----------------------18-------------------------|
Eb|-------------------------------------------------|


    Harmonized__________  Sweep                PH
eb|--------------------------15-18-17-15-13-11-10~~~|
Bb|-6----6-10---4----4-8----16----------------------|
Gb|-7----7-10---5----5-8---15-----------------------|
Db|-----------------------17------------------------|
Ab|----------------------18-------------------------|
Eb|-------------------------------------------------|

                        |Pre-solo riff end
                        |
    Harmonized__________|         .  PH
eb|--------------------------------------|
Bb|-6----6-10---4----4-8-11-10-----------|
Gb|-7----7-10---5----5-8-------12-12-12\-|
Db|--------------------------------------|
Ab|--------------------------------------|
Eb|--------------------------------------|

END SOLO

Verse
Chorus
Intro

End by slowing intro down



************************************

| /   slide up
| \   slide down
| h   hammer-on
| p   pull-off
| ~   vibrato
| +   harmonic
| ( ) ghost note
| PH  pinch harmonic
| .   palm mute
| x   Mute note
| b   Bend
| pb  Pre-bend
| r  Bend release
| pbr Pre-bend release
| brb Bend release bend

************************************
comments
We did not receive enough feedback on this tab! Please rate:
print report bad tab
1 2 3 4 5
I want to post or [tab]
guest
You may want to rate the tab now too:
select rating
Please do not post tabs as comments. Select "correction" instead!