Oops, an error
Loading. Please wait.

Disciples Of The Watch Tab

ver3
ver3

Whole song

Interactive

More versions @911Tabs.com
5,519 views 15 this week
no commentswrite comment
1 2 3 4 5
excellent!
x 6
Autoscroll
+/-
esc
set tempo
stop
Contributor
Hey! There's an official Ultimate Guitar app which is ideal
for learning songs when you're away from computer. Get the app
WARNING: You are trying to view
                                    content from Ultimate-Guitar.com
                                    in an unauthorized application,
                                    which is prohibited.

                                    Please use an official Ultimate
                                    Guitar Tabs application for iPhone,
                                    iPad or Android to access legitimate
                                    chords, guitar, bass, and drum tabs
                                    from Ultimate-Guitar.com database.

                                    Type "ultimate guitar tabs" in Apple
                                    App Store's or Android Market's
                                    search to find the application.
#----------------------------------PLEASE NOTE---------------------------------#
#This file is the author's own work and represents their interpretation of the #
#song. You may only use this file for private study, scholarship, or research. #
#------------------------------------------------------------------------------#

DISCIPLES OF THE WATCH
As recorded by Testament
(From the 1988 Album THE NEW ORDER)

Transcribed by cbliss66@aol.com
        

Words and Music by Skolnick and Peterson
Arranged by Testament

Gtr I (E A D G B E) - 'Eric Clean Gtr.'
Gtr II (E A D G B E) - 'Alex Rhy Gtr.'
Gtr III (E A D G B E) - 'Skolnick Solo Gtr'
Gtr IV (E A D G B E) - 'Phalse Harmonics '
Gtr V (E A D G B E) - 'Eric Rhy Gtr.'

 Intro
  Moderately Q=120
  Amadd9            Cmadd9
 4/4
  Gtr I
  E E E E E E E E    E  E  E  E  E  E  E  +E
|---8-7---8-7---8-|----11-10----11-10---------|
|-----------------|---------------------------|
|-----------------|---------------------------|
|-7-----7-----7---|-10-------10-------10-(10)-|
|-----------------|---------------------------|
|-----------------|---------------------------|


  Gmadd9              Bbmadd9
  E E E E E E E +E    E E E E E E E +E
|---6-5---6-5-------|---9-8---9-8-------|
|-------8-----------|-------------------|
|-------------------|-------------------|
|-5-----------5-(5)-|-8-----8-----8-(8)-|
|-------------------|-------------------|
|-------------------|-------------------|


  Amadd9               Cmadd9
  Gtr II
   W                     W
|--------------------|----------------------------|
|--------------------|----------------------------|
|--------------------|----------------------------|
|-/7-----------------|-/10------------------------|
|--------------------|----------------------------|
|-/5-----------------|--/8------------------------|
|
| Gtr I
|  E E E E E E E +E      E  E  E  E  E  E  E  +E
|----8-7---8-7-------|-----11-10----11-10---------|
|--------------------|----------------------------|
|--------------------|----------------------------|
|--7-----7-----7-(7)-|--10-------10-------10-(10)-|
|--------------------|----------------------------|
|--------------------|----------------------------|


  Gmadd9               Bbmadd9
   W                    W
|--------------------|---------------------|
|--------------------|---------------------|
|--------------------|---------------------|
|-\5-----------------|-/8------------------|
|--------------------|---------------------|
|-\3-----------------|-/6------------------|
|
|  E E E E E E E +E     E E E E E E E +E
|----6-5---6-5-------|----9-8---9-8--------|
|--------------------|---------------------|
|--------------------|---------------------|
|--5-----5-----5-(5)-|--8-----8-----8-(8)--|
|--------------------|---------------------|
|--------------------|---------------------|


  Amadd9                     Cmadd9
  Gtr III
                               ~~~
             |---3---|                     |------3------|
   Q   E S S Q   Q   Q         H           Q      +Q     Q
|--------------------------|------------------------------------|
|--------------------------|------------------------------------|
|--------------------------|------------------------------------|
|--------------------7-----|------------------------------------|
|----------------7---------|---6-----------5b6r===(5)----3------|
|------5-5h7-8-------------|------------------------------------|
|
| Gtr V
|  W                           W
|--------------------------|------------------------------------|
|--------------------------|------------------------------------|
|--------------------------|------------------------------------|
|-/7-----------------------|-/10--------------------------------|
|--------------------------|------------------------------------|
|-/5-----------------------|--/8--------------------------------|
|
| Gtr I
|  E E E E   E E   E   +E      E  E  E  E  E    E      E    +E
|----8-7-----8-7-----------|-----11-10----11---10---------------|
|--------------------------|------------------------------------|
|--------------------------|------------------------------------|
|--7-----7---------7---(7)-|--10-------10-------------10---(10)-|
|--------------------------|------------------------------------|
|--------------------------|------------------------------------|


  Gmadd9                      Bbmadd9
                              Gtr IV   Gtr III
   ~~~                         ~~
              |---3---|                |-----3-----|
   Q.     S S Q   Q   Q        H       Q     +Q    Q
|---------------------------|-----------------------------|
|---------------------------|-----------------------------|
|---------------------------|-----------------------------|
|---------------------5-----|-----------------------------|
|-----------------5---------|--4-------3b4r==(3)----------|
|--3------3h5-6-------------|----------------------6------|
|
|  W                           W
|---------------------------|-----------------------------|
|---------------------------|-----------------------------|
|---------------------------|-----------------------------|
|-\5------------------------|-/8--------------------------|
|---------------------------|-----------------------------|
|-\3------------------------|-/6--------------------------|
|
|  E  E E E   E E   E   +E     E E E E E   E     E   +E
|-----6-5-----6-5-----------|----9-8---9---8--------------|
|---------------------------|-----------------------------|
|---------------------------|-----------------------------|
|--5------5---------5---(5)-|--8-----8-----------8---(8)--|
|---------------------------|-----------------------------|
|---------------------------|-----------------------------|


  Amadd9                       Cmadd9
                               Gtr IV       Gtr III
                                 ~~~
               |---3---|                     |------3------|
   Q   +E  S S Q   Q   Q         H           Q      +Q     Q
|----------------------------|------------------------------------|
|----------------------------|------------------------------------|
|----------------------------|------------------------------------|
|----------------------7-----|------------------------------------|
|------------------7---------|---6-----------5b6r===(5)----3------|
|--5---(5)-5h7-8-------------|------------------------------------|
|
|  W                             W
|----------------------------|------------------------------------|
|-10-------------------------|-/13--------------------------------|
|----------------------------|------------------------------------|
|-/7-------------------------|-/10--------------------------------|
|----------------------------|------------------------------------|
|-/5-------------------------|--/8--------------------------------|
|
|  E E  E  E   E E   E   +E      E  E  E  E  E    E      E    +E
|----8--7------8-7-----------|-----11-10----11---10---------------|
|----------------------------|------------------------------------|
|----------------------------|------------------------------------|
|--7-------7---------7---(7)-|--10-------10-------------10---(10)-|
|----------------------------|------------------------------------|
|----------------------------|------------------------------------|


  Gmadd9                      Bbmadd9
                              Gtr IV                   Gtr III
   ~~~                          ~~~
              |---3---|                  |------3-------|
   Q.     S S Q   Q   Q         H        Q       +Q     Q
|---------------------------|----------------------------------|
|---------------------------|----------------------------------|
|---------------------------|----------------------------------|
|---------------------5-----|----------------------------------|
|-----------------5---------|---4--------3b4r====(3)-----------|
|--3------3h5-6-------------|---------------------------6------|
|
|                                        |------3-------|
|  W                            H        Q       +Q     Q
|---------------------------|----------------------------------|
|-\8------------------------|-/11-------11b13r==(11)---11------|
|---------------------------|----------------------------------|
|-\5------------------------|--/8------------------------------|
|---------------------------|----------------------------------|
|-\3------------------------|--/6------------------------------|
|                               W
|
|  E  E E E   E E   E   +E      E E E E  E    E      E    +E
|-----6-5-----6-5-----------|-----9-8----9----8----------------|
|---------------------------|----------------------------------|
|---------------------------|----------------------------------|
|--5------5---------5---(5)-|---8-----8--------------8----(8)--|
|---------------------------|----------------------------------|
|---------------------------|----------------------------------|


                                                            Gtr IV
   ~~~                            ~~~
               |---3----|                     |------3------|
   Q.     S S  Q   Q    Q         H           Q      +Q     Q
|-----------------------------|------------------------------------|
|----------------------10-----|------------------------------------|
|------------------9----------|---8-----------7b8r===(7)----5------|
|--7------7h9-10--------------|------------------------------------|
|-----------------------------|------------------------------------|
|-----------------------------|------------------------------------|
|
|  W                              W
|-----------------------------|------------------------------------|
|-10--------------------------|-/13--------------------------------|
|-----------------------------|------------------------------------|
|-/7--------------------------|-/10--------------------------------|
|-----------------------------|------------------------------------|
|-/5--------------------------|--/8--------------------------------|
|
|  E  E E E    E E   E    +E      E  E  E  E  E    E      E    +E
|-----8-7------8-7------------|-----11-10----11---10---------------|
|-----------------------------|------------------------------------|
|-----------------------------|------------------------------------|
|--7------7----------7----(7)-|--10-------10-------------10---(10)-|
|-----------------------------|------------------------------------|
|-----------------------------|------------------------------------|


  Gtr III
   ~~~                          ~~~
              |---3---|                  |------3-------|
   Q.     S S Q   Q   Q         H        Q       +Q     Q
|---------------------------|----------------------------------|
|---------------------8-----|----------------------------------|
|-----------------7---------|---6--------5b6r====(5)-----------|
|--5------5h7-8-------------|---------------------------8------|
|---------------------------|----------------------------------|
|---------------------------|----------------------------------|
|
|                                        |------3-------|
|  W                            H        Q       +Q     Q
|---------------------------|----------------------------------|
|-\8------------------------|-/11-------11b13r==(11)---11------|
|---------------------------|----------------------------------|
|-\5------------------------|--/8------------------------------|
|---------------------------|----------------------------------|
|-\3------------------------|--/6------------------------------|
|                               W
|
|  E  E E E   E E   E   +E      E E E E  E    E      E    +E
|-----6-5-----6-5-----------|-----9-8----9----8----------------|
|---------------------------|----------------------------------|
|---------------------------|----------------------------------|
|--5------5---------5---(5)-|---8-----8--------------8----(8)--|
|---------------------------|----------------------------------|
|---------------------------|----------------------------------|


   ~~~                            ~~~
               |---3----|                     |----3----|
   Q.     S S  Q   Q    Q         H           Q    Q    Q
|-----------------------------|--------------------------------|
|----------------------10-----|--------------------------------|
|------------------9----------|---8----------/8s===7----5------|
|--7------7h9-10--------------|--------------------------------|
|-----------------------------|--------------------------------|
|-----------------------------|--------------------------------|
|
|  W                              W
|-----------------------------|--------------------------------|
|-10--------------------------|-/13----------------------------|
|-----------------------------|--------------------------------|
|-/7--------------------------|-/10----------------------------|
|-----------------------------|--------------------------------|
|-/5--------------------------|--/8----------------------------|
|
|  E  E E E    E E   E    +E      E  E  E  E  E  E    E    +E
|-----8-7------8-7------------|-----11-10----11-10-------------|
|-----------------------------|--------------------------------|
|-----------------------------|--------------------------------|
|--7------7----------7----(7)-|--10-------10---------10---(10)-|
|-----------------------------|--------------------------------|
|-----------------------------|--------------------------------|


   ~~~                          ~~~
              |---3---|                  |------3-------|
   Q.     S S Q   Q   Q         H        Q        Q     Q
|---------------------------|----------------------------------|
|---------------------8-----|----------------------------------|
|-----------------7---------|--/6-------/6-------/5------------|
|--5------5h7-8-------------|---------------------------8------|
|---------------------------|----------------------------------|
|---------------------------|----------------------------------|
|
|                                        |------3-------|
|  W                            H        Q       +Q     Q
|---------------------------|----------------------------------|
|-\8------------------------|-/11-------11b13r==(11)---11------|
|---------------------------|----------------------------------|
|-\5------------------------|--/8------------------------------|
|---------------------------|----------------------------------|
|-\3------------------------|--/6------------------------------|
|                               W
|
|  E  E E E   E E   E   +E      E E E E  E    E      E    +E
|-----6-5-----6-5-----------|-----9-8----9----8----------------|
|---------------------------|----------------------------------|
|---------------------------|----------------------------------|
|--5------5---------5---(5)-|---8-----8--------------8----(8)--|
|---------------------------|----------------------------------|
|---------------------------|----------------------------------|


   ~~~                               ~~~
                 |----3----|                     |-------3--------|
   Q.      S  S  Q    Q    Q         H           Q        +Q      Q
|-------------------------17-----|---------------------------------------|
|--------------------17----------|--16----------15b16r===(15)----13------|
|-14------14h16s17---------------|---------------------------------------|
|--------------------------------|---------------------------------------|
|--------------------------------|---------------------------------------|
|--------------------------------|---------------------------------------|
|
|  W                                 W
|--------------------------------|---------------------------------------|
|-10-----------------------------|-/13-----------------------------------|
|--------------------------------|---------------------------------------|
|-/7-----------------------------|-/10-----------------------------------|
|--------------------------------|---------------------------------------|
|-/5-----------------------------|--/8-----------------------------------|
|
|  E  E E  E     E E    E    +E      E  E  E  E  E     E       E     +E
|-----8-7--------8-7-------------|-----11-10----11----10-----------------|
|--------------------------------|---------------------------------------|
|--------------------------------|---------------------------------------|
|--7-------7------------7----(7)-|--10-------10---------------10----(10)-|
|--------------------------------|---------------------------------------|
|--------------------------------|---------------------------------------|


   ~~~                               ~~~
                 |----3----|                  |------3-------|
   Q.      S  S  Q    Q    Q         H        Q       +Q     Q
|-------------------------15-----|----------------------------------|
|--------------------15----------|--14-------13b14r==(13)---11------|
|-12------12h14s15---------------|----------------------------------|
|--------------------------------|----------------------------------|
|--------------------------------|----------------------------------|
|--------------------------------|----------------------------------|
|
|                                             |------3-------|
|  W                                 H        Q       +Q     Q
|--------------------------------|----------------------------------|
|-\8-----------------------------|-/11-------11b13r==(11)---11------|
|--------------------------------|----------------------------------|
|-\5-----------------------------|--/8------------------------------|
|--------------------------------|----------------------------------|
|-\3-----------------------------|--/6------------------------------|
|                                    W
|
|  E  E E  E     E E    E    +E      E E E E  E    E      E    +E
|-----6-5--------6-5-------------|-----9-8----9----8----------------|
|--------------------------------|----------------------------------|
|--------------------------------|----------------------------------|
|--5-------5------------5----(5)-|---8-----8--------------8----(8)--|
|--------------------------------|----------------------------------|
|--------------------------------|----------------------------------|


                                               Fa
  A
                                      2/4
                                          Gtr II
                >
   ~~~~~~~~~~~~~~~~
   W           +W           W          Q   Q
|-----------|-------------|----------|---------||
|-10--------|-(10)--------|----------|---------||
|-14--------|-(14)--------|----------|---------||
|-----------|-------------|----------|---------||
|-----------|-------------|----------|---------||
|-----------|-------------|----------|----12\--||
|
|  W            W           W          Q   Q
|-----------|-------------|----------|---------||
|-14--------|-------------|----------|---------||
|-----------|-------------|----------|---------||
|--7--------|-------------|----------|---------||
|-----------|-------------|----------|---------||
|--5--------|-------------|----------|----12\--||


 st Rock Q=203
          G5     F#5     G5  F#5 F5    E5
 4/4
  PM----|   PM-|     PM|   PM  PM
  E E E E E E  E E   E E E E E E S +S  E
|------------------|------------------------|
|------------------|------------------------|
|------------------|------------------------|
|---------5------4-|-----5---4---3-(3)s2----|
|---------5------4-|-----5---4---3-(3)s2----|
|-0-0-0-0-3-0--0-2-|-0-0-3-0-2-0-1-(1)s0----|
|
| PM----|
| E E E E E Q.       W
|------------------|------------------------|
|------------------|------------------------|
|------------------|------------------------|
|---------5--------|------------------------|
|---------5--------|------------------------|
|-0-0-0-0-3--------|------------------------|


  G5     F#5   G5    F#5 F5    E5   E5      G5    F#5     G5  F#5 F5    E5
                    2/4            4/4
     PM|   PM|   PM    PM             PM--|   PM|     PM|   PM  PM
   E E E E E E E E   E E S +S  E    E E E E E E E E   E E E E E E S +S  E
|------------------|-------------||-----------------|----------------------|
|------------------|-------------||-----------------|----------------------|
|------------------|-------------||-----------------|----------------------|
|-/5-----4-----5---|-4---3-(3)s2-||-2-------5-----4-|-----5---4---3-(3)s2--|
|-/5-----4-----5---|-4---3-(3)s2-||-2-------5-----4-|-----5---4---3-(3)s2--|
|-/3-0-0-2-0-0-3-0-|-2-0-1-(1)s0-||-0-0-0-0-3-0-0-2-|-0-0-3-0-2-0-1-(1)s0--|
|
|                                     PM--|   PM|     PM|   PM  PM
|  W                 H              E E E E E E E E   E E E E E E S +S  E
|------------------|-------------||-----------------|----------------------|
|------------------|-------------||-----------------|----------------------|
|------------------|-------------||-----------------|----------------------|
|------------------|-------------||---------5-----4-|-----5---4---3-(3)s2--|
|------------------|-------------||---------5-----4-|-----5---4---3-(3)s2--|
|------------------|-------------||---0-0-0-3-0-0-2-|-0-0-3-0-2-0-1-(1)s0--|


  G5     F#5   G5    F#5 F5    E5    E5      G5    F#5     G5  F#5 F5    E5
                    2/4             4/4
     PM|   PM|   PM    PM              PM--|   PM|     PM|   PM  PM
   E E E E E E E E   E E S +S  E     E E E E E E E E   E E E E E E S +S  E
|------------------|-------------||------------------|----------------------|
|------------------|-------------||o-----------------|----------------------|
|------------------|-------------||------------------|----------------------|
|-/5-----4-----5---|-4---3-(3)s2-||--2-------5-----4-|-----5---4---3-(3)s2--|
|-/5-----4-----5---|-4---3-(3)s2-||o-2-------5-----4-|-----5---4---3-(3)s2--|
|-/3-0-0-2-0-0-3-0-|-2-0-1-(1)s0-||--0-0-0-0-3-0-0-2-|-0-0-3-0-2-0-1-(1)s0--|
|
|    PM|   PM|   PM    PM              PM--|   PM|     PM|   PM  PM
|  E E E E E E E E   E E S +S  E     E E E E E E E E   E E E E E E S +S  E
|------------------|-------------||------------------|----------------------|
|------------------|-------------||o-----------------|----------------------|
|------------------|-------------||------------------|----------------------|
|-/5-----4-----5---|-4---3-(3)s2-||--2-------5-----4-|-----5---4---3-(3)s2--|
|-/5-----4-----5---|-4---3-(3)s2-||o-2-------5-----4-|-----5---4---3-(3)s2--|
|-/3-0-0-2-0-0-3-0-|-2-0-1-(1)s0-||--0-0-0-0-3-0-0-2-|-0-0-3-0-2-0-1-(1)s0--|


  G5     F#5   G5    F#5 F5    E5
                    2/4
  Gtrs II, V
       PM  PM|   PM    PM
   E E E E E E E E   E E S +S  E  5x
|------------------|--------------||-|
|------------------|-------------o||-|
|------------------|--------------||-|
|-/5-----4-----5---|-4---3-(3)s2--||-|
|-/5-----4-----5---|-4---3-(3)s2-o||-|
|-/3-0-0-2-0-0-3-0-|-2-0-1-(1)s0--||-|


   1st and 2nd Verses
    Bb5   A5      Bb5           Bb5   A5      Bb5
   4/4
                    PM------|                   PM------|
    S +S  E S +S  E E E S S E   S +S  E S +S  E E E S S E
||----------------------------|----------------------------|
||o---------------------------|----------------------------|
||----------------------------|----------------------------|
||--8-(8)s7-7-(7)s8-----------|-8-(8)s7-7-(7)s8------------|
||o-8-(8)s7-7-(7)s8-----------|-8-(8)s7-7-(7)s8------------|
||--6-(6)s5-5-(5)s6-0-0-0-0-0-|-6-(6)s5-5-(5)s6-0-0-0-0-0--|


  Bb5   A5      Bb5 E5      Bb5   A5      Bb5   C5
                  PM    PM                  PM|
  S +S  E S +S  E E E E E   S +S  E S +S  E E E Q
|-------------------------|------------------------|
|-------------------------|------------------------|
|-------------------------|---------------------5--|
|-8-(8)s7-7-(7)s8---------|-8-(8)s7-7-(7)s8-----5--|
|-8-(8)s7-7-(7)s8---2-2---|-8-(8)s7-7-(7)s8-----3--|
|-6-(6)s5-5-(5)s6-0-0-0-0-|-6-(6)s5-5-(5)s6-0-0----|


  Bb5   A5      Bb5           Bb5   A5      Bb5
                  PM------|                   PM------|
  S +S  E S +S  E E E S S E   S +S  E S +S  E E E S S E
|---------------------------|-----------------------------|
|---------------------------|-----------------------------|
|---------------------------|-----------------------------|
|-8-(8)s7-7-(7)s8-----------|-8-(8)s7-7-(7)s8-------------|
|-8-(8)s7-7-(7)s8-----------|-8-(8)s7-7-(7)s8-------------|
|-6-(6)s5-5-(5)s6-0-0-0-0-0-|-6-(6)s5-5-(5)s6-0-0-0-0-0---|


  Bb5   A5      Bb5   Csus4 BsusBb5   A5
                  PM|
  S +S  E S +S  E E E S +S  E   S +S  E E E E E E E
|-----------------------------|---------------------|
|-----------------------------|---------------------|
|-----------------------------|---------------------|
|-8-(8)s7-7-(7)s8-----3-(3)s2-|-8-(8)s7-------------|
|-8-(8)s7-7-(7)s8-----3-(3)s2-|-8-(8)s7-------------|
|-6-(6)s5-5-(5)s6-0-0---------|-6-(6)s5-5-7-7-5-3-2-|


  Bb5   A5      Bb5           Bb5   A5      Bb5
                  PM------|                   PM------|
  S +S  E S +S  E E E S S E   S +S  E S +S  E E E S S E
|---------------------------|-----------------------------|
|---------------------------|-----------------------------|
|---------------------------|-----------------------------|
|-8-(8)s7-7-(7)s8-----------|-8-(8)s7-7-(7)s8-------------|
|-8-(8)s7-7-(7)s8-----------|-8-(8)s7-7-(7)s8-------------|
|-6-(6)s5-5-(5)s6-0-0-0-0-0-|-6-(6)s5-5-(5)s6-0-0-0-0-0---|


  Bb5   A5      Bb5 E5      Bb5   A5      Bb5   C5
                  PM    PM                  PM|
  S +S  E S +S  E E E E E   S +S  E S +S  E E E Q
|-------------------------|------------------------|
|-------------------------|------------------------|
|-------------------------|---------------------5--|
|-8-(8)s7-7-(7)s8---------|-8-(8)s7-7-(7)s8-----5--|
|-8-(8)s7-7-(7)s8---2-2---|-8-(8)s7-7-(7)s8-----3--|
|-6-(6)s5-5-(5)s6-0-0-0-0-|-6-(6)s5-5-(5)s6-0-0----|


  Bb5   A5      Bb5           Bb5   A5      Bb5
                  PM------|                   PM------|
  S +S  E S +S  E E E S S E   S +S  E S +S  E E E S S E
|---------------------------|-----------------------------|
|---------------------------|-----------------------------|
|---------------------------|-----------------------------|
|-8-(8)s7-7-(7)s8-----------|-8-(8)s7-7-(7)s8-------------|
|-8-(8)s7-7-(7)s8-----------|-8-(8)s7-7-(7)s8-------------|
|-6-(6)s5-5-(5)s6-0-0-0-0-0-|-6-(6)s5-5-(5)s6-0-0-0-0-0---|


  Bb5   A5      Bb5   Csus4 BsusBb5   A5
                  PM|
  S +S  E S +S  E E E S +S  E   S +S  E E E E E E E
|-----------------------------|---------------------||
|-----------------------------|---------------------||
|-----------------------------|---------------------||
|-8-(8)s7-7-(7)s8-----3-(3)s2-|-8-(8)s7-------------||
|-8-(8)s7-7-(7)s8-----3-(3)s2-|-8-(8)s7-------------||
|-6-(6)s5-5-(5)s6-0-0---------|-6-(6)s5-5-7-7-5-3-2-||


 1st and 2nd Chorus
  E5     F#5      G5
     PM|    PM|      PM----------|
  Q  E E Q  E E   Q  E S S E E E E
|---------------|------------------|
|---------------|------------------|
|---------------|------------------|
|-2------4------|-5----------------|
|-2------4------|-5--------5-4-3-2-|
|-0--0-0-2--0-0-|-3--0-0-0---------|


  E5     F#5      G5     F5      (E)     E5     F#5      G5
     PM|    PM|      PM|                    PM|    PM|      PM----------|
  Q  E E Q  E E   Q  E E  S  +S  E E E   Q  E E Q  E E   Q  E S S E E E E
|---------------|----------------------|---------------|-------------------|
|---------------|----------------------|---------------|-------------------|
|---------------|--------10-(10)s9-----|---------------|-------------------|
|-2------4------|-5------10-(10)s9-----|-2------4------|-5-----------------|
|-2------4------|-5-------8--(8)s7-----|-2------4------|-5--------5-4-3-2--|
|-0--0-0-2--0-0-|-3--0-0-----------0h3-|-0--0-0-2--0-0-|-3--0-0-0----------|


                 1.                       2.
  E5     F#5      G5     F5      (E)
     PM|    PM|      PM|
  Q  E E Q  E E   Q  E E  S  +S  E E E     Q  Q    H
|---------------|-----------------------||---------------|
|---------------|----------------------o||---------------|
|---------------|--------10-(10)s9------||---------------|
|-2------4------|-5------10-(10)s9------||-5--x----------|
|-2------4------|-5-------8--(8)s7-----o||-5--x----------|
|-0--0-0-2--0-0-|-3--0-0-----------0h3--||-3--x--/12\----|


  G5    F#5   G5    F#5 F5    E5  G5    F#5   G5    F#5 F5    E5
                   2/4           4/4               2/4
    PM|   PM|   PM    PM            PM|   PM|   PM    PM
  E E E E E E E E   E E S +S  E   E E E E E E E E   E E S +S  E
|-----------------|-------------|-----------------|--------------|
|-----------------|-------------|-----------------|--------------|
|-----------------|-------------|-----------------|--------------|
|-5-----4-----5---|-4---3-(3)s2-|-5-----4-----5---|-4---3-(3)s2--|
|-5-----4-----5---|-4---3-(3)s2-|-5-----4-----5---|-4---3-(3)s2--|
|-3-0-0-2-0-0-3-0-|-2-0-1-(1)s0-|-3-0-0-2-0-0-3-0-|-2-0-1-(1)s0--|


    E5      G5    F#5     G5  F#5 F5    E5  G5     F#5   G5    F#5 F5    E5
   4/4                                                        2/4
      PM--|   PM|     PM|   PM  PM               PM  PM|   PM    PM
    E E E E E E E E   E E E E E E S +S  E    E E E E E E E E   E E S +S  E
||------------------|---------------------|------------------|--------------||
||o-----------------|---------------------|------------------|-------------o||
||------------------|---------------------|------------------|--------------||
||--2-------5-----4-|-----5---4---3-(3)s2-|-/5-----4-----5---|-4---3-(3)s2--||
||o-2-------5-----4-|-----5---4---3-(3)s2-|-/5-----4-----5---|-4---3-(3)s2-o||
||--0-0-0-0-3-0-0-2-|-0-0-3-0-2-0-1-(1)s0-|-/3-0-0-2-0-0-3-0-|-2-0-1-(1)s0--||


                Interlude
  E5             E5                  B5   E5
 4/4
  Gtr II
  Q  Q  H        W          +H.      Q    W
|------------||-----------|-------------|------|
|------------||o----------|-------------|------|
|------------||-----------|----------4--|------|
|-2----------||--2--------|-(2)------4--|-2----|
|-2----------||o-2--------|-(2)------2--|-2----|
|-0----------||--0--------|-(0)---------|-0----|
|
| Gtr V
| Q  Q  H        W          +H.      Q    W
|------------||-----------|-------------|------|
|------------||o----------|-------------|------|
|------------||-----------|----------4--|------|
|-2----------||--2--------|-(2)------4--|-2----|
|-2----------||o-2--------|-(2)------2--|-2----|
|-0----------||--0--------|-(0)---------|-0----|


                                                       1.,2.,3.
         B5                           E5   B5
                     2/4             4/4               2/4
       PM             PM----|                           PM----|
              |-3-|                             |-3-|
  +Q   E Q  E E E E   E E E E         Q  E Q  E E E E   E E E E  4x
|-------------------|----------||-||------------------|----------||
|-------------5h6p5-|---------o||-||o-----------5h6p5-|---------o||
|--------4----------|----------||-||-------4----------|----------||
|-(2)----4--x-------|----------||-||--2--x-4--x-------|----------||
|-(2)----2--x-------|-3-2-0---o||-||o-2--x-2--x-------|-3-2-0---o||
|-(0)--0----x-------|-------1--||-||--0--x----x-------|-------1--||
|
|      PM             PM----|            PM             PM----|
|             |-3-|                             |-3-|
| +Q   E Q  E E E E   E E E E         Q  E Q  E E E E   E E E E  4x
|-------------------|----------||-||------------------|----------||
|-------------------|---------o||-||o-----------------|---------o||
|--------4----4h5p4-|----------||-||-------4----4h5p4-|----------||
|-(2)----4--x-------|----------||-||--2----4--x-------|----------||
|-(2)----2--x-------|-3-2-0---o||-||o-2----2--x-------|-3-2-0---o||
|-(0)--0----x-------|-------1--||-||--0--0----x-------|-------1--||


             Guitar Solo
  4.
              E5                                        C5
             4/4
  Gtr III
  H           E  E E E  E E E E    E  E E E  E E  E E   E  E  E  E  E  E  E  E
|----------||-------------------|--7------------------|---------------------12-|
|----------||-----------------8-|-----8---------------|------------------13----|
|----------||---------------9---|-------9-------------|---------------12-------|
|-9\-------||-------------9-----|---------9-----------|---------10S14----------|
|----------||--------7-10-------|-----------10-7------|------10----------------|
|----------||-7-10-7------------|----------------10-7-|-8S12-------------------|
|
| Gtrs II, V
| PM-----|
| E  E E E    W                   +H         E Q    E   W
|----------||-------------------|---------------------|------------------------|
|----------||-------------------|---------------------|------------------------|
|----------||-------------------|---------------------|-5----------------------|
|----------||-2-----------------|-(2)--------2-2----x-|-5----------------------|
|-3--2-0---||-2-----------------|-(2)--------2-2----x-|-3----------------------|
|--------1-||-0-----------------|-(0)--------0-0----x-|------------------------|


                                 E5
   E   E  E  E  E  E    E    E   E E  E E  E E E E
|-15--12-----------------------|-------------------|
|--------13--------------------|-----------------8-|
|-----------12-----------------|---------------9---|
|--------------14-10-----------|-------------9-----|
|----------------------10------|--------7-10-------|
|---------------------------12-|---7-10------------|
|
|               |----3----|
| +H            Q    Q    Q      W
|------------------------------|-------------------|
|------------------------------|-------------------|
|-(5)-----------5----5----5----|-------------------|
|-(5)-----------5----5----5----|-2-----------------|
|-(3)-----------3----3----3----|-2-----------------|
|------------------------------|-0-----------------|


                      C5
   E  E E E  E E Q    +E      +E  +E   E  E  E  E  E
|--7----------------|-----------------------------12---|
|-----8-------------|--------------------------13------|
|-------9-----------|-----------------------12---------|
|---------9---------|-----------------10S14------------|
|-----------10-7----|----------------------------------|
|----------------8--|-(8)b10==(8)r(8)------------------|
|
| +H.            Q     W
|-------------------|----------------------------------|
|-------------------|----------------------------------|
|-------------------|--5-------------------------------|
|-(2)------------2--|--5-------------------------------|
|-(2)------------2--|--3-------------------------------|
|-(0)------------0--|----------------------------------|


  C5                                          E5
   |---3---|  |---3---|  |---3---|  |--3--|
   E  E    E  E  E    E  E  E    E  E  E  E    Q   E E  E E E E
|-15p14p==12--------------------------------|-------------------|
|------------15p13p==12---------------------|-----------------8-|
|-----------------------14p12p==11----------|---------------9---|
|----------------------------------14p12p10-|-------------9-----|
|-------------------------------------------|-14\----7-10-------|
|-------------------------------------------|-------------------|
|
|  PM-------------------------|                    PM--|      PM
|  E    E     E    E     E    E     Q          Q   E E  E Q   E
|-------------------------------------------|-------------------|
|-------------------------------------------|-------------------|
|--5----5-----5----5-----5----5-----5-------|-------------------|
|--5----5-----5----5-----5----5-----5-------|--2----------2-----|
|--3----3-----3----3-----3----3-----3-------|--2----------2-----|
|-------------------------------------------|--0---0-0--0-0---0-|


      Bsus4          C5
  E E E E  E E Q     +E      +E  +E   E  E  E  E  E
|-7----------------|-----------------------------12---|
|---8--------------|--------------------------13------|
|-----9------------|-----------------------12---------|
|-------9----------|-----------------10S14------------|
|---------10-7-----|----------------------------------|
|--------------8---|-(8)b10==(8)r(8)------------------|
|
|   PM     PM----|                PM-|      PM    PM
| E E Q    Q   E E    Q           E   E  E  E  E  E
|------------------|----------------------------------|
|------------------|----------------------------------|
|-----4------------|--5-----------5---5--5--5--5--5---|
|-2---2------------|--5-----------5---5--5--5--5--5---|
|-2---2------------|--3-----------3---3--3--3--3--3---|
|-0-0------0---0-0-|----------------------------------|


                                ~~~~~~~~~~
   E  S  S  S  S  E  E  E      +E   +E
|-15-14h15p14p12----12--------------------|
|----------------15----15b17==(15)-(15)r\-|
|-----------------------------------------|
|-----------------------------------------|
|-----------------------------------------|
|-----------------------------------------|
|
|  PM       PM---------|
|  E  E     E     E  E  E       Q
|-----------------------------------------|
|-----------------------------------------|
|--5--5-----5-----5--5--5-------5---------|
|--5--5-----5-----5--5--5-------5---------|
|--3--3-----3-----3--3--3-------3---------|
|-----------------------------------------|


  E5                    Bsus4
                                 ~
  Q  E E  E E E E   E E E E  E E Q
|-----------------|-7-----------------|
|---------------8-|---8---------------|
|-------------9---|-----9-------------|
|-----------9-----|-------9-----------|
|------7-10-------|---------10-7------|
|-7--7------------|--------------8----|
|
|    PM--|      PM    PM     PM----|
| Q  E E  E Q   E   E E Q    Q   E E
|-----------------|-------------------|
|-----------------|-------------------|
|-----------------|-----4-------------|
|-2---------2-----|-2---2-------------|
|-2---------2-----|-2---2-------------|
|-0--0-0--0-0---0-|-0-0------0---0-0--|


  C5
   S  S  S  S  S  S  S  S  S  S  S  S  S  S  S  S
|-------------------------------------------------|
|-------------------------------------------------|
|-------------------------------------------------|
|----------------------------------------------12-|
|----------12-------12-14----12-14-15-12-14-15----|
|-12-14-15----14s15-------15----------------------|
|
|              PM---|            PM          PM----
|  Q           E     E     E     E     E     E
|-------------------------------------------------|
|-------------------------------------------------|
|--5-----------5-----5-----5-----5-----5-----5----|
|--5-----------5-----5-----5-----5-----5-----5----|
|--3-----------3-----3-----3-----3-----3-----3----|
|-------------------------------------------------|


   S  S  S  S  S  S  S  S  S  S  S  S  S  S  E
|-----------------------------------------------|
|-------------------------------------------12--|
|----------------------12-------12-14-12-14-----|
|-------12-14-11-12-14----13-14-----------------|
|-14-15-----------------------------------------|
|-----------------------------------------------|
|
|-|            PM---------------|
|  E     E     E     E     E     E     Q
|-----------------------------------------------|
|-----------------------------------------------|
|--5-----5-----5-----5-----5-----5-----5--------|
|--5-----5-----5-----5-----5-----5-----5--------|
|--3-----3-----3-----3-----3-----3-----3--------|
|-----------------------------------------------|


  E5
   S  S  S  S  S  S  S  S  S  S  S  S  S  S  S  S
|-14h15p14p12-14p12----12-14h15p14p12-14p12----12-|
|-------------------15----------------------15----|
|-------------------------------------------------|
|-------------------------------------------------|
|-------------------------------------------------|
|-------------------------------------------------|
|
|              PM---------|                  PM
|  Q           E     E     E     Q           E
|-------------------------------------------------|
|-------------------------------------------------|
|-------------------------------------------------|
|--2-----------------------------2----------------|
|--2-----------------------------2----------------|
|--0-----------0-----0-----0-----0-----------0----|


              Bsus4
   S  S  S  S  S  S  S  S  S  S  S  S  S  E.
|-14h15p14p12-14p12----12-14h15p14p12-14p12-----|
|-------------------15--------------------------|
|-----------------------------------------------|
|-----------------------------------------------|
|-----------------------------------------------|
|-----------------------------------------------|
|
|        PM                PM----------------|
|  E     E     Q           Q           E     E
|-----------------------------------------------|
|-----------------------------------------------|
|--------------4--------------------------------|
|--2-----------2--------------------------------|
|--2-----------2--------------------------------|
|--0-----0-----------------0-----------0-----0--|


  C5
   S  S  S  S  S  S  S  S  S  T  T  S  S  S  S  S  S
|----------14h15h17p15p14----------------------------|
|-13h15h17----------------17p15p13s12----------------|
|-------------------------------------14p12p11-------|
|----------------------------------------------14s12p|
|----------------------------------------------------|
|----------------------------------------------------|
|
|              PM---|               PM          PM----
|  Q           E     E     E        E     E     E
|----------------------------------------------------|
|----------------------------------------------------|
|--5-----------5-----5-----5--------5-----5-----5----|
|--5-----------5-----5-----5--------5-----5-----5----|
|--3-----------3-----3-----3--------3-----3-----3----|
|----------------------------------------------------|


                     ~~~
   S S  S  S E.   S +Q.     E
|-----------------------------|
|-----------------------------|
|-----------------------------|
|-10p9------------------------|
|------12p10p9----7-(7)-----7-|
|-----------------------------|
|
|-|          PM---------|
|  E    E    E  E    E  E Q
|-----------------------------|
|-----------------------------|
|--5----5----5--5----5--5-5---|
|--5----5----5--5----5--5-5---|
|--3----3----3--3----3--3-3---|
|-----------------------------|


  E5                                Bsus4                  C5
  E  E E E  E E  E  S  S    S S  E   E   E   +H          a E. E.   E E S S E E
|------------------------|-10-----------<5>-(<5>)------|-----------------------|
|---------------12-10h12-|----0-----<5>----------------|-----------------------|
|------9---12-9----------|------<5>--------------------|-4h5--4----5-5p4p2-----|
|-9------9---------------|-----------------------------|-------------------5p2-|
|---10-------------------|-----------------------------|-----------------------|
|------------------------|-----------------------------|-----------------------|
|
|      PM--|        PM           PM           PM-----|           PM|   PM    PM
| Q    E E  E Q     E       E    E   Q        Q    E E     Q     E E E E   E E
|------------------------|-----------------------------|-----------------------|
|------------------------|-----------------------------|-----------------------|
|------------------------|-----------4-----------------|---5-----5-5-5-5---5-5-|
|-2-----------2----------|--2--------2-----------------|---5-----5-5-5-5---5-5-|
|-2-----------2----------|--2--------2-----------------|---3-----3-3-3-3---3-3-|
|-0----0-0--0-0-----0----|--0----0------------0----0-0-|-----------------------|


  C5                    E5
  Gtr IV          Gtr III
  ~~~                    T         T       T       T
  H..             S S    S  S S S  S  S E  S  S E  S  S S S
|-----------------0h7-|-15p12p7p0-14p12p7-15p12p7-17p12p7p0-|
|---------------------|-------------------------------------|
|---------------------|-------------------------------------|
|---------------------|-------------------------------------|
|-3-------------------|-------------------------------------|
|---------------------|-------------------------------------|
|
| PM    PM----|                    PM-----|             PM
| E   E E E E E Q        Q         E    E  E    Q       E
|---------------------|-------------------------------------|
|---------------------|-------------------------------------|
|-5---5-5-5-5-5-5-----|-------------------------------------|
|-5---5-5-5-5-5-5-----|--2----------------------2-----------|
|-3---3-3-3-3-3-3-----|--2----------------------2-----------|
|---------------------|--0---------0----0--0----0-------0---|


            Bsus4
   T         T         T         T
   S  S S S  S  S S S  S  S S S  S  S S S
|-15p12p7p0-14p12p7p0-15p12p7p0-17p12p7p0-|
|-----------------------------------------|
|-----------------------------------------|
|-----------------------------------------|
|-----------------------------------------|
|-----------------------------------------|
|
|       PM             PM-------------|
|  E    E    Q         Q         E    E
|-----------------------------------------|
|-----------------------------------------|
|------------4----------------------------|
|--2---------2----------------------------|
|--2---------2----------------------------|
|--0----0--------------0---------0----0---|


  C5
   T         T         T         T
   S  S S S  S  S S S  S  S S S  S  S S S
|-15p12p8p0-14p12p8p0-15p12p8p0-17p12p8p0-|
|-----------------------------------------|
|-----------------------------------------|
|-----------------------------------------|
|-----------------------------------------|
|-----------------------------------------|
|
|            PM---|         PM        PM---
|  Q         E    E    E    E    E    E
|-----------------------------------------|
|-----------------------------------------|
|--5---------5----5----5----5----5----5---|
|--5---------5----5----5----5----5----5---|
|--3---------3----3----3----3----3----3---|
|-----------------------------------------|


   T         T         T         T
   S  S S S  S  S S S  S  S S S  S  S S S
|-15p12p8p0-14p12p8p0-15p12p8p0-17p12p8p0-|
|-----------------------------------------|
|-----------------------------------------|
|-----------------------------------------|
|-----------------------------------------|
|-----------------------------------------|
|
|-|          PM-------------|
|  E    E    E    E    E    E    Q
|-----------------------------------------|
|-----------------------------------------|
|--5----5----5----5----5----5----5--------|
|--5----5----5----5----5----5----5--------|
|--3----3----3----3----3----3----3--------|
|-----------------------------------------|


  E5
      T      T      T        T      T
                    |---------9:8----------|
   E  S S S  S S S  S S S    S S S  S    S S
|--------------------------------------------|
|-/8-11p8p5-11p8p6-12p9p7---12p9p7-13p==10p8-|
|--------------------------------------------|
|--------------------------------------------|
|--------------------------------------------|
|--------------------------------------------|
|
|         PM-------|                  PM
|  Q      E    E    E     Q           E
|--------------------------------------------|
|--------------------------------------------|
|--------------------------------------------|
|--2----------------------2------------------|
|--2----------------------2------------------|
|--0------0----0----0-----0-----------0------|


                  Bsus4
   T         T         T           ~~~
   |-----------9:8------------|
   S  S S    S  S   S  S  S  +S    Q   S  S   E
|--------------------------------/15------------|
|-14p11p8---14p11p==8-15p13-(13)------15-12-/15-|
|-----------------------------------------------|
|-----------------------------------------------|
|-----------------------------------------------|
|-----------------------------------------------|
|
|         PM                       PM-------|
|  E      E       Q                Q   E      E
|-----------------------------------------------|
|-----------------------------------------------|
|-----------------4-----------------------------|
|--2--------------2-----------------------------|
|--2--------------2-----------------------------|
|--0------0------------------------0---0------0-|


  C5
   S  T  T  S  S  S  T  T  S  S  S  T  T  S  S  S  T  T  S  S
|-------------------------------------------------------------|
|-17p15p12----15-17p15p12----15-17p15p12----15-17p15p12----15-|
|----------15-------------15-------------15-------------15----|
|-------------------------------------------------------------|
|-------------------------------------------------------------|
|-------------------------------------------------------------|
|
|                 PM------|               PM             PM
|  Q              E        E     E        E     E        E
|-------------------------------------------------------------|
|-------------------------------------------------------------|
|--5--------------5--------5-----5--------5-----5--------5----|
|--5--------------5--------5-----5--------5-----5--------5----|
|--3--------------3--------3-----3--------3-----3--------3----|
|-------------------------------------------------------------|


   S  T  T  S   S  S  T  T  S  S  S  T  T  S  S  S   T  T  S  S
|---------------------------------------------------------------||
|-17p15p12-----15-17p15p12----15-17p15p12----15-17p=15p12----15-||
|----------15--------------15-------------15--------------15----||
|---------------------------------------------------------------||
|---------------------------------------------------------------||
|---------------------------------------------------------------||
|
|                                 TP             TP
|  E        Q.                    Q              Q
|---------------------------------------------------------------||
|---------------------------------------------------------------||
|-----------5---------------------------------------------------||
|-----------5---------------------------------------------------||
|--3--------3---------------------xs=============x\-------------||
|---------------------------------------------------------------||


  Bb5        B5     F#5   G5     C#5   D5
               ~~~~~~~~~~~~~~~~~~~~~~~~~~~~~~
   E          +H             +Q         +E
|--------------------------------------------|
|-15---------(15)-----------(15)-------(15)--|
|-14b16======(14)-----------(14)-------(14)r-|
|--------------------------------------------|
|--------------------------------------------|
|--------------------------------------------|
|
|                 PM
|  S     +S    E  E S +S  E   E  S +S    E
|--------------------------------------------|
|--------------------------------------------|
|--3-----(3)s==4-----------------6-(6)s==7---|
|--3-----(3)s==4----4-(4)s5------6-(6)s==7---|
|--1-----(1)s==2----4-(4)s5------4-(4)s==5---|
|-----------------0-2-(2)s3---0--------------|


      E5        F     E     F    G#5   A5  C#5   D5
  W                   W
|-------------------|-------------------------------|
|-------------------|-------------------------------|
|-------------------|-------------------------------|
|-------------------|-------------------------------|
|-------------------|-------------------------------|
|-------------------|-------------------------------|
|
| PM----------|                PM
|         |-3-|
| E E E E E E E  Q    S +S   E E S +S  E E S +S  E
|-------------------|-------------------------------|
|-------------------|-------------------------------|
|---------------10--|-9-(9)s10-------------6-(6)s7--|
|-------------------|------------6-(6)s7---6-(6)s7--|
|-----2---2-2-2--8--|-7-(7)s=8---6-(6)s7---4-(4)s5--|
|-0-0-0-0-0-0-0-----|----------0-4-(4)s5-0----------|


  E5        B5   Bb5   B5  F#5   G5  C#5   D5      E5        F
  Gtrs II, V
  PM-----|               PM                    PM----------|
                                                       |-3-|
  E q  E q  Q    S +S  E E S +S  E E S +S  E   E E E E E E E  Q
|--------------|-----------------------------|--------------------|
|--------------|-----------------------------|--------------------|
|-----------4--|-3-(3)s4-------------6-(6)s7-|---------------10---|
|-2-2--2-2--4--|-3-(3)s4---4-(4)s5---6-(6)s7-|--------------------|
|-2-2--2-2--2--|-1-(1)s2---4-(4)s5---4-(4)s5-|-----2---2-2-2--8---|
|-0-0--0-0-----|---------0-2-(2)s3-0---------|-0-0-0-0-0-0-0------|


  E     F    G#5   A5  C#5   D5  E5              B5     E5     F5
           PM                    PM------------|           PM|    PM|
  S +S   E E S +S  E E S +S  E   E E S S E S S E Q      Q  E E Q  E E
|------------------------------|--------------------||----------------|
|------------------------------|--------------------||o---------------|
|-9-(9)s10-------------6-(6)s7-|-----------------4--||----------------|
|------------6-(6)s7---6-(6)s7-|-----------------4--||--2------3------|
|-7-(7)s=8---6-(6)s7---4-(4)s5-|-2-2-2-2-2-2-2-2-2--||o-2------3------|
|----------0-4-(4)s5-0---------|-0-0-0-0-0-0-0-0----||--0--0-0-1--0-0-|


  1.,2.,3.         4.
  E5     Bb5        E5     Fsus4       E5     F5       E5     Bb5
     PM|    PM|        TP                 PM|    PM|      PM|    PM|
  Q  E E Q  E E  4x Q  Q    Q   Q      Q  E E Q  E E   Q  E E Q  E E
|----------------||----------------||----------------|----------------|
|---------------o||----------------||o---------------|----------------|
|--------3-------||--------10--10--||----------------|--------3-------|
|-2------3-------||-2--x/---8---8--||--2------3------|-2------3-------|
|-2------1------o||-2--x/---8---8--||o-2------3------|-2------1-------|
|-0--0-0----0-0--||-0--------------||--0--0-0-1--0-0-|-0--0-0----0-0--|


                 1.               2.
  E5     F5       E5     Bb5       E5     Bb5
     PM|    PM|      PM|              PM|
  Q  E E Q  E E   Q  E E Q  Q      Q  E E Q  Q
|---------------|---------------||---------------|
|---------------|--------------o||---------------|
|---------------|--------3--3---||---------------|
|-2------3------|-2------3--3---||-2------8------|
|-2------3------|-2------1--1--o||-2------8------|
|-0--0-0-1--0-0-|-0--0-0--------||-0--0-0-6--6\--|


  E5     F#5      G5                 E5     F#5      G5     F5      (E)
     PM|    PM|      PM----------|      PM|    PM|      PM|
  Q  E E Q  E E   Q  E S S E E E E   Q  E E Q  E E   Q  E E  S  +S  E E E
|---------------|------------------|---------------|-----------------------|
|---------------|------------------|---------------|-----------------------|
|---------------|------------------|---------------|--------10-(10)s9------|
|-2------4------|-5----------------|-2------4------|-5------10-(10)s9------|
|-2------4------|-5--------5-4-3-2-|-2------4------|-5-------8--(8)s7------|
|-0--0-0-2--0-0-|-3--0-0-0---------|-0--0-0-2--0-0-|-3--0-0-----------0h3--|


     PM|    PM|      PM----------|      PM|    PM|
  Q  E E Q  E E   Q  E S S E E E E   Q  E E Q  E E   Q  Q    H
|---------------|------------------|---------------|---------------||
|---------------|------------------|---------------|---------------||
|---------------|------------------|---------------|---------------||
|-2------4------|-5----------------|-2------4------|-5--x----------||
|-2------4------|-5--------5-4-3-2-|-2------4------|-5--x----------||
|-0--0-0-2--0-0-|-3--0-0-0---------|-0--0-0-2--0-0-|-3--x--/12\----||


 3rd Verse
  Bb5   A5      Bb5 E5      Bb5   A5      Bb5 E5
                  PM    PM                  PM    PM
  S +S  E S +S  E E E E E   S +S  E S +S  E E E E E
|-------------------------|-------------------------|
|-------------------------|-------------------------|
|-------------------------|-------------------------|
|-8-(8)s7-7-(7)s8---------|-8-(8)s7-7-(7)s8---------|
|-8-(8)s7-7-(7)s8---2-2---|-8-(8)s7-7-(7)s8---2-2---|
|-6-(6)s5-5-(5)s6-0-0-0-0-|-6-(6)s5-5-(5)s6-0-0-0-0-|


  Bb5   A5      Bb5 E5      Bb5   A5      Bb5   C5
                  PM    PM                  PM|
  S +S  E S +S  E E E E E   S +S  E S +S  E E E Q
|-------------------------|------------------------|
|-------------------------|------------------------|
|-------------------------|---------------------5--|
|-8-(8)s7-7-(7)s8---------|-8-(8)s7-7-(7)s8-----5--|
|-8-(8)s7-7-(7)s8---2-2---|-8-(8)s7-7-(7)s8-----3--|
|-6-(6)s5-5-(5)s6-0-0-0-0-|-6-(6)s5-5-(5)s6-0-0----|


  Bb5   A5      Bb5 E5      Bb5   A5      Bb5 E5
                  PM    PM                  PM    PM
  S +S  E S +S  E E E E E   S +S  E S +S  E E E E E
|-------------------------|--------------------------|
|-------------------------|--------------------------|
|-------------------------|--------------------------|
|-8-(8)s7-7-(7)s8---------|-8-(8)s7-7-(7)s8----------|
|-8-(8)s7-7-(7)s8---2-2---|-8-(8)s7-7-(7)s8---2-2----|
|-6-(6)s5-5-(5)s6-0-0-0-0-|-6-(6)s5-5-(5)s6-0-0-0-0--|


  Bb5   A5      Bb5   Csus4 BsusBb5   A5
                  PM|
  S +S  E S +S  E E E S +S  E   S +S  E E E E E E E
|-----------------------------|---------------------|
|-----------------------------|---------------------|
|-----------------------------|---------------------|
|-8-(8)s7-7-(7)s8-----3-(3)s2-|-8-(8)s7-------------|
|-8-(8)s7-7-(7)s8-----3-(3)s2-|-8-(8)s7-0-2-2-0-----|
|-6-(6)s5-5-(5)s6-0-0---------|-6-(6)s5---------3-2-|


  Bb5   A5      Bb5 E5      Bb5   A5      Bb5 E5
                  PM    PM                  PM    PM
  S +S  E S +S  E E E E E   S +S  E S +S  E E E E E
|-------------------------|--------------------------|
|-------------------------|--------------------------|
|-------------------------|--------------------------|
|-8-(8)s7-7-(7)s8---------|-8-(8)s7-7-(7)s8----------|
|-8-(8)s7-7-(7)s8---2-2---|-8-(8)s7-7-(7)s8---2-2----|
|-6-(6)s5-5-(5)s6-0-0-0-0-|-6-(6)s5-5-(5)s6-0-0-0-0--|


  Bb5   A5      Bb5 E5      Bb5   A5      Bb5   C5
                  PM    PM                  PM|
  S +S  E S +S  E E E E E   S +S  E S +S  E E E Q
|-------------------------|------------------------|
|-------------------------|------------------------|
|-------------------------|---------------------5--|
|-8-(8)s7-7-(7)s8---------|-8-(8)s7-7-(7)s8-----5--|
|-8-(8)s7-7-(7)s8---2-2---|-8-(8)s7-7-(7)s8-----3--|
|-6-(6)s5-5-(5)s6-0-0-0-0-|-6-(6)s5-5-(5)s6-0-0----|


  Bb5   A5      Bb5 E5      Bb5   A5      Bb5 E5
                  PM    PM                  PM    PM
  S +S  E S +S  E E E E E   S +S  E S +S  E E E E E
|-------------------------|--------------------------|
|-------------------------|--------------------------|
|-------------------------|--------------------------|
|-8-(8)s7-7-(7)s8---------|-8-(8)s7-7-(7)s8----------|
|-8-(8)s7-7-(7)s8---2-2---|-8-(8)s7-7-(7)s8---2-2----|
|-6-(6)s5-5-(5)s6-0-0-0-0-|-6-(6)s5-5-(5)s6-0-0-0-0--|


  Bb5   A5      Bb5   Csus4 BsusBb5   A5
                  PM|
  S +S  E S +S  E E E S +S  E   S +S  E E E E E E E
|-----------------------------|---------------------||
|-----------------------------|---------------------||
|-----------------------------|---------------------||
|-8-(8)s7-7-(7)s8-----3-(3)s2-|-8-(8)s7-------------||
|-8-(8)s7-7-(7)s8-----3-(3)s2-|-8-(8)s7-0-2-2-0-----||
|-6-(6)s5-5-(5)s6-0-0---------|-6-(6)s5---------3-2-||


 Chorus III
  E5     F#5      G5
     PM|    PM|      PM----------|
  Q  E E Q  E E   Q  E S S E E E E
|---------------|------------------|
|---------------|------------------|
|---------------|------------------|
|-2------4------|-5----------------|
|-2------4------|-5--------5-4-3-2-|
|-0--0-0-2--0-0-|-3--0-0-0---------|


  E5     F#5      G5     F5      (E)     E5     F#5      G5
     PM|    PM|      PM|                    PM|    PM|      PM----------|
  Q  E E Q  E E   Q  E E  S  +S  E E E   Q  E E Q  E E   Q  E S S E E E E
|---------------|----------------------|---------------|-------------------|
|---------------|----------------------|---------------|-------------------|
|---------------|--------10-(10)s9-----|---------------|-------------------|
|-2------4------|-5------10-(10)s9-----|-2------4------|-5-----------------|
|-2------4------|-5-------8--(8)s7-----|-2------4------|-5--------5-4-3-2--|
|-0--0-0-2--0-0-|-3--0-0-----------0h3-|-0--0-0-2--0-0-|-3--0-0-0----------|


  E5     F#5      G5                    F#5   G5    F#5 F5    E5
                                                   2/4
     PM|    PM|                     PM|   PM|   PM    PM
  Q  E E Q  E E   Q  Q    H       E E E E E E E E   E E S +S  E
|---------------|---------------|-----------------|-------------|
|---------------|---------------|-----------------|-------------|
|---------------|---------------|-----------------|-------------|
|-2------4------|-5--x----------|-5-----4-----5---|-4---3-(3)s2-|
|-2------4------|-5--x----------|-5-----4-----5---|-4---3-(3)s2-|
|-0--0-0-2--0-0-|-3--x--/12\----|-3-0-0-2-0-0-3-0-|-2-0-1-(1)s0-|


  G5    F#5   G5    F#5 F5    E5    E5      G5    F#5
 4/4               2/4             4/4
    PM|   PM|   PM    PM              PM--|   PM|
  E E E E E E E E   E E S +S  E     E E E E E E E E
|-----------------|-------------||------------------|
|-----------------|-------------||o-----------------|
|-----------------|-------------||------------------|
|-5-----4-----5---|-4---3-(3)s2-||--2-------5-----4-|
|-5-----4-----5---|-4---3-(3)s2-||o-2-------5-----4-|
|-3-0-0-2-0-0-3-0-|-2-0-1-(1)s0-||--0-0-0-0-3-0-0-2-|


      G5  F#5 F5    E5  G5     F#5   G5    F#5 F5    E5
 4/4                                      2/4             4/4
  PM|   PM  PM               PM  PM|   PM    PM
  E E E E E E S +S  E    E E E E E E E E   E E S +S  E  3x Q  Q  H
|---------------------|------------------|--------------||------------*|
|---------------------|------------------|-------------o||------------*|
|---------------------|------------------|--------------||------------*|
|-----5---4---3-(3)s2-|-/5-----4-----5---|-4---3-(3)s2--||-2----------*|
|-----5---4---3-(3)s2-|-/5-----4-----5---|-4---3-(3)s2-o||-2----------*|
|-0-0-3-0-2-0-1-(1)s0-|-/3-0-0-2-0-0-3-0-|-2-0-1-(1)s0--||-0----------*|



Duration Legend
---------------
W - whole; H - half; Q - quarter; E - 8th; S - 16th; T - 32nd; X - 64th; a - acciaccatura
+ - note tied to previous; . - note dotted; .. - note double dotted
Uncapitalized letters represent notes that are staccato (1/2 duration)
Irregular groupings are notated above the duration line
Duration letters will always appear directly above the note/fret number it represents the
duration for.  Duration letters with no fret number below them represent rests.  Multi-
bar rests are notated in the form Wxn, where n is the number of bars to rest for.  Low
melody durations appear below the staff

Tablature Legend
----------------
 h   - hammer-on
 p   - pull-off
 b   - bend
 pb  - pre-bend
 r   - bend release (if no number after the r, then release immediately)
 /\  - slide into or out of (from/to "nowhere")
 s   - legato slide
 S   - shift slide
 - natural harmonic
[n]  - artificial harmonic
n(n) - tapped harmonic
 ~   - vibrato
 tr  - trill
 T   - tap
 TP  - trem. picking
 PM  - palm muting
\n/  - tremolo bar dip; n = amount to dip
 \n  - tremolo bar down
 n/  - tremolo bar up
/n\  - tremolo bar inverted dip
 =   - hold bend; also acts as connecting device for hammers/pulls
 <> - volume swell (louder/softer)
 x   - on rhythm slash represents muted slash
 o   - on rhythm slash represents single note slash

Misc Legend
-----------
 |  - bar
||  - double bar
||o - repeat start
o|| - repeat end
*|  - double bar (ending)
 :  - bar (freetime)
 $  - Segno
 &  - Coda
Tempo markers -  = BPM(8/16=s8/s16), where s8 = swing 8ths, s16 = swing 16ths

comments
print report bad tab
I want to post or [tab]
guest
You may want to rate the tab now too:
select rating
Please do not post tabs as comments. Select "correction" instead!