Oops, an error
Loading. Please wait.

Dog Faced Gods Tab

ver2
ver2

Whole song

More versions @911Tabs.com
495 views 3 this week
no commentswrite comment
1 2 3 4 5
please rate
Autoscroll
+/-
esc
set tempo
stop
Contributor
Tuning
D G C F A D
WARNING: You are trying to view
                                    content from Ultimate-Guitar.com
                                    in an unauthorized application,
                                    which is prohibited.

                                    Please use an official Ultimate
                                    Guitar Tabs application for iPhone,
                                    iPad or Android to access legitimate
                                    chords, guitar, bass, and drum tabs
                                    from Ultimate-Guitar.com database.

                                    Type "ultimate guitar tabs" in Apple
                                    App Store's or Android Market's
                                    search to find the application.
#----------------------------------PLEASE NOTE---------------------------------#
#This file is the author's own work and represents their interpretation of the #
#song. You may only use this file for private study, scholarship, or research. #
#------------------------------------------------------------------------------#

DOG FACED GODS
As recorded by Testament
(From the 1994 Album LOW)

Transcribed by Kenn Chipkin, Alex Houton, Matt Scharfglass
	

Words by Peterson, Billy, James Music by Peterson

F5
3 5 5 x x x
	
B5
x 4 6 6 x x
	
Bb5
x 3 5 5 x x
	
G#5
x 1 3 3 x x

Eb5
1 3 3 x x x
	
E5
2 4 4 x x x
	
D5
0 2 2 x x x

Gtr I (D G C F A D) - 'Untitled'
Gtr II (D G C F A D) - 'Untitled'
Gtr III (D G C F A D) - 'Untitled'
Gtr IV (D G C F A D) - 'Untitled'
Gtr V (D G C F A D) - 'Untitled'

 Intro
  Very fast Q=208
  F5
 4/4
  Gtr II
  Q       Q   H             W
  |
  /

  Gtr I
  PM----|     PM----|       PM----|
  S S S S E E S S S S E E   S S S S E E  E   E   E   E
|-------------------------|-----------------------------|
|-------------------------|-----------------------------|
|-------------------------|-----------------------------|
|-------------------------|-------------[4]p[3]---------|
|---------------------4p3-|---------------------[5]p[4]-|
|-3-3-3-3-6p3-3-3-3-3-----|-3-3-3-3-6p3-----------------|


                            B5      BbG#5
  W                         Q  Q  E E Q
                            |     | | |
                            /     / / /

  PM----|     PM----|
  S S S S E E S S S S E E   Q  Q  E E Q
|-------------------------|--------------|
|-------------------------|--------------|
|-------------------------|-6-----6-5-3--|
|-------------------------|-6-----6-5-3--|
|---------------------4p3-|-4-----4-3-1--|
|-3-3-3-3-6p3-3-3-3-3-----|--------------|


  N.C.(G5)
  Gtrs I, II
  PM----|     PM----|       PM----|
  S S S S E E S S S S E E   S S S S E E E E E E
|-------------------------|---------------------|
|-------------------------|---------------------|
|-------------------------|---------------------|
|-------------------------|-------------4p3-----|
|---------------------4p3-|-----------------5p4-|
|-3-3-3-3-6p3-3-3-3-3-----|-3-3-3-3-6p3---------|


                            B5      BbG#5
  PM----|     PM----|
  S S S S E E S S S S E E   Q  Q  E E Q
|-------------------------|--------------||
|-------------------------|--------------||
|-------------------------|-6-----6-5-3--||
|-------------------------|-6-----6-5-3--||
|---------------------4p3-|-4-----4-3-1--||
|-3-3-3-3-6p3-3-3-3-3-----|--------------||


    N.C.
    PM--------------------------|       PM------------|
    E E E E E E E E   E E E E E E E E   E E E E E E E E
||------------------|-----------------|-----------------|
||o-----------------|-----------------|-----------------|
||------------------|-----------------|-----------------|
||------------------|-----------------|-----------------|
||o-----------------|-----------3-----|-----------------|
||--0-1-0-2-0-1-0-2-|-0-1-0-2-0---2p1-|-0-1-0-2-0-1-0-2-|


  PM------|           PM------------------------|
  E E E E E E S S E   E E E E E E E E   E E E E E E E E
|-------------------|-----------------|-----------------|
|-------------------|-----------------|-----------------|
|-------------------|-----------------|-----------------|
|-------------------|-----------------|-----------------|
|-------------------|-----------------|-----------3-----|
|-0-1-0-2-0-3-3-3-3-|-0-1-0-2-0-1-0-2-|-0-1-0-2-0---2p1-|


                       1.                 2.
            (EF5)          Eb5      E5             Eb5 E5
  Gtr III
                                                       ~~
  W                     W                  H       Q   Q
|---------------------|-----------------||------------------||
|---------------------|----------------o||------------------||
|---------------------|-----------------||------------------||
|---------------------|-----------------||------------------||
|---------------------|----------------o||-------------5s===||
|---------------------|-----------------||------------------||
|
| Gtrs I, II
| PM--------|
| E E E E E E S S S S   E E E E E E Q      E E E E E E Q
|---------------------|-----------------||------------------||
|---------------------|----------------o||------------------||
|---------------------|-----------------||------------------||
|---------------------|-5---4---3---4---||-5---4---3---4----||
|-------------2-2-2-2-|-5---4---3---4--o||-5---4---3---4----||
|-0-1-0-2-0-1-0-0-0-0-|-3---2---1---2---||-3---2---1---2----||


  D5                        F5E5Eb5  D5
                            ~~~~~~~~~~~~~      ~
  Q.  E Q  E  E    Q    E E H        +Q   E  E H
|---------------|------------------|----------------|
|---------------|------------------|----------------|
|---------------|------------------|----------------|
|---------------|------------------|------9s10-9----|
|-7s==8s7--8-11-|-12---11-8-7------|-(7)------------|
|---------------|------------------|----------------|
|
|                           PM--|
|                           |-3-|
| W               +H        Q Q Q     W
|---------------|------------------|----------------|
|---------------|------------------|----------------|
|---------------|------------------|----------------|
|-2-------------|-(2)-------5-4-3--|--2-------------|
|-2-------------|-(2)-------5-4-3--|--2-------------|
|-0-------------|-(0)-------3-2-1--|--0-------------|


  F5    E5  Eb5   E5    D5                      F5E5Eb5
                        ~                       ~
                             |-3--|     |--3--|
   E  E  Q   E  E  Q    H    Q Q  Q     Q   Q Q H
|---------------------|--------------|-----------------|
|---------------------|--------------|-----------------|
|---------------------|--------------|-----------------|
|---------------------|--------------|-----------------|
|-12s14s12--11s12s11--|-7----7s8-11--|-12--11-8-7------|
|---------------------|--------------|-----------------|
|
|                                               PM--|
|                                               |-3-|
|  Q     Q   Q     Q    W              +H       Q Q Q
|---------------------|--------------|-----------------|
|---------------------|--------------|-----------------|
|---------------------|--------------|-----------------|
|--5-----4---3-----4--|-2------------|-(2)------5-4-3--|
|--5-----4---3-----4--|-2------------|-(2)------5-4-3--|
|--3-----2---1-----2--|-0------------|-(0)------3-2-1--|


  D5           F5   E5   Eb5   E5
  Gtr III
                ~~~~~~~~~~~~~
  H     H       H         Q.      +E
|------------|-------------------------||
|------------|-------------------------||
|------------|-------------------------||
|------------|-------------------------||
|-2/----5----|--7---------5-------(5)\-||
|------------|-------------------------||
|
| Gtr II
| W             Q    Q    Q     Q
|------------|-------------------------||
|------------|-------------------------||
|------------|-12---11---10----11------||
|-2----------|-12---11---10----11------||
|-2----------|-10----9----8-----9------||
|-0----------|-------------------------||
|
| Gtr I
| W             E E  E E  E  E  E  E
|------------|-------------------------||
|------------|-------------------------||
|------------|-------------------------||
|-2----------|--5----4----3-----4------||
|-2----------|--5----4----3-----4------||
|-0----------|--3----2----1-----2------||


 Verse 1
  Q=208
  N.C.(D5)                                                          (EF5
  Gtrs I, II
  PM--------------------------|       PM----------------------|
  E E E E E E E E   E E E E E E E E   E E E E E E E E   E E E E S S E E E
|-----------------|-----------------|-----------------|-------------------|
|-----------------|-----------------|-----------------|-------------------|
|-----------------|-----------------|-----------------|-------------------|
|-----------------|-----------------|-----------------|-------------------|
|-----------------|-----------3-----|-----------------|---------2-2-4-5-5-|
|-0-1-0-2-0-1-0-2-|-0-1-0-2-0---2p1-|-0-1-0-2-0-1-0-2-|-0-1-0-2-0-0-2-3-3-|


  N.C.(D5)                                                  F5  E5  Eb5 E5
  PM------------------------|         PM--------|
  E E E E E E E E   E E E E E E E E   E E E E E E S S S S   E E E E E E Q
|-----------------|-----------------|---------------------|------------------||
|-----------------|-----------------|---------------------|------------------||
|-----------------|-----------------|---------------------|------------------||
|-----------------|-----------------|---------------------|-5---4---3---4----||
|-----------------|-----------3-----|-------------2-2-2-2-|-5---4---3---4----||
|-0-1-0-2-0-1-0-2-|-0-1-0-2-0---2p1-|-0-1-0-2-0-1-0-0-0-0-|-3---2---1---2----||


    N.C.(D5)                                G#5G5
    PM|     PM|   PM    PM|     PM  PM----|
    E E S S S S E E S S S S   E E S S S S E Q  E
||--------------------------|--------------------|
||o-------------------------|--------------------|
||--------------------------|--------------------|
||--------------------------|---------------8--7-|
||o-----8-8-7-5-7---8-8-7-5-|-7-------------8--7-|
||--0-0-----------0---------|---0-0-0-0-0-0-6--5-|


  N.C.(D5)                  G#G5F5  A5 G#5
  PM|     PM|   PM          PM----|
                            |-3-|
  E E S S S S E E S S S S   Q Q Q E Q  E
|-------------------------|-----------------||
|-------------------------|----------------o||
|-------------------------|---------4--3----||
|-------------------------|-8-7-5---4--3----||
|-----8-8-7-5-7---8-8-7-5-|-8-7-5---2--1---o||
|-0-0-----------0---------|-6-5-3-0---------||


  D5                       F5E5Eb5  D5               F5  E5 Eb5 E5
  Gtr III
  ~~                       ~~~~~~~~~~~~~      ~
                   |--3--|
  Q.  E Q  E  E    Q   Q Q H        +Q   E  E H      E E Q  E E Q
|---------------|-----------------|----------------|----------------|
|---------------|-----------------|----------------|----------------|
|---------------|-----------------|----------------|----------------|
|---------------|-----------------|------9s10s9----|-7s9s7--6s7s9---|
|-7s==8s7--8-11-|-12--11-8-7------|-(7)------------|----------------|
|---------------|-----------------|----------------|----------------|
|
| Gtrs I, II
|                          PM--|
|                          |-3-|
| W               +H       Q Q Q     W               Q   Q  Q   Q
|---------------|-----------------|----------------|----------------|
|---------------|-----------------|----------------|----------------|
|---------------|-----------------|----------------|----------------|
|-2-------------|-(2)------5-4-3--|--2-------------|-5---4--3---4---|
|-2-------------|-(2)------5-4-3--|--2-------------|-5---4--3---4---|
|-0-------------|-(0)------3-2-1--|--0-------------|-3---2--1---2---|


  D5                              F5  E5Eb5
  Gtr III
  +Q    Q   a  Q   Q     E   E Q  Q   Q
|---------------------|-------------------|
|---------------------|-------------------|
|---------------------|-------------------|
|-(9)--10--10S12--10--|--9s=10s9--7---9---|
|---------------------|-------------------|
|---------------------|-------------------|
|
| Gtr II
|                                 PM----|
|                                 |--3--|
|  W                    +H        Q Q   Q
|---------------------|-------------------|
|---------------------|-------------------|
|---------------------|-------------------|
|--2------------------|-(2)-------5-4---3-|
|--2------------------|-(2)-------5-4---3-|
|--0------------------|-(0)-------3-2---1-|
|
| Gtr I
|                                 PM----|
|                                 |--3--|
|  W                    +H        Q Q   Q
|---------------------|-------------------|
|---------------------|-------------------|
|---------------------|-------------------|
|--2------------------|-(2)-------5-4---3-|
|--2------------------|-(2)-------5-4---3-|
|--0------------------|-(0)-------3-2---1-|


  D5            F5      E5   Eb5  E5
   ~~              ~~~~~~~~~~~~~~~~~~~~~~~~
   H     H      a  H.             +E  +E
|-------------|------------------------------||
|-------------|------------------------------||
|-------------|-7S=9--------------(9)-(9)\---||
|-10----12----|------------------------------||
|-------------|------------------------------||
|-------------|------------------------------||
|
|  W               Q     Q    Q    Q
|-------------|------------------------------||
|-------------|------------------------------||
|-------------|---12----11---10---11---------||
|--2----------|---12----11---10---11---------||
|--2----------|---10-----9----8----9---------||
|--0----------|------------------------------||
|
|  W               E  E  E E  E E  E   E
|-------------|------------------------------||
|-------------|------------------------------||
|-------------|------------------------------||
|--2----------|----5-----4----3----4---------||
|--2----------|----5-----4----3----4---------||
|--0----------|----3-----2----1----2---------||


 Verse 2
  Q=208
  N.C.(D5)
  Gtr III
   ~~~~~~~~~~~~~~
   H         Q.       E      +E   E Q   H
|------------------------|----------------------|
|------------------------|----------------------|
|------------------------|----------------------|
|------------------------|----------------------|
|-[7]-------[7]s====[10]-|-([10])---------------|
|------------------------|----------------------|
|
| Gtrs I, II
|  PM-------------------------------------|
|  E  E E E  E  E E   E       E   E E E E E E E
|------------------------|----------------------|
|------------------------|----------------------|
|------------------------|----------------------|
|------------------------|----------------------|
|------------------------|----------------3-----|
|--0--1-0-2--0--1-0---2--|----0---1-0-2-0---2p1-|


                                E5F5
  W                 W
|-----------------|-------------------|
|-----------------|-------------------|
|-----------------|-------------------|
|-----------------|-------------------|
|-----------------|-------------------|
|-----------------|-------------------|
|
| PM----------------------|
| E E E E E E E E   E E E E S S E E E
|-----------------|-------------------|
|-----------------|-------------------|
|-----------------|-------------------|
|-----------------|-------------------|
|-----------------|---------2-2-4-5-5-|
|-0-1-0-2-0-1-0-2-|-0-1-0-2-0-0-2-3-3-|


  N.C.(D5)                                                  F5  E5  Eb5 E5
  Gtrs I, II
  PM------------------------|         PM--------|
  E E E E E E E E   E E E E E E E E   E E E E E E S S S S   E E E E E E Q
|-----------------|-----------------|---------------------|------------------|
|-----------------|-----------------|---------------------|------------------|
|-----------------|-----------------|---------------------|------------------|
|-----------------|-----------------|---------------------|-5---4---3---4----|
|-----------------|-----------------|-------------2-2-2-2-|-5---4---3---4----|
|-0-1-0-2-0-1-0-2-|-0-1-0-2-0-3-2-1-|-0-1-0-2-0-1-0-0-0-0-|-3---2---1---2----|


  N.C.(D5)                                                          E5F5
  PM--------------------------|       PM------------------------|
  E E E E E E E E   E E E E E E E E   E E E E E E E E   E E E E S S E E E
|-----------------|-----------------|-----------------|-------------------|
|-----------------|-----------------|-----------------|-------------------|
|-----------------|-----------------|-----------------|-------------------|
|-----------------|-----------------|-----------------|-------------------|
|-----------------|-----------3-----|-----------------|---------2-2-4-5-5-|
|-0-1-0-2-0-1-0-2-|-0-1-0-2-0---2p1-|-0-1-0-2-0-1-0-2-|-0-1-0-2-0-0-2-3-3-|


  N.C.(D5)                                                  F5  E5  Eb5 E5
  PM------------------------|         PM--------|
  E E E E E E E E   E E E E E E E E   E E E E E E S S S S   E E E E E E Q
|-----------------|-----------------|---------------------|------------------||
|-----------------|-----------------|---------------------|------------------||
|-----------------|-----------------|---------------------|------------------||
|-----------------|-----------------|---------------------|-5---4---3---4----||
|-----------------|-----------------|-------------2-2-2-2-|-5---4---3---4----||
|-0-1-0-2-0-1-0-2-|-0-1-0-2-0-3-2-1-|-0-1-0-2-0-1-0-0-0-0-|-3---2---1---2----||


   Chorus
    Half-time Q=104
    $
    D5G#A5D5  F5E5D5  E5  D5G#A5E5F5E5D5  E5
    PM|   PM      PM|     PM|   PM    PM|
    E E E E a E E S S E   E E E E E E S S E
||----------------------|-------------------|
||o---------------------|-------------------|
||----3-4---------------|---3-4-------------|
||----3-4---4s5-4-2-2-4-|---3-4---5-4-2-2-4-|
||o-2-1-2---4s5-4-2-2-4-|-2-1-2---5-4-2-2-4-|
||--0-----0-2s3-2-0-0-2-|-0-----0-3-2-0-0-2-|


    G#A5  F5E5      D5G#A5D5F5E5D5  E5
  PM|   PM    PM    PM----|     PM|
  E E E E E E E E   E E E E E E S S E
|-----------------|--------------------|
|-----------------|--------------------|
|---3-4-----------|---3-4--------------|
|---3-4---5-4---4-|---3-4---5-4-2-2-4--|
|-2-1-2---5-4---4-|-2-1-2-2-5-4-2-2-4--|
|-0-----0-3-2-0-2-|-0-----0-3-2-0-0-2--|


  1.
        F5
  PM--|   PM--|   PM--|   PM--|
  |-3-|   |-3-|   |-3-|   |-3-|
  S S S E S S S E S S S E S S S E
|----------------------------------||
|---------------------------------o||
|----------------------------------||
|-------5-------5-------5-------5--||
|-------5-------5-------5-------5-o||
|-0-0-0-3-0-0-0-3-0-0-0-3-0-0-0-3--||


 2.
                                                           To Coda
        F5
  PM--|   PM--|   PM--|   PM--|     PM--|   PM--|   PM--|   PM--|
  |-3-|   |-3-|   |-3-|   |-3-|     |-3-|   |-3-|   |-3-|   |-3-|
  S S S E S S S E S S S E S S S E   S S S E S S S E S S S E S S S E
|---------------------------------|---------------------------------||
|---------------------------------|---------------------------------||
|---------------------------------|---------------------------------||
|-------5-------5-------5-------5-|-------5-------5-------5-------5-||
|-------5-------5-------5-------5-|-------5-------5-------5-------5-||
|-0-0-0-3-0-0-0-3-0-0-0-3-0-0-0-3-|-0-0-0-3-0-0-0-3-0-0-0-3-0-0-0-3-||


    Original tempo Q=208
    N.C.(D5)                                G#5G5
    PM|     PM|   PM    PM|     PM  PM----|
    E E S S S S E E S S S S   E E S S S S E Q  E
||--------------------------|--------------------|
||o-------------------------|--------------------|
||--------------------------|--------------------|
||--------------------------|---------------8--7-|
||o-----8-8-7-5-7---8-8-7-5-|-7-------------8--7-|
||--0-0-----------0---------|---0-0-0-0-0-0-6--5-|


  N.C.(D5)                  G#G5F5  A5 G#5
  PM|     PM|   PM          PM----|
                            |-3-|
  E E S S S S E E S S S S   Q Q Q E Q  E
|-------------------------|-----------------||
|-------------------------|----------------o||
|-------------------------|---------4--3----||
|-------------------------|-8-7-5---4--3----||
|-----8-8-7-5-7---8-8-7-5-|-8-7-5---2--1---o||
|-0-0-----------0---------|-6-5-3-0---------||


  Half-time Q=104
  N.C.(D5)
  Gtr III
                                      ~      ~        ~
  W               W               E E Q  E E Q    E E Q  H
|---------------|---------------|---------------|---------------||
|---------------|---------------|---------------|---------------||
|---------------|---------------|---------------|---------------||
|---------------|---------------|-----5------5--|-----5--7b9----||
|---------------|---------------|---------------|---------------||
|---------------|---------------|-0-0----0-0----|-0-0-----------||
|
| Gtrs I, II
|     ~      ~        ~      ~        ~      ~        ~
| E E Q  E E Q    E E Q  E E Q    E E Q  E E Q    E E Q  H
|---------------|---------------|---------------|---------------||
|---------------|---------------|---------------|---------------||
|---------------|---------------|---------------|---------------||
|---------------|---------------|---------------|---------------||
|-----7------7--|-----7------7--|-----7------7--|-----7---------||
|-0-0----0-0----|-0-0----0-0----|-0-0----0-0----|-0-0-----------||


 Instrumental solo
  D5   A5  G#5   G5                    G#G5Eb5
  Gtrs I, II, III
  H     E. S +E  E   E S S S S S S S E S E E
|------------------|-------------------------|
|------------------|-------------------------|
|------------------|-------------------------|
|-2----/9--8-(8)-7-|-7-7-7-7-7-7-7-7-7-8-7-3-|
|-2----/9--8-(8)-7-|-7-7-7-7-7-7-7-7-7-8-7-3-|
|-0----/7--6-(6)-5-|-5-5-5-5-5-5-5-5-5-6-5-1-|


  D5   A5 G#5   G5          G#5   Eb5
  H    E. S +E  E   H    E. S +E  E
|-----------------|-----------------|
|-----------------|-----------------|
|-----------------|-----------------|
|-2----9--8-(8)-7-|-7---------------|
|-2----9--8-(8)-7-|-7----7--8-(8)-3-|
|-0----7--6-(6)-5-|-5----5--6-(6)-1-|


  F5            C5  B5    Bb5          N.C.   B5    (G(F#5(F5)
  PM----|   PM|                     ~~~
  S S S S E S S  E. S +E  E   +Q   +E  S S E. S +S  S E
|---------------------------|---------------------------|
|---------------------------|---------------------------|
|-------------------6-(6)-5-|-(5)--(5)-x-x-5--6-(6)-----|
|-5-------5-----/7--6-(6)-5-|-(5)--(5)-x-x-5--6-(6)-7s6-|
|-5-5-5-5-5-----/5--4-(4)-3-|-(3)--(3)-x-x-3--4-(4)-----|
|-3-3-3-3-3-3-x-------------|-----------------------5s4-|


           C  B     Bb             B5
  ~
  Q  Q   a E. S +E  E   +H      E. S +E  E
|---------------------|------------------------||
|--------5s7--6-(6)-5-|-(5)\-------------------||
|--------5s7--6-(6)-5-|-(5)\-------------------||
|-5--5\--2s4--3-(3)-2-|-(2)\----5--6-(6)-------||
|--------3s5--4-(4)-3-|-(3)\----3--4-(4)-6-----||
|-3-------------------|------------------4b4.5-||


 Guitar Solo: (James)
  D5                      Eb5               C5       D5       Eb5
  Gtr IV
                                 ~~                               ~~
   |--3--|  |--3--|  |--3--|        |--3--|  |--3--|  |--3--|
   S  S  S  S  S  S  S  S  S  S  S  S  S  S  S  S  S  S  S  S  S  S
|-------------------------------------------------------------------|
|-------------------------------------------------18-17h18p17s15h17-|
|----------------17-16h17p16s14h16----------16h19-------------------|
|----------16h19-------------------------17-------------------------|
|-------17-------------------------15h19----------------------------|
|-15h19-------------------------------------------------------------|
|
| Gtr V
|                                ~~                               ~~
|  |------6-------|  |--3--|        |------6-------|  |--3--|
|  S  S  S  S  S  S  S  S  S  S  S  S  S  S  S  S  S  S  S  S  S  S
|-------------------------------------------------------------------|
|-------------------------------------------------15-13h15p13s12h13-|
|----------------14-12h14p12s11h12----------12h16-------------------|
|----------12h16-------------------------14-------------------------|
|-------14-------------------------12h15----------------------------|
|-12h15-------------------------------------------------------------|
|
| Gtrs I, II
|  PM                PM             PM
|  E        E        E        E     E        E        E        E
|-------------------------------------------------------------------|
|-------------------------------------------------------------------|
|-------------------------------------------------------------------|
|-----------9----------------10--------------7--------9-------10----|
|-----------7-----------------8--------------5--------7--------8----|
|--0-----------------0--------------0-------------------------------|


  D5                                     Eb5               C5       D5       Eb5
  Gtr IV
   |------6-------|        |-----5-----|                             |------6-------|
   T  T  T  T  T  T  S  S  T  T  T  T  T  S  S  T  T  T  T  T  T  S  S  S  S  S  S  S
|--------------------------------------------------------------------------------------|
|-17h18p17p15h17p15s13h15h17p15p13h15p13s12h13h15p13p12h13h15p13p12h13p12----12--------|
|-------------------------------------------------------------------------14----14-12--|
|--------------------------------------------------------------------------------------|
|--------------------------------------------------------------------------------------|
|--------------------------------------------------------------------------------------|
|
| Gtrs I, II
|  PM                      PM                   PM
|  E                 E     E              E     E           E        E        E
|--------------------------------------------------------------------------------------|
|--------------------------------------------------------------------------------------|
|--------------------------------------------------------------------------------------|
|--------------------9-------------------10-----------------7--------9-------10--------|
|--------------------7--------------------8-----------------5--------7--------8--------|
|--0-----------------------0--------------------0--------------------------------------|


  D5           Eb5                  C5 D5   Eb5
          ~~~~                       ~~~~~~~
                            |--3--|
   E     +Q     T  T  T  T  S  S  S  E  +E   T  T  T  T
|-------------------------------------------------------|
|-------------------------------------------------------|
|-14b16-(14)---12h14p12----12---------------------------|
|-----------------------14----14-12-14-(14)-12h14p12----|
|----------------------------------------------------14-|
|-------------------------------------------------------|
|
|  PM        PM             PM
|  E      E  E  E           E        E   E   E
|-------------------------------------------------------|
|-------------------------------------------------------|
|-------------------------------------------------------|
|---------9----10--------------------7---9--10----------|
|---------7-----8--------------------5---7---8----------|
|--0---------0--------------0---------------------------|


  D5                            Eb5          C5D5     Eb5
                                          ~~~~~~~~~~~~
   |--3--|              |--3--|
   S  S  S  T  T  T  T  S  S  S  E        Q      +E    E
|---------------------------------------------------------|
|---------------------------------------------------------|
|---------------------------------------------------------|
|-12--------------------------------------------------/9--|
|----14-13-12h13p12----12h13p12---------------------------|
|-------------------15----------15b15.5-[12]---([12])-----|
|
|  PM                   PM                PM
|  E        E           E        E        E  E    E    E
|---------------------------------------------------------|
|---------------------------------------------------------|
|---------------------------------------------------------|
|-----------9-------------------10-----------7----9---10--|
|-----------7--------------------8-----------5----7----8--|
|--0--------------------0-----------------0---------------|


  D5                         Eb5               C5       D5       Eb5
  Gtr IV
   |------6-------|  |------6-------|  |------6-------|  |------6-------|
   S  S  S  S  S  S  S  S  S  S  S  S  S  S  S  S  S  S  S  S  S  S  S  S
|-------------------------------------------------------13-12-10-12-10-12-|
|-------------------------------------13-12-10-12-10-12-------------------|
|-------------------12-10--9-10--9-10-------------------------------------|
|-12-10--9-10--9-10-------------------------------------------------------|
|-------------------------------------------------------------------------|
|-------------------------------------------------------------------------|
|
| Gtr V
|  |------6-------|  |------6-------|  |------6-------|  |------6-------|
|  S  S  S  S  S  S  S  S  S  S  S  S  S  S  S  S  S  S  S  S  S  S  S  S
|-------------------------------------------------------17-15-13-15-13-15-|
|-------------------------------------17-15-13-15-13-15-------------------|
|-------------------16-14-12-14-12-14-------------------------------------|
|-15-14-12-14-12-14-------------------------------------------------------|
|-------------------------------------------------------------------------|
|-------------------------------------------------------------------------|
|
| Gtrs I, II
|  PM                PM                PM
|  E        E        E        E        E        E        E        E
|-------------------------------------------------------------------------|
|-------------------------------------------------------------------------|
|-------------------------------------------------------------------------|
|-----------9----------------10-----------------7--------9-------10-------|
|-----------7-----------------8-----------------5--------7--------8-------|
|--0-----------------0-----------------0----------------------------------|


              D5                Eb5                  C5               D5   Eb5
                                                                        ~~~~
      |------6-------|  |--3--|              |----------6----------|
   a  S  S  S  S  S  S  S  S  S  T  T  T  T  S  S  S  S      +S   +S    Q
|-13s15p13p12h13p12----12-----------------------------------------------------|
|-------------------15----15-13-12h13p12----12--------------------------------|
|----------------------------------------14----14-12-14b16==(14)r(14)-[12]----|
|-----------------------------------------------------------------------------|
|-----------------------------------------------------------------------------|
|-----------------------------------------------------------------------------|
|
|                                                                       ~~~~
|     |------6-------|  |--3--|              |----------6----------|
|  a  S  S  S  S  S  S  S  S  S  T  T  T  T  S  S  S  S      +S   +S    Q
|-17s19p17p15h17p15----15-----------------------------------------------------|
|-------------------18----18-17-15h17p15----15--------------------------------|
|----------------------------------------17----17-16-17b19==(17)r(17)-[16]----|
|-----------------------------------------------------------------------------|
|-----------------------------------------------------------------------------|
|-----------------------------------------------------------------------------|
|
|     PM                PM                   PM
|     E        E        E        E           E        E                 E   E
|-----------------------------------------------------------------------------|
|-----------------------------------------------------------------------------|
|-----------------------------------------------------------------------------|
|--------------9----------------10--------------------7-----------------9--10-|
|--------------7-----------------8--------------------5-----------------7---8-|
|-----0-----------------0--------------------0--------------------------------|


  D5                         Eb5               C5       D5       Eb5
  Gtr IV
   |------6-------|  |------6-------|  |------6-------|  |------6-------|
   S  S  S  S  S  S  S  S  S  S  S  S  S  S  S  S  S  S  S  S  S  S  S  S
|-17p16p13h16p13h16h17p16p13h16p13h16h17p16p13h16p13----13----------------|
|----------------------------------------------------17----17-16-13h16h17-|
|-------------------------------------------------------------------------|
|-------------------------------------------------------------------------|
|-------------------------------------------------------------------------|
|-------------------------------------------------------------------------|
|
| Gtrs I, II
|  PM                PM                PM
|  E        E        E        E        E        E        E        E
|-------------------------------------------------------------------------|
|-------------------------------------------------------------------------|
|-------------------------------------------------------------------------|
|-----------9----------------10-----------------7--------9-------10-------|
|-----------7-----------------8-----------------5--------7--------8-------|
|--0-----------------0-----------------0----------------------------------|


  D5                         Eb5               F5
                                                          ~~~~
   |------6-------|  |------6-------|  |------6-------|
   S  S  S  S  S  S  S  S  S  S  S  S  S  S  S  S  S  S   Q
|--------------------------------------------------------------|
|-17p16p13h16p13----13----------------13h16h17-17p16p13--------|
|----------------16----16-14-13h14h16-------------------[16]---|
|--------------------------------------------------------------|
|--------------------------------------------------------------|
|--------------------------------------------------------------|
|
|  PM                PM                PM------|
|  E        E        E        E        E        E         E  E
|--------------------------------------------------------------|
|--------------------------------------------------------------|
|-----------9----------------10--------------------------------|
|-----------9----------------10------------------------------5-|
|-----------7-----------------8-----------------5---------5--5-|
|--0-----------------0-----------------0--------3---------3--3-|


  D5                                        Eb5
  Gtr IV
                                                                              ~~~~
   |--3--|  |--------7--------|                          |--3--|
   S  S  S  T  T  T  T  T  T  T  T  T  T  T  T  T  T  T  S  S  S  S     +S    Q
|----------------------------------------------------------------------------------|
|----------------------------------------------------------------------------------|
|-------------------------------------------------14h16h17p16p14h16b17r(16)-[16]---|
|----------14h15h17p15p14----------------14h15h17----------------------------------|
|-14h15h17----------------17p15p14h15h17-------------------------------------------|
|----------------------------------------------------------------------------------|
|
| Gtr V
|                                                                             ~~~~
|  |--3--|  |--------7--------|                          |--3--|
|  S  S  S  T  T  T  T  T  T  T  T  T  T  T  T  T  T  T  S  S  S  S     +S    Q
|----------------------------------------------------------------------------------|
|----------------------------------------------------------------------------------|
|----------------------------------------------------------------------------------|
|--------------------------------------------------7h=9h10p=9p=7h=9b10r=(9)---9----|
|-----------7h=8h10p=8p=7-----------------7h=8h10----------------------------------|
|--7h=8h10----------------10p=8p=7h=8h10-------------------------------------------|
|
| Gtrs I, II
|  PM                            PM                      PM
|  E        E                    E           E           E        E           E  E
|----------------------------------------------------------------------------------|
|----------------------------------------------------------------------------------|
|----------------------------------------------------------------------------------|
|-----------9-------------------------------10--------------------------------6--7-|
|-----------7--------------------------------8--------------------8----------------|
|--0-----------------------------0-----------------------0-------------------------|


  D5                                        Eb5
                                                                               ~~
   |--3--|  |--------7--------|                          |---3---|
   S  S  S  T  T  T  T  T  T  T  T  T  T  T  T  T  T  T  S  S    S  S     +S   Q
|-------------------------------------------------17h19h20p19p==17h19b20r(19)-19-----|
|----------17h18h20p18p17----------------17h18h20------------------------------------|
|-16h17h19----------------19p17p16h17h19---------------------------------------------|
|------------------------------------------------------------------------------------|
|------------------------------------------------------------------------------------|
|------------------------------------------------------------------------------------|
|
|                                                                              ~~
|  |--3--|  |--------7--------|                          |---3---|
|  S  S  S  T  T  T  T  T  T  T  T  T  T  T  T  T  T  T  S  S    S  S     +S   Q
|------------------------------------------------------------------------------------|
|-------------------------------------------------10h12h13p12p==10h12b13r(12)-12-----|
|-----------9h10h12p10p=9-----------------9h10h12------------------------------------|
|--9h10h12----------------12p10p=9h10h12---------------------------------------------|
|------------------------------------------------------------------------------------|
|------------------------------------------------------------------------------------|
|
|  PM                            PM                      PM---|
|  E        E                    E           E           S    S     E          E  E
|------------------------------------------------------------------------------------|
|------------------------------------------------------------------------------------|
|------------------------------------------------------------------------------------|
|-----------9-------------------------------10----------------------7----------9-10\-|
|-----------7--------------------------------8---------------------------------------|
|--0-----------------------------0-----------------------0----0----------------------|


  D5        Eb5      C5D5Eb5        D5               Eb5        C5  D5   Eb5
                  ~~~                                                 ~~~~
                          |--3--|    |--3--|               |--3---|
   Q.        +E   Q.      S  S  S    S  S  S  E  +E   S  S E  E   E   Q
|-19b20r====(19)-19\-----------16-|-17p16-----------------------------------||
|---------------------------17----|-------17--------------------------------||
|------------------------16-------|----------16-(16)s=9h10p9h10p==9-[21]----||
|---------------------------------|-----------------------------------------||
|---------------------------------|-----------------------------------------||
|---------------------------------|-----------------------------------------||
|
|                 ~~~
|  Q.        +E   Q.      E          W
|---------------------------------|-----------------------------------------||
|---------------------------------|-----------------------------------------||
|---------------------------------|-----------------------------------------||
|--9b10r=====(9)--9\--------------|-----------------------------------------||
|---------------------------------|-----------------------------------------||
|---------------------------------|-----------------------------------------||
|
|  PM     PM      PM                 PM           PM       PM
|  E    E E   E   E  E E  E          E        E   E   E    E    E     E   E
|---------------------------------|-----------------------------------------||
|---------------------------------|-----------------------------------------||
|---------------------------------|-----------------------------------------||
|-------9----10------7-9-10-------|-----------9------10---------7-----9--10-||
|-------7-----8------5-7--8-------|-----------7-------8---------5-----7---8-||
|--0------0-------0---------------|--0------------0--------0----------------||


 Pre-Verse
  Q=208
  F5
  Gtr II
     Q          Q   H             W
     |
     /

  Gtr IV
    +H              H             W
|-------------------------------|-----------------------------|
|-------------------------------|-----------------------------|
|-([21])\-----------------------|-----------------------------|
|-------------------------------|-----------------------------|
|-------------------------------|-----------------------------|
|-------------------------------|-----------------------------|
|
| Gtr I
|    PM-------|     PM----|       PM----|
|    S    S S S E E S S S S E E   S S S S E E  E   E   E   E
|-------------------------------|-----------------------------|
|-------------------------------|-----------------------------|
|-------------------------------|-----------------------------|
|-------------------------------|-------------[4]p[3]---------|
|---------------------------4p3-|---------------------[5]p[4]-|
|----3----3-3-3-6p3-3-3-3-3-----|-3-3-3-3-6p3-----------------|


                            B5      BbG#5
  Gtr II
  W                         Q  Q  E E Q
                            |     | | |
                            /     / / /

  Gtr I
  PM----|     PM----|
  S S S S E E S S S S E E   Q  Q  E E Q
|-------------------------|--------------|
|-------------------------|--------------|
|-------------------------|-6-----6-5-3--|
|-------------------------|-6-----6-5-3--|
|---------------------4p3-|-4-----4-3-1--|
|-3-3-3-3-6p3-3-3-3-3-----|--------------|


  N.C.(G5)
  Gtrs I, II
  PM----|     PM----|       PM----|
  S S S S E E S S S S E E   S S S S E E E E E E
|-------------------------|---------------------|
|-------------------------|---------------------|
|-------------------------|---------------------|
|-------------------------|-------------4p3-----|
|---------------------4p3-|-----------------5p4-|
|-3-3-3-3-6p3-3-3-3-3-----|-3-3-3-3-6p3---------|


                            B5      BbG#5
  PM----|     PM----|
  S S S S E E S S S S E E   Q  Q  E E Q
|-------------------------|--------------||
|-------------------------|--------------||
|-------------------------|-6-----6-5-3--||
|-------------------------|-6-----6-5-3--||
|---------------------4p3-|-4-----4-3-1--||
|-3-3-3-3-6p3-3-3-3-3-----|--------------||


 Verse 3
  N.C.(D5)                                                      D5  E5F5
  PM--------------------------|       PM------------------------|
  E E E E E E E E   E E E E E E E E   E E E E E E E E   E E E E S S E E E
|-----------------|-----------------|-----------------|-------------------|
|-----------------|-----------------|-----------------|-------------------|
|-----------------|-----------------|-----------------|-------------------|
|-----------------|-----------------|-----------------|-------------------|
|-----------------|-----------3-----|-----------------|---------2-2-4-5-5-|
|-0-1-0-2-0-1-0-2-|-0-1-0-2-0---2p1-|-0-1-0-2-0-1-0-2-|-0-1-0-2-0-0-2-3-3-|


  N.C.(D5)                                        D5        F5  E5  Eb5 E5
  PM------------------------|         PM--------|
  E E E E E E E E   E E E E E E E E   E E E E E E S S S S   E E E E E E Q
|-----------------|-----------------|---------------------|------------------|
|-----------------|-----------------|---------------------|------------------|
|-----------------|-----------------|---------------------|------------------|
|-----------------|-----------------|---------------------|-5---4---3---4----|
|-----------------|-----------3-----|-------------2-2-2-2-|-5---4---3---4----|
|-0-1-0-2-0-1-0-2-|-0-1-0-2-0---2p1-|-0-1-0-2-0-1-0-0-0-0-|-3---2---1---2----|


  N.C.(D5)                                                      D5  E5F5
  PM------------------------|         PM------------------------|
  E E E E E E E E   E E E E E E E E   E E E E E E E E   E E E E S S E E E
|-----------------|-----------------|-----------------|-------------------|
|-----------------|-----------------|-----------------|-------------------|
|-----------------|-----------------|-----------------|-------------------|
|-----------------|-----------------|-----------------|-------------------|
|-----------------|-----------------|-----------------|---------2-2-4-5-5-|
|-0-1-0-2-0-1-0-2-|-0-1-0-2-0-3-2-1-|-0-1-0-2-0-1-0-2-|-0-1-0-2-0-0-2-3-3-|


  N.C.(D5)                                        D5        F5  E5  Eb5 E5
  PM------------------------|         PM--------|
  E E E E E E E E   E E E E E E E E   E E E E E E S S S S   E E E E E E Q
|-----------------|-----------------|---------------------|------------------||
|-----------------|-----------------|---------------------|------------------||
|-----------------|-----------------|---------------------|------------------||
|-----------------|-----------------|---------------------|-5---4---3---4----||
|-----------------|-----------3-----|-------------2-2-2-2-|-5---4---3---4----||
|-0-1-0-2-0-1-0-2-|-0-1-0-2-0---2p1-|-0-1-0-2-0-1-0-0-0-0-|-3---2---1---2----||


  D5         F5 E5 Eb5E5   D5
             Gtr I
  W          Q  Q  Q  Q    W
             |  |  |  |    |
             /  /  /  /    /

             Gtr II
  W          Q  Q  Q  Q    W
|----------|-------------|------|
|----------|-------------|------|
|----------|-------------|------|
|-2--------|-5--4--3--4--|-2----|
|-2--------|-5--4--3--4--|-2----|
|-0--------|-3--2--1--2--|-0----|


                                          D.S. al Coda
  F5  E5  Eb5 E5    D5                F5  E5  Eb5 E5
   Q   Q   Q   Q    W                  Q   Q   Q   Q
   |   |   |   |    |                  |   |   |   |
   /   /   /   /    /                  /   /   /   /

   Q   Q   Q   Q    H    +Q    E E     Q   Q   Q   Q
|-----------------|-----------------|------------------||
|-----------------|-----------------|------------------||
|-12--11--10--11--|-----------------|-12--11--10--11/--||
|-----------------|-2----(2)--/xSx\-|-12--11--10--11/--||
|-10---9---8---9--|-2----(2)--/xSx\-|-10---9---8---9/--||
|-----------------|-0----(0)--------|------------------||


  Q=208
  &
  N.C.(D5)                                G#5G5
  Gtrs I, II
  PM|     PM|   PM    PM|     PM  PM----|
  E E S S S S E E S S S S   E E S S S S E Q  E
|-------------------------|--------------------|
|-------------------------|--------------------|
|-------------------------|--------------------|
|-------------------------|---------------8--7-|
|-----8-8-7-5-7---8-8-7-5-|-7-------------8--7-|
|-0-0-----------0---------|---0-0-0-0-0-0-6--5-|


  N.C.(D5)                  G#G5F5  A5 G#5
  PM|     PM|   PM          PM----|
                            |-3-|
  E E S S S S E E S S S S   Q Q Q E Q  E
|-------------------------|--------------|
|-------------------------|--------------|
|-------------------------|---------4--3-|
|-------------------------|-8-7-5---4--3-|
|-----8-8-7-5-7---8-8-7-5-|-8-7-5---2--1-|
|-0-0-----------0---------|-6-5-3-0------|


  N.C.(D5)                                G#5G5
  PM|     PM|   PM    PM|     PM  PM----|
  E E S S S S E E S S S S   E E S S S S E Q  E
|-------------------------|--------------------|
|-------------------------|--------------------|
|-------------------------|--------------------|
|-------------------------|---------------8--7-|
|-----8-8-7-5-7---8-8-7-5-|-7-------------8--7-|
|-0-0-----------0---------|---0-0-0-0-0-0-6--5-|


                            G#G5F5  A5 G#5
  PM|     PM|   PM          PM----|
                            |-3-|
  E E S S S S E E S S S S   Q Q Q E Q  E
|-------------------------|--------------*|
|-------------------------|--------------*|
|-------------------------|---------4--3-*|
|-------------------------|-8-7-5---4--3-*|
|-----8-8-7-5-7---8-8-7-5-|-8-7-5---2--1-*|
|-0-0-----------0---------|-6-5-3-0------*|



Duration Legend
---------------
W - whole; H - half; Q - quarter; E - 8th; S - 16th; T - 32nd; X - 64th; a - acciaccatura
+ - note tied to previous; . - note dotted; .. - note double dotted
Uncapitalized letters represent notes that are staccato (1/2 duration)
Irregular groupings are notated above the duration line
Duration letters will always appear directly above the note/fret number it represents the
duration for.  Duration letters with no fret number below them represent rests.  Multi-
bar rests are notated in the form Wxn, where n is the number of bars to rest for.  Low
melody durations appear below the staff

Tablature Legend
----------------
 h   - hammer-on
 p   - pull-off
 b   - bend
 pb  - pre-bend
 r   - bend release (if no number after the r, then release immediately)
 /\  - slide into or out of (from/to "nowhere")
 s   - legato slide
 S   - shift slide
 - natural harmonic
[n]  - artificial harmonic
n(n) - tapped harmonic
 ~   - vibrato
 tr  - trill
 T   - tap
 TP  - trem. picking
 PM  - palm muting
\n/  - tremolo bar dip; n = amount to dip
 \n  - tremolo bar down
 n/  - tremolo bar up
/n\  - tremolo bar inverted dip
 =   - hold bend; also acts as connecting device for hammers/pulls
 <> - volume swell (louder/softer)
 x   - on rhythm slash represents muted slash
 o   - on rhythm slash represents single note slash

Misc Legend
-----------
 |  - bar
||  - double bar
||o - repeat start
o|| - repeat end
*|  - double bar (ending)
 :  - bar (freetime)
 $  - Segno
 &  - Coda
Tempo markers -  = BPM(8/16=s8/s16), where s8 = swing 8ths, s16 = swing 16ths

comments
We did not receive enough feedback on this tab! Please rate:
print report bad tab
1 2 3 4 5
I want to post or [tab]
guest
You may want to rate the tab now too:
select rating
Please do not post tabs as comments. Select "correction" instead!