Oops, an error
Loading. Please wait.

Eerie Inhabitants Tab

4,528 views 12 this week
no commentswrite comment
1 2 3 4 5
accurate
x 2
Autoscroll
+/-
esc
set tempo
stop
Contributor
WARNING: You are trying to view
                                    content from Ultimate-Guitar.com
                                    in an unauthorized application,
                                    which is prohibited.

                                    Please use an official Ultimate
                                    Guitar Tabs application for iPhone,
                                    iPad or Android to access legitimate
                                    chords, guitar, bass, and drum tabs
                                    from Ultimate-Guitar.com database.

                                    Type "ultimate guitar tabs" in Apple
                                    App Store's or Android Market's
                                    search to find the application.
#----------------------------------PLEASE NOTE---------------------------------#
#This file is the author's own work and represents their interpretation of the #
#song. You may only use this file for private study, scholarship, or research. #
#------------------------------------------------------------------------------#

EERIE INHABITANTS
As recorded by Testament
(From the 1988 Album THE NEW ORDER)

Transcribed by cbliss66@aol.com
        

Words by Billy, Skolnick and Peterson Music by Skolnick and Peterson
Arranged by Testament

Gtr I (E A D G B E) - 'Acoustic I'
Gtr II (E A D G B E) - 'Acoustic II'
Gtr III (E A D G B E) - 'Alex Solo and Rhythm'
Gtr IV (E A D G B E) - 'Eric Rhythm'
Gtr V (E A D G B E) - 'Synth'
Gtr VI (E A D G B E) - 'Pick Slides'

 Intro
  Moderately Q=118
 4/4
  Gtr I
  W          E E E E E E E E   E E E E E E E E   E E E  E E E E E
|----------|-6-----6-3-----3-|-----------------|-----0--------0---|
|----------|---8-------5-----|-5-----5-2-------|---8----8---8---8-|
|----------|-----9-------6---|---6-------3---3-|-9--------9-------|
|----------|-----------------|-----8-------5---|------------------|
|----------|-----------------|-----------------|------------------|
|----------|-----------------|-----------------|------------------|
|
| Gtr II
| W          E E E E E E E E   E E E E E E E E   E E H.
|----------|-3-----3---------|-----------------|------------------|
|----------|---5-----5-----5-|-2-----2---------|------------------|
|----------|-----6-----6-----|---3-----3-------|-0----------------|
|----------|-------------8---|-----5-----5---5-|---2--------------|
|----------|-----------------|-------------7---|-----1------------|
|----------|-----------------|-----------------|------------------|


   E  E E E E E E E   E E E E E E E E    E  E E E E E E E
|-------0-------0---|-----0-------0---|-------0-------0---|
|-----8---8---8---8-|---8---8---8---8-|-----8---8---8---8-|
|--9--------9-------|-9-------9-------|--9--------9-------|
|-------------------|-----------------|-------------------|
|-------------------|-----------------|-------------------|
|-------------------|-----------------|-------------------|
|
|                     Gtr III
|                             <
|                             ~~~~~~~~~~~~~~
| +W                  H       H         +W
|-------------------|-----------------|-------------------|
|-------------------|-----------------|-------------------|
|-------------------|-----------------|-------------------|
|-------------------|---------8-------|-(8)---------------|
|-(1)---------------|-----------------|-------------------|
|-------------------|-----------------|-------------------|


    Gtr III
    S S S  S S  S S  S  S  S S  S S  S S S
||-----------------------------------------|
||o--------------------11------------------|
||----------------9-12----12-9-------------|
||-----------8-11--------------11-8--------|
||o-----7-10------------------------10-7---|
||--6-9----------------------------------9-|
|
|   Gtr II
|   E   E    E    E     E    E    E    E
||-----------0--------------------0--------|
||o-----8---------8----------8---------8---|
||--9-------------------9------------------|
||-----------------------------------------|
||o----------------------------------------|
||-----------------------------------------|
|
|   Gtr I
|   W
||-----------------------------------------|
||o----------------------------------------|
||-----------------------------------------|
||-----------------------------------------|
||o-1--------------------------------------|
||-----------------------------------------|


   S  S  S  S  S  S  S  S  S  S  S  S  S  S  S  S
|-------------------------15-----------------------|
|-------------------14-17----17-14-----------------|
|-------------12-15----------------15-12-----------|
|-------11-14----------------------------14-11-----|
|-10-13----------------------------------------12--|
|--------------------------------------------------|
|
|  E     E     E     E     E     E     E     E
|--------------0-----------------------0-----------|
|--------8-----------8-----------8-----------8-----|
|--9-----------------------9-----------------------|
|--------------------------------------------------|
|--------------------------------------------------|
|--------------------------------------------------|
|
|  W
|--------------------------------------------------|
|--------------------------------------------------|
|--0-----------------------------------------------|
|--------------------------------------------------|
|--------------------------------------------------|
|--------------------------------------------------|


   S  S  S  S  S  S  S  S  S  S  S  S  S  S  S  S
|----------------------------------------------12-|
|----------------------------------12-------12----|
|----------------------12-------12-------12-------|
|----------14-------14-------14-------14----------|
|-------14-------14-------14----------------------|
|-12-15-------15----------------------------------|
|
|  E     E     E     E     E     E     E     E
|--------------0-----------------------0----------|
|--------8-----------8-----------8-----------8----|
|--9-----------------------9----------------------|
|-------------------------------------------------|
|-------------------------------------------------|
|-------------------------------------------------|
|
|  W
|-------------------------------------------------|
|-------------------------------------------------|
|-------------------------------------------------|
|--2----------------------------------------------|
|-------------------------------------------------|
|-------------------------------------------------|


    S  S  S  S  S  S  S  S  S  S  S  S  S  S  S  S  3x
|-/19-15-------15----------12-----------------------||
|--------17-------17----------12-------12----------o||
|-----------16-------16----------12-------12--------||
|-----------------------17----------14-------14-----||
|-----------------------------------------------14-o||
|---------------------------------------------------||
|
|   E     E     E     E     E     E     E     E     3x
|---------------0-----------------------0-----------||
|---------8-----------8-----------8-----------8----o||
|---9-----------------------9-----------------------||
|---------------------------------------------------||
|--------------------------------------------------o||
|---------------------------------------------------||
|
|   W                                               3x
|---------------------------------------------------||
|--------------------------------------------------o||
|---------------------------------------------------||
|---------------------------------------------------||
|--------------------------------------------------o||
|---------------------------------------------------||


  Gtr III                               Gtr I
  W          +H     H      W              E E E E E E E E
|----------|-------------|--------------|-6-----6-3-----3-|
|----------|-------------|--------------|---8-------5-----|
|----------|-------------|--------------|-----9-------6---|
|----------|-------------|--------------|-----------------|
|-1--------|-(1)---------|--------------|-----------------|
|----------|-------------|--------------|-----------------|
|
| Gtrs I, II                       Gtr VGtr II
|                                   TP
| W           W            H.       Q     E E E E E E E E
|----------|-------------|--------------|-3-----3---------|
|----------|-------------|---------/x\--|---5-----5-----5-|
|----------|--0----------|---------/x\--|-----6-----6-----|
|----------|-------------|-2------------|-------------8---|
|-1--------|-------------|--------------|-----------------|
|----------|-------------|--------------|-----------------|


                                     Gtr V
                                              <
  E E E E E E E  E   W                H.      Q    +W
|------------------|---------------|-------------|--------||
|-5-----5-2--------|---------------|-------------|--------||
|---6-------3---/x-|---------------|-------------|--------||
|-----8-------5----|---------------|-------------|--------||
|------------------|---------------|-------------|--------||
|------------------|---------------|----------3--|-(3)----||
|
|                    |-3-|
| E E E E E E E  E   Q Q Q +H        +W             W
|------------------|---------------|-------------|--------||
|-2-----2----------|---------------|-------------|--------||
|---3-----3--------|-0-------------|-------------|--------||
|-----5-----5----5-|---2-----------|-------------|--------||
|-------------7----|-----1-(1)-----|-(1)---------|--------||
|------------------|---------------|-------------|--------||


    Fast Q=200
    Bb°                       F5
    Gtrs III, IV
          PM|   PM    PM----------------|
    E E E E E E E E   E E E E S S E S S E
||------------------|---------------------|
||o-2---2-----2---2-|---------------------|
||--3---3-----3---3-|---------------------|
||--2---2-----2---2-|---------------------|
||o-1---1-----1---1-|---------3-3---3-3---|
||----0---0-0---0---|-0-0-0-0-1-1-0-1-1-0-|


  Bb°                 F#5   G5  G#5 A5
    PM  PM|   PM    PM--------------|
  E E E E E E E E   E E E E S S E E E
|-----------------|--------------------||
|-2---2-----2---2-|-------------------o||
|-3---3-----3---3-|--------------------||
|-2---2-----2---2-|--------------------||
|-1---1-----1---1-|---4-4-4-5-5-6-6-7-o||
|---0---0-0---0---|-0-2-2-2-3-3-4-4-5--||


    $
    E5                    D5        C5
    Gtr III
    W                     H         H          4x
||----------------------|----------------------||
||o---------------------|---------------------o||
||--9-------------------|-7---------5----------||
||--9-------------------|-7---------5----------||
||o-7-------------------|-5---------3---------o||
||--0-------------------|----------------------||
|
|   Gtr IV
|               PM--------------------------|
|   E E E E E E S S S S   E E E S S S S E E E  4x
||----------------------|----------------------||
||o---------------------|---------------------o||
||----------------------|----------------------||
||----------------------|----------------------||
||o-2-2-2-2-2-2---------|-4-4-4-4-4-5-5-6-6-7-o||
||--0-0-0-0-0-0-0-0-0-0-|-2-2-2-2-2-3-3-4-4-5--||


     E5                    F5
     W          +H     +E   Q   E
|-||----------|-------------------|
|-||----------|-------------------|
|-||-9--------|-(9)----(9)-10--10-|
|-||-9--------|-(9)----(9)-10--10-|
|-||-7--------|-(7)----(7)--8---8-|
|-||----------|-------------------|
|
|    W          +H     +E   Q   E
|-||----------|-------------------|
|-||----------|-------------------|
|-||----------|-------------------|
|-||-2--------|-(2)----(2)--3---3-|
|-||-2--------|-(2)----(2)--3---3-|
|-||-0--------|-(0)----(0)--1---1-|


  E5
          Gtr VI
           TP     TP      TP    TP
  H.       Q      H       Q     Q
|--------------|---------------------|
|--------------|---------------------|
|--------------|---------------------|
|-2------------|---------------------|
|-2------------|---------------------|
|-0-------<5>s=|=<4>\----<3>s==<2>---|
|
| W              +H      +E  Q     E
|--------------|---------------------|
|--------------|---------------------|
|--------------|---------------------|
|-2------------|-(2)-----(2)-3-----3-|
|-2------------|-(2)-----(2)-3-----3-|
|-0------------|-(0)-----(0)-1-----1-|


                    A5G5              F5
    Gtr III
    PM------------|       PM--------|
    E E S S E S S E E E   E E S S E E Q  E
||----------------------|-------------------|
||o---------------------|-------------------|
||----------------------|-------------------|
||----------------------|-------------3--3--|
||o-----------------7-5-|-------------3--3--|
||--0-0-3-3-0-3-3-0-5-3-|-0-0-3-3-0-0-1--1--|
|
|   PM------------|       PM--------|
|   E E S S E S S E E E   E E S S E E Q  E
||----------------------|-------------------|
||o---------------------|-------------------|
||----------------------|-------------------|
||----------------------|-------------3--3--|
||o-----------------7-5-|-------------3--3--|
||--0-0-3-3-0-3-3-0-5-3-|-0-0-3-3-0-0-1--1--|


                  BbA5              F5
  Gtrs III, IV
  PM------------|       PM--------|
  E E S S E S S E E E   E E S S E E Q  E
|---------------------|------------------||
|---------------------|------------------||
|---------------------|------------------||
|---------------------|-------------3--3-||
|-----------------8-7-|-------------3--3-||
|-0-0-3-3-0-3-3-0-6-5-|-0-0-3-3-0-0-1--1-||


 Verses
                  A5G5              F5
  PM------------|       PM--------|
  E E S S E S S E E E   E E S S E E Q  E
|---------------------|------------------|
|---------------------|------------------|
|---------------------|------------------|
|---------------------|-------------3--3-|
|-----------------7-5-|-------------3--3-|
|-0-0-3-3-0-3-3-0-5-3-|-0-0-3-3-0-0-1--1-|


                  BbA5              F5
  PM------------|       PM--------|
  E E S S E S S E E E   E E S S E E Q  E
|---------------------|------------------|
|---------------------|------------------|
|---------------------|------------------|
|---------------------|-------------3--3-|
|-----------------8-7-|-------------3--3-|
|-0-0-3-3-0-3-3-0-6-5-|-0-0-3-3-0-0-1--1-|


                  A5G5              F5
  PM------------|       PM--------|
  E E S S E S S E E E   E E S S E E Q  E
|---------------------|------------------|
|---------------------|------------------|
|---------------------|------------------|
|---------------------|-------------3--3-|
|-----------------7-5-|-------------3--3-|
|-0-0-3-3-0-3-3-0-5-3-|-0-0-3-3-0-0-1--1-|


                                           Chorus
                  BbA5              F5      E5     F5 G#5  E5           F5
  PM------------|       PM--------|                             PM|
  E E S S E S S E E E   E E S S E E Q  E    Q  E E Q  Q    Q  E S S E E E E
|---------------------|------------------||--------------|------------------|
|---------------------|------------------||--------------|------------------|
|---------------------|------------------||--------------|------------------|
|---------------------|-------------3--3-||-2------3--6--|-2--------2-3-3-3-|
|-----------------8-7-|-------------3--3-||-2------3--6--|-2--------2-3-3-3-|
|-0-0-3-3-0-3-3-0-6-5-|-0-0-3-3-0-0-1--1-||-0----0-1--4--|-0--0-0-0-----1-1-|


  E5     F5 G5   E5       F5        E5     F5 G#5  E5           F5
                      PM|                               PM|
  Q  E E Q  Q    Q  E S S E E E E   Q  E E Q  Q    Q  E S S E E E E
|--------------|------------------|--------------|--------------------|
|--------------|------------------|--------------|--------------------|
|--------------|------------------|--------------|--------------------|
|-2------3--5--|-2--------3-3-3-3-|-2------3--6--|-2--------2-3-3-3---|
|-2------3--5--|-2--------3-3-3-3-|-2------3--6--|-2--------2-3-3-3---|
|-0----0-1--3--|-0--0-0-0-1-1-1-1-|-0----0-1--4--|-0--0-0-0-----1-1---|


                1.                 2.
                       To Coda
  E5     F5 G5   E5     F5/C        E5     B5
                    PM|                PM|
  Q  E E Q  Q    Q  E E  Q  E E     Q  E E E E E E
|--------------|------------x-x--||----------x-x-x-||
|--------------|------------x-x-o||----------x-x-x-||
|--------------|------------x-x--||----------x-x-x-||
|-2------3--5--|-2------/3--x-x--||-2------4-x-x-x-||
|-2------3--5--|-2--0-3-/3--x-x-o||-2--0-0-2-x-x-x-||
|-0----0-1--3--|-0----------x-x--||-0--------x-x-x-||


   Interlude
    E5         F5             E5          Bb5
    Gtr III
     Q     E E  Q       Q      Q     E  E  E E   Q
||--------------------------|-----------------------|
||o-------------------------|-----------------------|
||--/9-------9s10-----/14---|-13--------------------|
||--------------------------|----------12-10s8---8--|
||o-/7-------7s=8-----/12---|-11--------------------|
||--------------------------|----------10--8s6---6--|
|
|   Gtr IV
|      PM----|    PM|            PM----|     PM|
|    E S S E E  E S S   E E    E S S E  E  E S S Q
||--------------------------|-----------------------|
||o-------------------------|-----------------------|
||--------------------------|--------------3-----3--|
||---2----------3-------3-3-|--2-----------3-3-3-3--|
||o--2-2-2---2--3-3-3---3-3-|--2-2-2----2--1-1-1-1--|
||---0-0-0---0--1-1-1---1-1-|--0-0-0----0-----------|


  E5         F5             E5          Bb5
   Q     E E  Q       Q      Q     E  E  Q       Q
|-------------------------|--------------------------||
|-------------------------|-------------------------o||
|-/9-------9s10-----/14---|-13-------14s15\-----10---||
|-------------------------|--------------------------||
|-/7-------7s=8-----/12---|-11-------12s13\------8--o||
|-------------------------|--------------------------||
|
|    PM----|    PM|            PM----|      PM|
|  E S S E E  E S S   E E    E S S E  E  E  S S  Q
|-------------------------|--------------------------||
|-------------------------|-------------------------o||
|-------------------------|--------------3-------3---||
|--2----------3-------3-3-|--2-----------3--3-3--3---||
|--2-2-2---2--3-3-3---3-3-|--2-2-2----2--1--1-1--1--o||
|--0-0-0---0--1-1-1---1-1-|--0-0-0----0--------------||


 Bridge
  E5                  F5
  Gtrs III, IV
  PM--|    PM--|      PM--|    PM--|
  E S S Q  E S S Q    E S S Q  E S S Q
|-------------------|-------------------|
|-------------------|-------------------|
|-------------------|-------------------|
|-2-----2--2-----2--|-3-----3--3-----3--|
|-2-2-2-2--2-2-2-2--|-3-3-3-3--3-3-3-3--|
|-0-0-0-0--0-0-0-0--|-1-1-1-1--1-1-1-1--|


  E5                  F5             G5F#5
  PM--|    PM--|      PM--|    PM--|
  E S S Q  E S S Q    E S S Q  E S S E E
|-------------------|---------------------|
|-------------------|---------------------|
|-------------------|---------------------|
|-2-----2--2-----2--|-3-----3--3-----5-4--|
|-2-2-2-2--2-2-2-2--|-3-3-3-3--3-3-3-5-4--|
|-0-0-0-0--0-0-0-0--|-1-1-1-1--1-1-1-3-2--|


  E5                  F5
  PM--|    PM--|      PM--|    PM--|
  E S S Q  E S S Q    E S S Q  E S S Q
|-------------------|-------------------|
|-------------------|-------------------|
|-------------------|-------------------|
|-2-----2--2-----2--|-3-----3--3-----3--|
|-2-2-2-2--2-2-2-2--|-3-3-3-3--3-3-3-3--|
|-0-0-0-0--0-0-0-0--|-1-1-1-1--1-1-1-1--|


  E5                  F5         G5
  PM--|    PM--|      PM--|    PM   PM
  E S S Q  E S S Q    E S S Q  E Q  E
|-------------------|-------------------|
|-------------------|-------------------|
|-------------------|-------------------|
|-2-----2--2-----2--|-3-----3----5--5---|
|-2-2-2-2--2-2-2-2--|-3-3-3-3----5--5---|
|-0-0-0-0--0-0-0-0--|-1-1-1-1--0-3--3---|


  E5     F5       E5     F5       E5
  E E Q  E E Q    E E Q  E E Q    W
|---------------|---------------|------|
|---------------|---------------|------|
|---------------|---------------|------|
|---------------|---------------|-2----|
|-2-2----3-3----|-2-2----3-3----|-2----|
|-0-0----1-1----|-0-0----1-1----|-0----|


                 Guitar Solo
               Slower Q=94
  E5
  Gtr III
                                          ~~~~~~~~~~~~~~~~~~
  +H.       Q      S  E.       Q         +H
|----------12--||-10h12------(12)-------(12)---------------|
|--------------||-------------12--------(12)---------------|
|--------------||------------------------------------------|
|-(2)----------||------------------------------------------|
|-(2)----------||------------------------------------------|
|-(0)----------||------------------------------------------|
|
| Gtr IV       Gtrs I, II
| +W               E     S S   S  S S S   S  S S S S S S S
|--------------||----------0---0-------------------0-------|
|--------------||--------0--------0---0------0---0---0-----|
|--------------||-------------------4----------0-------0---|
|-(2)----------||--7-------------------------------------2-|
|-(2)----------||-------------------------3----------------|
|-(0)----------||------------------------------------------|


 ~~~~~~
   +H               +S   S  S  S  E        +S   S
|-(12)-------------(12)----12-14-14pb15r==(14)-12-|
|-(12)-------------(12)-12------------------------|
|-------------------------------------------------|
|-------------------------------------------------|
|-------------------------------------------------|
|-------------------------------------------------|
|
|   E  S S S S S S   E      S  S  S     S   S   S
|----------0--------------------------------------|
|------0-----0---0----------0---------------------|
|--------4-----4---------------0------------------|
|-------------------------------------------------|
|---4----------------3------------2-----0---------|
|-------------------------------------------3---2-|


        ~~~~             ~~                        ~                           ~
                                                                 |-----6-----|
    E  +Q         +E     Q      Q         S    +S  Q       +S  S S S S S S   S Q
|---------------------------------------|--------------------------------------------|
|-/12-(12)-------(12)---10-----12-------|-7pb8r(7)-5-------(5)p0---------------------|
|---------------------------------------|------------------------7h9-7---------------|
|---------------------------------------|------------------------------8p7p==5-------|
|---------------------------------------|--------------------------------------7-----|
|---------------------------------------|--------------------------------------------|
|
|                                                                              |-3-|
|   E   S  S S S   S  S  E S S  S S S S   E        S S S S  S  S E     S   S   E E E
|------------0------------------0-------|--------------0-----------------------------|
|----------0---0------0----0------0---0-|----------0-----0-----0-------0-------------|
|------------------4---------4------4---|------------4------4--------------4---------|
|-------7-------------------------------|--------------------------------------------|
|------------------------3--------------|-4----------------------3-------------2-0---|
|---0-----------------------------------|------------------------------------------3-|


                              ~                                 ~
  |------6-------|  |---3---|     |-------6--------|  |---3---|
  S  S S S  S    S  S  S    S E   S  S   S S  S    S  S  S    S E
|----------------------------------------------------------------------|
|---------------12-13-12--------------------------12-15-12-------------|
|--------9-12--------------12-9------------9-12--------------12-9------|
|------9---------------------------------9-----------------------------|
|-7-10----------------------------7-10---------------------------------|
|----------------------------------------------------------------------|
|
| E      S    S     S    S    S S S    S   S    S     S    S    S S
|-------------0-----0---------------------------------0----------------|
|--------0---------------0------0------0--------0----------0-----------|
|-----------------------------4------------0--------------------0------|
|-----------------------------------------------------------------2----|
|---------------------------------3------------------------------------|
|-0--------------------------------------------------------------------|


                                                            ~~~~~~~~~
  |------6-------|  |--------6---------|  |-------6-------|
  S  S S S  S    S  S  S    S  S  S    S  S  S  S S  S    S Q
|------------------12-----------------------------------------------|
|---------------12----12---13-10-12---------------------------------|
|--------9-12-------------------------12h14p11h12-9h11------9-------|
|------9-------------------------------------------------12---------|
|-7-10--------------------------------------------------------------|
|-------------------------------------------------------------------|
|
| E      S    S     S    S     S    S     E       S    S    S S S S
|-------------------0-----------------------------------------------|
|--------0---------------0----------0-------------0-----------------|
|-------------4----------------4-----------------------0------------|
|-------------------------------------------------------------------|
|-4---------------------------------------3-----------------2-0-----|
|---------------------------------------------------------------3-2-|


 ~~~~~~         ~~~~~~~~~~~~~~         ~~~
  +S    S S  S  Q        +S    S S  S  Q
|------------------------------------------------|
|------------------------------------------------|
|-(9)\----9-12-11-------(11)\----9-12-11\--------|
|------/9---------------------/9-----------------|
|------------------------------------------------|
|------------------------------------------------|
|
|  E      S  S  S S S S   S    S S  S  S  S S S
|------------0--0----------------------0---------|
|---------0-------0---0--------0----0-----0------|
|-------------------4------------0----------0----|
|---------------------------------------------2--|
|-------------------------3----------------------|
|--0---------------------------------------------|


                                                                                      F
   |-------6--------|  |--------6---------|  |-------6--------|  |--------6---------|
   S  S  S  S  S    S  S  S    S  S  S    S  S  S  S  S  S    S  S  S    S  S  S    S
|----------------------------------------------------12---------12-14------12-14---15-|
|----------12---------12-13------12-13---15-12-13-15----13---15---------15------------|
|-11h12h14----12h==14---------15------------------------------------------------------|
|-------------------------------------------------------------------------------------|
|-------------------------------------------------------------------------------------|
|-------------------------------------------------------------------------------------|
|
|  E        S    S     S    S     S    S     E        S    S     S    S     S    S
|----------------------0--------------------------------------------------------------|
|-----------0---------------0----------0--------------0-------------------------------|
|----------------4----------------4------------------------0--------------------------|
|-------------------------------------------------------------------------------------|
|--4-----------------------------------------3-------------------2----0---------------|
|---------------------------------------------------------------------------3----2----|
|
| Gtr IV
|  H                                         Q                   S    S     S    S
|-------------------------------------------------------------------------------------|
|-------------------------------------------------------------------------------------|
|-------------------------------------------------------------------------------------|
|-------------------------------------------------------------------------------------|
|----------------------------------------------------------------2----0---------------|
|---------------------------------------------------------------------------3----2----|


 aster Q=100
  E5                 C5             A/C#
               ~~                 ~~
   E.     +S   Q      E.     +S   Q
|-15pb17r(15)-15-----15pb17r(15)-15----|
|--------------------------------------|
|--------------------------------------|
|--------------------------------------|
|--------------------------------------|
|--------------------------------------|
|
|  W
|--------------------------------------|
|--------------------------------------|
|--------------------------------------|
|--------------------------------------|
|--------------------------------------|
|--------------------------------------|
|
|  Q.            +E   Q.             E
|--------------------------------------|
|--------------------------------------|
|---------------------5----------------|
|--2-------------(2)--5-------------/7-|
|--2-------------(2)--3-------------/4-|
|--0-------------(0)-------------------|


  A/C#                             C5
  Gtr III
  |-3--|       |--------6--------|
  S S  S S  S  S  S  S  S  S  a  S  E      +S   +S   E    +E
|-------------------12-15-17-17s19-19b20==(19)r(19)-19---(19)\---|
|----------------12----------------------------------------------|
|--------9s11-12-------------------------------------------------|
|----------------------------------------------------------------|
|-7-9h10---------------------------------------------------------|
|----------------------------------------------------------------|
|
| Gtr IV
| H                                 E.           S   S S   S   S
|----------------------------------------------------------------|
|----------------------------------------------------------------|
|----------------------------------------------------------------|
|-7---------------------------------5----------------------------|
|-4---------------------------------3----------------2-0---------|
|----------------------------------------------------------3---2-|


  E5                                            C5                     A/C#
                                                                    ~~~~~~~~
   |-----------6-----------|  |-------6-------|  |------6-------|
   S     S  S     S  S     S  S  S  S  S   S  S  S  S  S  S  S  S  +E   +E
|-------12-------12-------12-------------------------------------------------|
|-15b17----15b17----15b17----15p12----12-----------------------12-(12)-(12)--|
|----------------------------------15-----15p14----------14s15---------------|
|-----------------------------------------------17p14h17---------------------|
|----------------------------------------------------------------------------|
|----------------------------------------------------------------------------|
|
|  Q.                                 +E         Q.                      E
|----------------------------------------------------------------------------|
|----------------------------------------------------------------------------|
|------------------------------------------------5---------------------------|
|--2----------------------------------(2)--------5----------------------/7---|
|--2----------------------------------(2)--------3----------------------/4---|
|--0----------------------------------(0)------------------------------------|


                                                      Do
  A/C#                                      C5
                                             ~~~
   |------6-------|
   S  S  S  S  S  S  T  T  T  T  T  T  T  T  Q.     E
|-14h15h17-14h15----14------------------------------0-||
|----------------17----15s17----15----15----15------0-||
|----------------------------17----16----16-----------||
|-----------------------------------------------------||
|-----------------------------------------------------||
|-----------------------------------------------------||
|
|  Q                 Q                       Q   Q
|-----------------------------------------------------||
|-----------------------------------------------------||
|-----------------------------------------------------||
|--7-----------------7-----------------------5\--x\---||
|--4-----------------4-----------------------3\--x\---||
|-----------------------------------------------------||


 uble Time Q=200
  E5
                 ~~~~~~~~~~
    H           +E   +E      E  S  S
|-------------------------------------|
|-/17b19=======(17)-(17)r\-----14-14--|
|--------------------------/13--------|
|-------------------------------------|
|-------------------------------------|
|-------------------------------------|
|
|   PM       PM              PM|
|   E     Q  E   Q           E  E
|-------------------------------------|
|-------------------------------------|
|-------------------------------------|
|---------2------2--------------------|
|---2-----2--2---2-----------2--2-----|
|---0-----0--0---0-----------0--0-----|


  F5
   |3-|  |--3--|        |--3--|
   E  S  S  S  S  S  S  S  S  S  E  S  S  S  S  S  S
|----14h15h17p15-15-14-------------14h15p14----------|
|-17-------------------17p15----15----------17p15----|
|----------------------------16-------------------16-|
|----------------------------------------------------|
|----------------------------------------------------|
|----------------------------------------------------|
|
|  PM                   PM
|  E     Q              E        Q        Q
|----------------------------------------------------|
|----------------------------------------------------|
|----------------------------------------------------|
|--------3-----------------------3--------3----------|
|--3-----3--------------3--------3--------3----------|
|--1-----1--------------1--------1--------1----------|


  E5                                 F5            G5
                                     ~~~~~~~~   ~~~~~~~
         |--3--|
   E  E  S  S  S  S  S  S  S E E E   Q   +S  S  E  +Q    +Q
|----------------------------------|---------------------------|
|-15-------------13h15p13p12s8---8-|-7---(7)---[7]-(7)---(7)---|
|----12-12h14h16---------------9---|---------9-----------------|
|------------------------------7---|---------------------------|
|----------------------------------|---------------------------|
|----------------------------------|---------------------------|
|
|  PM             PM           PM----|          PM
|  E  Q           E     Q      E E   E Q        E   E  E  Q
|----------------------------------|---------------------------|
|----------------------------------|---------------------------|
|----------------------------------|---------------------------|
|-----2-----------------2----------|---3-----------/5--5--5----|
|--2--2-----------2-----2------2-2-|-3-3--------3--/5--5--5----|
|--0--0-----------0-----0------0-0-|-1-1--------1--/3--3--3----|


  E5                                     F5
                                                                  ~~~~~~~~~~~~
           |3-|             |3-|  |3-|             |--3--|
  E  S  S  E  S  E  S  S  E E  S  E  S    E  S  S  S  S  S  S  S  E.     +S    E  E
|--------------------------------------|--------------------------------------------|
|--------------------------------------|----------13h14p13-11s13-14b16==(14)r-\8----|
|---12-12----------12-14p12---14-16p14-|-12-15-15--------------------------------/9-|
|-9-------16p14-12---------------------|--------------------------------------------|
|--------------------------------------|--------------------------------------------|
|--------------------------------------|--------------------------------------------|
|
| PM             PM         PM-----------|                  PM
| E  Q           E  Q       E     E       E  Q              E     Q            Q
|--------------------------------------|--------------------------------------------|
|--------------------------------------|--------------------------------------------|
|--------------------------------------|--------------------------------------------|
|----2--------------2------------------|-----3--------------------3------------3----|
|-2--2-----------2--2-------2-----2----|--3--3--------------3-----3------------3----|
|-0--0-----------0--0-------0-----0----|--1--1--------------1-----1------------1----|


  E5
                                  ~~~~~~~~~~~~
         |3-|
   S  S  E  S  S  S  a  S   S  S  Q.      +S
|-14h15h17-14h15p14-14s15---------------------|
|-------------------------h16s17--------------|
|--------------------------------17------(17)-|
|---------------------------------------------|
|---------------------------------------------|
|---------------------------------------------|
|
|  PM                   PM           PM|
|  E     Q              E      Q     E E
|---------------------------------------------|
|---------------------------------------------|
|---------------------------------------------|
|--------2---------------------2--------------|
|--2-----2--------------2------2-----2-2------|
|--0-----0--------------0------0-----0-0------|


  F5                                                    G5
   S      +S   +S       +S   +S       +S   +S       +S   +S   Q       E.
|------------------------------------------------------------------------|
|------------------------------------------------------------------------|
|-16b19==(16)r(16)b19==(16)r(16)b19==(16)r(16)b19==(16)-(16)r-x\-----/x--|
|-------------------------------------------------------------x\-----/x--|
|------------------------------------------------------------------------|
|------------------------------------------------------------------------|
|
|  PM                                       PM
|  E            Q                           E             E      E Q
|------------------------------------------------------------------------|
|------------------------------------------------------------------------|
|------------------------------------------------------------------------|
|---------------3----------------------------------------/5------5-5-----|
|--3------------3---------------------------3------------/5------5-5-----|
|--1------------1---------------------------1------------/3------3-3-----|


  E5                                        F5
                                                                 ~~~~~~~~~~~~
       |--3--|                                    |3-|
    E  S  S  S  E  E  S  E  S  S  S  S  S   S  S  E  S  E  S  S  Q       +E   +E
|-/19-19-19-19-19-19-18h19----------------|---------------17----22b24===(22)-(22)r\-|
|--------------------------20-17----------|---------20p17----17---------------------|
|--------------------------------16-16-16-|------16---------------------------------|
|-----------------------------------------|---17------------------------------------|
|-----------------------------------------|-----------------------------------------|
|-----------------------------------------|-----------------------------------------|
|
|   PM             PM          PM-----------|              PM
|   E  Q           E  Q        E     E      E     Q        E     Q        Q
|-----------------------------------------|-----------------------------------------|
|-----------------------------------------|-----------------------------------------|
|-----------------------------------------|-----------------------------------------|
|------2--------------2-------------------|-------3--------------3--------3---------|
|---2--2-----------2--2--------2-----2----|-3-----3--------3-----3--------3---------|
|---0--0-----------0--0--------0-----0----|-1-----1--------1-----1--------1---------|


  E5
                     |3-|
   S  S  S  S  S  S  E  S  E  S  S  S  S  T  S.
|----------------------------------------------|
|----------------------------------------------|
|-16h17p16-14h15p14----14----------------------|
|-------------------14----16h17p16-14h16-14s12s|
|----------------------------------------------|
|----------------------------------------------|
|
|  PM                PM             PM----------
|  E     Q           E     Q        E     E
|----------------------------------------------|
|----------------------------------------------|
|----------------------------------------------|
|--------2-----------------2-------------------|
|--2-----2-----------2-----2--------2-----2----|
|--0-----0-----------0-----0--------0-----0----|


  F5                      G5                E5
                                                                       |-3--|
   S  S S   S       +H           +E   S S   S  S S S  E S  S S S  E  E S  S S
|-----------------------------------------|--------------------------------------|
|---------------------------------------0-|--------------------------------------|
|---------------------------------------0-|-9h10p9p7----9h10p9p7----10-9h10p9p===|
|-13h14---[12]b14==(12)--------/(12)r-7---|----------10----------10--------------|
|-----------------------------------------|--------------------------------------|
|-----------------------------------------|--------------------------------------|
|
|-|                     PM                  PM          PM           PM|
|  E    Q               E  E E    Q         E    Q      E    Q       E E
|-----------------------------------------|--------------------------------------|
|-----------------------------------------|--------------------------------------|
|-----------------------------------------|--------------------------------------|
|-------3-----------------/5-5----5-------|------2-----------2-------------------|
|--3----3---------------3-/5-5----5-------|-2----2------2----2-------2-2---------|
|--1----1---------------1-/3-3----3-------|-0----0------0----0-------0-0---------|


  F5                            E5
                 ~~~
  S  S  E  E  E  Q    +E    E   S S E S S E S  S S S  E S S
|------10---------------------|-----------------------------|
|-----------------------------|-----------------------------|
|-7-------[9]-7-[7]--([7])\---|-------------------------7h9-|
|---10----------------------8-|-----------8-8h10-9-9-11-----|
|-----------------------------|-7-7h8-8p7-------------------|
|-----------------------------|-----------------------------|
|
| PM          PM                PM        PM          PM-----
| E     Q     E  Q     Q        E   Q     E Q         E E
|-----------------------------|-----------------------------|
|-----------------------------|-----------------------------|
|-----------------------------|-----------------------------|
|-------3--------3-----3------|-----2-------2---------------|
|-3-----3-----3--3-----3------|-2---2-----2-2---------2-2---|
|-1-----1-----1--1-----1------|-0---0-----0-0---------0-0---|


  F5           G5
  |--3--|
  S  S  S  S S  S S  E  S  S S S a  E  S  S
|--------------------------------7h10--------||
|-8h10h11p10p8-10p8s10h11p10p9p0------12p10--||
|--------------------------------------------||
|--------------------------------------------||
|--------------------------------------------||
|--------------------------------------------||
|
|-|                  PM
| E        Q         E  E    Q         E
|--------------------------------------------||
|--------------------------------------------||
|--------------------------------------------||
|----------3---------------------------------||
|-3--------3---------3-------5---------5-----||
|-1--------1---------1-------3---------3-----||


         Bb°                             F5
           ~~~~~~~~~~~~~~~~~~~~~~~~~~~~~~~~~~~~~~~~~~~
   a      +W                   +W
|---------------------------|------------------------|
|-10b12==(10)---------------|-(10)-------------------|
|---------------------------|------------------------|
|---------------------------|------------------------|
|---------------------------|------------------------|
|---------------------------|------------------------|
|
|             PM  PM|   PM      PM-----------------|
|          E  E E E E E E E     E  E E E S S E S S E
|---------------------------|------------------------|
|----------2----2-----2---2-|------------------------|
|----------3----3-----3---3-|------------------------|
|----------2----2-----2---2-|------------------------|
|----------1----1-----1---1-|------------3-3---3-3---|
|-------------0---0-0---0---|---0--0-0-0-1-1-0-1-1-0-|


  Bb°                        F#5   G5  G#5  A5
                               Gtr VI
 ~~~~~~~~~~~~~~~~~~~~~~~~~~~~  TP  TP    TP
   +W                   +Q     Q   Q     Q
|--------------------|------------------------|
|-(10)---------------|-(10)r------------------|
|--------------------|---------xs==xs====x\---|
|--------------------|---------xs==xs====x\---|
|--------------------|---------xs==xs====x\---|
|--------------------|------------------------|
|
|      PM  PM|   PM      PM-----------------|
|   E  E E E E E E E     E   E E E S S E E  E
|--------------------|------------------------|
|---2----2-----2---2-|------------------------|
|---3----3-----3---3-|------------------------|
|---2----2-----2---2-|------------------------|
|---1----1-----1---1-|-------4-4-4-5-5-6-6--7-|
|------0---0-0---0---|---0---2-2-2-3-3-4-4--5-|


  Bb°                       F5
  Gtrs III, IV
        PM|   PM    PM----------------|
  E E E E E E E E   E E E E S S E S S E
|-----------------|---------------------|
|-2---2-----2---2-|---------------------|
|-3---3-----3---3-|---------------------|
|-2---2-----2---2-|---------------------|
|-1---1-----1---1-|---------3-3---3-3---|
|---0---0-0---0---|-0-0-0-0-1-1-0-1-1-0-|


                          D.S. al Coda
  Bb°                 F#5   G5  G#5 A5
    PM  PM|   PM    PM--------------|
  E E E E E E E E   E E E E S S E E E
|-----------------|--------------------||
|-2---2-----2---2-|--------------------||
|-3---3-----3---3-|--------------------||
|-2---2-----2---2-|--------------------||
|-1---1-----1---1-|---4-4-4-5-5-6-6-7--||
|---0---0-0---0---|-0-2-2-2-3-3-4-4-5--||


 Interlude 2
  &
  E5         F5             E5          Bb5
  Gtr III
   Q     E E  Q       Q      Q     E  E  E E   Q
|-------------------------|-----------------------|
|-------------------------|-----------------------|
|-/9-------9s10-----/14---|-13--------------------|
|-------------------------|----------12-10s8---8--|
|-/7-------7s=8-----/12---|-11--------------------|
|-------------------------|----------10--8s6---6--|
|
| Gtr IV
|    PM----|    PM|            PM----|     PM|
|  E S S E E  E S S   E E    E S S E  E  E S S Q
|-------------------------|-----------------------|
|-------------------------|-----------------------|
|-------------------------|--------------3-----3--|
|--2----------3-------3-3-|--2-----------3-3-3-3--|
|--2-2-2---2--3-3-3---3-3-|--2-2-2----2--1-1-1-1--|
|--0-0-0---0--1-1-1---1-1-|--0-0-0----0-----------|


  E5         F5             E5          Bb5
   Q     E E  Q       Q      Q     E  E  Q       Q
|-------------------------|--------------------------|
|-------------------------|--------------------------|
|-/9-------9s10-----/14---|-13-------14s15\-----10---|
|-------------------------|--------------------------|
|-/7-------7s=8-----/12---|-11-------12s13\------8---|
|-------------------------|--------------------------|
|
|    PM----|    PM|            PM----|      PM|
|  E S S E E  E S S   E E    E S S E  E  E  S S  Q
|-------------------------|--------------------------|
|-------------------------|--------------------------|
|-------------------------|--------------3-------3---|
|--2----------3-------3-3-|--2-----------3--3-3--3---|
|--2-2-2---2--3-3-3---3-3-|--2-2-2----2--1--1-1--1---|
|--0-0-0---0--1-1-1---1-1-|--0-0-0----0--------------|


  E5         F5             E5          Bb5
   Q     E E  Q       Q      Q     E  E  E E   Q
|-------------------------|-----------------------|
|-------------------------|-----------------------|
|-/9-------9s10-----/14---|-13--------------------|
|-------------------------|----------12-10s8---8--|
|-/7-------7s=8-----/12---|-11--------------------|
|-------------------------|----------10--8s6---6--|
|
|    PM----|    PM|            PM----|     PM|
|  E S S E E  E S S   E E    E S S E  E  E S S Q
|-------------------------|-----------------------|
|-------------------------|-----------------------|
|-------------------------|--------------3-----3--|
|--2----------3-------3-3-|--2-----------3-3-3-3--|
|--2-2-2---2--3-3-3---3-3-|--2-2-2----2--1-1-1-1--|
|--0-0-0---0--1-1-1---1-1-|--0-0-0----0-----------|


  E5         F5             E5          Bb5
   Q     E E  Q       Q      Q     E  E  Q       Q
|-------------------------|--------------------------|
|-------------------------|--------------------------|
|-/9-------9s10-----/14---|-13-------14s15\-----10---|
|-------------------------|--------------------------|
|-/7-------7s=8-----/12---|-11-------12s13\------8---|
|-------------------------|--------------------------|
|
|    PM----|    PM|            PM----|      PM|
|  E S S E E  E S S   E E    E S S E  E  E  S S  Q
|-------------------------|--------------------------|
|-------------------------|--------------------------|
|-------------------------|--------------3-------3---|
|--2----------3-------3-3-|--2-----------3--3-3--3---|
|--2-2-2---2--3-3-3---3-3-|--2-2-2----2--1--1-1--1---|
|--0-0-0---0--1-1-1---1-1-|--0-0-0----0--------------|


 Outro
  E5                  F5
  PM--|    PM--|      PM--|     PM--|
  E S S Q  E S S Q    E S S  Q  E S S  Q
|-------------------|---------------------|
|-------------------|---------------------|
|-------------------|---------------------|
|-2-----2--2-----2--|-3------3--3------3--|
|-2-2-2-2--2-2-2-2--|-3-3-3--3--3-3-3--3--|
|-0-0-0-0--0-0-0-0--|-1-1-1--1--1-1-1--1--|
|
| PM--|    PM--|      PM--|     PM--|
| E S S q  E S S q    E S S  q  E S S  q
|-------------------|---------------------|
|-------------------|---------------------|
|-------9--------9--|-------10--------10--|
|-------9--------9--|-------10--------10--|
|-7-7-7-7--7-7-7-7--|-8-8-8--8--8-8-8--8--|
|-------------------|---------------------|


  E5                  F5        G5
  PM--|    PM--|      PM--|      PM---|
  E S S Q  E S S Q    E S S  Q   E  S  S  Q
|-------------------|-------------------------||
|-------------------|-------------------------||
|-------------------|-------------------------||
|-2-----2--2-----2--|-3------3---5--------5---||
|-2-2-2-2--2-2-2-2--|-3-3-3--3---5--5--5--5---||
|-0-0-0-0--0-0-0-0--|-1-1-1--1---3--3--3--3---||
|
| PM--|    PM--|      PM--|      PM---|
| E S S q  E S S q    E S S  q   E  S  S  q
|-------------------|-------------------------||
|-------------------|-------------------------||
|-------9--------9--|-------10-----------12---||
|-------9--------9--|-------10-----------12---||
|-7-7-7-7--7-7-7-7--|-8-8-8--8--10-10-10-10---||
|-------------------|-------------------------||


  E5                  F5
  PM--|    PM--|      PM--|     PM--|
  E S S Q  E S S Q    E S S  Q  E S S  Q
|-------------------|---------------------|
|-------------------|---------------------|
|-------------------|---------------------|
|-2-----2--2-----2--|-3------3--3------3--|
|-2-2-2-2--2-2-2-2--|-3-3-3--3--3-3-3--3--|
|-0-0-0-0--0-0-0-0--|-1-1-1--1--1-1-1--1--|
|
| PM--|    PM--|      PM--|     PM--|
| E S S q  E S S q    E S S  q  E S S  q
|-------------------|---------------------|
|-------------------|---------------------|
|-------9--------9--|-------10--------10--|
|-------9--------9--|-------10--------10--|
|-7-7-7-7--7-7-7-7--|-8-8-8--8--8-8-8--8--|
|-------------------|---------------------|


  E5                  F5           G5
  PM--|    PM--|      PM--|    PM|
  E S S Q  E S S Q    E S S  E E E  Q   E
|-------------------|-----------------------|
|-------------------|-----------------------|
|-------------------|-----------------------|
|-2-----2--2-----2--|-3------3------5---5---|
|-2-2-2-2--2-2-2-2--|-3-3-3--3------5---5---|
|-0-0-0-0--0-0-0-0--|-1-1-1--1-0-0--3---3---|
|
| PM--|    PM--|      PM--|    PM|
| E S S q  E S S q    E S S  e E E  Q   E
|-------------------|-----------------------|
|-------------------|-----------------------|
|-------9--------9--|-------10-----12--12---|
|-------9--------9--|-------10-----12--12---|
|-7-7-7-7--7-7-7-7--|-8-8-8--8-----10--10---|
|-------------------|----------0-0----------|


  E      F          E      F          E
                                                                       PM|
  E E Q   E  E Q    E E Q   E  E Q    W          +W           +H.      E E
|-----------------|-----------------|----------|------------|--------------|
|-----------------|-----------------|----------|------------|--------------|
|-1-1-----2--2----|-1-1-----2--2----|-1--------|-(1)--------|-(1)----------|
|-2-2-----3--3----|-2-2-----3--3----|-2--------|-(2)--------|-(2)----------|
|-2-2-----3--3----|-2-2-----3--3----|-2--------|-(2)--------|-(2)----------|
|-0-0-----1--1----|-0-0-----1--1----|-0--------|-(0)--------|-(0)------1-1-|
|
|                                                                      PM|
| E E Q   E  E Q    E E Q   E  E Q    W          +W           +H.      E E
|-----------------|-----------------|----------|------------|--------------|
|-----------------|-----------------|----------|------------|--------------|
|-9-9----10-10----|-9-9----10-10----|----------|------------|--------------|
|-9-9----10-10----|-9-9----10-10----|-2--------|-(2)--------|-(2)----------|
|-7-7-----8--8----|-7-7-----8--8----|-2--------|-(2)--------|-(2)----------|
|-----------------|-----------------|-0--------|-(0)--------|-(0)------1-1-|


  Gtrs III, IV
  PM------------|   PM----------------------|     PM--------------|
  S S E E E S S E E E   +E  E S S E E E S S E   E E +E  E E E S S E
|---------------------|-----------------------|---------------------|
|---------------------|-----------------------|---------------------|
|---------------------|-----------------------|---------------------|
|---------------------|-----------------------|---------------------|
|-3-3-3-2-2-3-3-3---3-|-(3)-3-3-3-3-2-2-3-3-3-|---3-(3)-3-3-3-3-3-3-|
|-1-1-1-0-0-1-1-1---1-|-(1)-1-1-1-1-0-0-1-1-1-|---1-(1)-1-1-1-1-1-1-|


  PM--------------------------|
  E E S S E E E S S E   E E S S E E Q  E
|---------------------|------------------*|
|---------------------|------------------*|
|---------------------|------------------*|
|---------------------|---------3---3--3-*|
|-2-2-3-3-3-2-2-3-3-3-|-2-2-3-3-3---3--3-*|
|-0-0-1-1-1-0-0-1-1-1-|-0-0-1-1-1---1--1-*|



Duration Legend
---------------
W - whole; H - half; Q - quarter; E - 8th; S - 16th; T - 32nd; X - 64th; a - acciaccatura
+ - note tied to previous; . - note dotted; .. - note double dotted
Uncapitalized letters represent notes that are staccato (1/2 duration)
Irregular groupings are notated above the duration line
Duration letters will always appear directly above the note/fret number it represents the
duration for.  Duration letters with no fret number below them represent rests.  Multi-
bar rests are notated in the form Wxn, where n is the number of bars to rest for.  Low
melody durations appear below the staff

Tablature Legend
----------------
 h   - hammer-on
 p   - pull-off
 b   - bend
 pb  - pre-bend
 r   - bend release (if no number after the r, then release immediately)
 /\  - slide into or out of (from/to "nowhere")
 s   - legato slide
 S   - shift slide
 - natural harmonic
[n]  - artificial harmonic
n(n) - tapped harmonic
 ~   - vibrato
 tr  - trill
 T   - tap
 TP  - trem. picking
 PM  - palm muting
\n/  - tremolo bar dip; n = amount to dip
 \n  - tremolo bar down
 n/  - tremolo bar up
/n\  - tremolo bar inverted dip
 =   - hold bend; also acts as connecting device for hammers/pulls
 <> - volume swell (louder/softer)
 x   - on rhythm slash represents muted slash
 o   - on rhythm slash represents single note slash

Misc Legend
-----------
 |  - bar
||  - double bar
||o - repeat start
o|| - repeat end
*|  - double bar (ending)
 :  - bar (freetime)
 $  - Segno
 &  - Coda
Tempo markers -  = BPM(8/16=s8/s16), where s8 = swing 8ths, s16 = swing 16ths

comments
We did not receive enough feedback on this tab! Please rate:
print report bad tab
1 2 3 4 5
I want to post or [tab]
guest
You may want to rate the tab now too:
select rating
Please do not post tabs as comments. Select "correction" instead!