Oops, an error
Loading. Please wait.

Electric Crown Tab

ver1
ver1

Whole song

Interactive

More versions @911Tabs.com
7,907 views 46 this week
1 commentread comment
1 2 3 4 5
worth learning
x 1
Autoscroll
+/-
esc
set tempo
stop
Hey! There's an official Ultimate Guitar app which is ideal
for learning songs when you're away from computer. Get the app
WARNING: You are trying to view
                                    content from Ultimate-Guitar.com
                                    in an unauthorized application,
                                    which is prohibited.

                                    Please use an official Ultimate
                                    Guitar Tabs application for iPhone,
                                    iPad or Android to access legitimate
                                    chords, guitar, bass, and drum tabs
                                    from Ultimate-Guitar.com database.

                                    Type "ultimate guitar tabs" in Apple
                                    App Store's or Android Market's
                                    search to find the application.
           Electric Crown from T e s t A m e n T

                        from ritual
              Done by fatal; fatal@esoterica.pt


Intro (with distortion)
|--------------------------------------|
|--------------------------------------|
|--------------------------------------|
|--------------9--------------7--9-----|
|-----4-5-4----7------4-5-4---7--9-----|
|---0-2-3-2----0----0-2-3-2---5--7-----|

Riff A
|--------------------------------|
|--------------------------------|
|--------------------------------|
|-----7-----5-----4-----5---4--5-|
|-----7-----5-----4-----5---4--5-|
|-0-0---0-0---0-0---0-0--0-0--0--|

Lead guitar (w/riff A on background)
|----5------------|
|------5---7------|
|--------5--------|
|-----------------|
|-----------------|
|-----------------|

Riff A is also for the background of verses(and some solos!)

a (v.little) variation of the intro is for the chorus

fatal,


<.....................................>



Second version:


<.....................................>

Author/Artist: TestAmenT
Title: Electric Crown
Album: The Ritual
Transcribed by: Nikhil Nair
Email: coolguitarist@hotmail.com

Standard tuning

********************************************************************************************
Note:
----
1.During verse riff use slight pick harmonics while strumming the chords to get proper sound
2.Make sure you get the ringing sound while doing the (5557) natural harmonics
********************************************************************************************

Key:
. . = palm mute
( ) = slight pick (artificial) harmonics
< > = natural harmonics

intro
-|----------|--------------|----------------|--------------|----------------|-
-|----------|--------------|----------------|--------------|----------------|-
-|----------|--------------|----------------|--------------|----------------|-
-|---4-5-4--|-3-----4-5-4--|-6--8----4-5-4--|-3-----4-5-4--|-8--10----4-5-4-|-
-|---4-5-4--|-3-----4-5-4--|-6--8----4-5-4--|-3-----4-5-4--|-8--10----4-5-4-|-
-|-0-2-3-2--|-1---0-2-3-2--|-4--6--0-2-3-2--|-1---0-2-3-2--|-6--8---0-2-3-2-|-
                                                                              
(0:11)
-|--------------|----------------|--------------|----------------|-
-|--------------|----------------|--------------|----------------|-
-|--------------|----------------|--------------|----------------|-
-|-3-----4-5-4--|-6--8----4-5-4--|-3-----4-5-4--|-10--8----4-5-4-|-
-|-3-----4-5-4--|-6--8----4-5-4--|-3-----4-5-4--|-10--8----4-5-4-|-
-|-1---0-2-3-2--|-4--6--0-2-3-2--|-1---0-2-3-2--|-8---6--0-2-3-2-|-
                                                                              
(0:22)
-|-----------------------------------------------|----------------------------
-|-----------------------------------------------|----------------------------
-|*---------------------------------------------*|----------------------------
-|*-(2)-----(4)-----(2)---------(2)-------------*|-x7-------------------------
-|--(2)-----(4)-----(2)---------(2)--------------|----------------------------
-|------0-0-----0-0-----0-0-0-0-----0-0-0-000-0--|----------------------------
 |      . .     . .     . . . .     . . . ... .  |
 |						 | 2 guitars
 | (0:27 and 0:39)				 |
-|------------------------------<5>--------------|----------------------------
-|---------------------------------<5>----<7>----|----------------------------
-|------------------------------------<5>--------|--2nd-&-6th-time------------
-|-----------------------------------------------|----------------------------
-|-----------------------------------------------|----------------------------
-|-----------------------------------------------|----------------------------
                                                                              
(0:42)
-|-----------------------------------|----------------------------------------
-|-----------------------------------|----------------------------------------
-|-----------------------------------|----------------------------------------
-|--(2)-----(4)-----(2)---------(2)--|----------------------------------------
-|--(2)-----(4)-----(2)---------(2)--|----------------------------------------
-|------0-0-----0-0-----0-0-0-0------|----------------------------------------
        . .     . .     . . . . 

Verse 1 (0:45):
 Here we...
-|-----------------------------------------------|----------------------------
-|-----------------------------------------------|----------------------------
-|*---------------------------------------------*|----------------------------
-|*-(2)-----(4)-----(2)---------(2)-------------*|-x8-------------------------
-|--(2)-----(4)-----(2)---------(2)--------------|----------------------------
-|------0-0-----0-0-----0-0-0-0-----0-0-0-000-0--|----------------------------
        . .     . .     . . . .     . . . ... .
(1:09)
die for
-|---------------------------|------------------------------------------------
-|---------------------------|------------------------------------------------
-|---------------------------|------------------------------------------------
-|-6-6-6-6--8-8-8-8----4-5-4-|------------------------------------------------
-|-6-6-6-6--8-8-8-8----4-5-4-|------------------------------------------------
-|-4-4-4-4--6-6-6-6--0-2-3-2-|------------------------------------------------

Solo 1 (not tabbed) over verse riff1 x3 and...

-|-----------------------------------|----------------------------------------
-|-----------------------------------|----------------------------------------
-|-----------------------------------|----------------------------------------
-|--(2)-----(4)-----(2)---------(2)--|----------------------------------------
-|--(2)-----(4)-----(2)---------(2)--|----------------------------------------
-|------0-0-----0-0-----0-0-0-0------|----------------------------------------
        . .     . .     . . . . 

Verse 2 (1:23):
 So alone...
-|-----------------------------------------------|----------------------------
-|-----------------------------------------------|----------------------------
-|*---------------------------------------------*|----------------------------
-|*-(2)-----(4)-----(2)---------(2)-------------*|-x8-------------------------
-|--(2)-----(4)-----(2)---------(2)--------------|----------------------------
-|------0-0-----0-0-----0-0-0-0-----0-0-0-000-0--|----------------------------
        . .     . .     . . . .     . . . ... .
(1:47)
to inquire
-|---------------------------|------------------------------------------------
-|---------------------------|------------------------------------------------
-|---------------------------|------------------------------------------------
-|-6-6-6-6--8-8-8-8----4-5-4-|------------------------------------------------
-|-6-6-6-6--8-8-8-8----4-5-4-|------------------------------------------------
-|-4-4-4-4--6-6-6-6--0-2-3-2-|------------------------------------------------

Chorus 1 (1:50)
As I...
-|--------------|----------------|--------------|----------------|-
-|--------------|----------------|--------------|----------------|-
-|--------------|----------------|--------------|----------------|-
-|-3-----4-5-4--|-6--8----4-5-4--|-3-----4-5-4--|-10--8----------|-
-|-3-----4-5-4--|-6--8----4-5-4--|-3-----4-5-4--|-10--8----------|-
-|-1---0-2-3-2--|-4--6--0-2-3-2--|-1---0-2-3-2--|-8---6--0-0-000-|-
							 . . ...

-|-----------------------------------------------|----------------------------
-|-----------------------------------------------|----------------------------
-|*---------------------------------------------*|----------------------------
-|*-(2)-----(4)-----(2)---------(2)-------------*|-x3-------------------------
-|--(2)-----(4)-----(2)---------(2)--------------|----------------------------
-|------0-0-----0-0-----0-0-0-0-----0-0-0-000-0--|----------------------------
 |      . .     . .     . . . .     . . . ... .  |
 |						 | 2 guitars
 |						 |
-|------------------------------<5>--------------|----------------------------
-|---------------------------------<5>----<7>----|----------------------------
-|------------------------------------<5>--------|--2nd-time------------------
-|-----------------------------------------------|----------------------------
-|-----------------------------------------------|----------------------------
-|-----------------------------------------------|----------------------------
                                                                              

-|-----------------------------------|----------------------------------------
-|-----------------------------------|----------------------------------------
-|-----------------------------------|----------------------------------------
-|--(2)-----(4)-----(2)---------(2)--|----------------------------------------
-|--(2)-----(4)-----(2)---------(2)--|----------------------------------------
-|------0-0-----0-0-----0-0-0-0------|----------------------------------------
        . .     . .     . . . . 

Verse 3 (2:13):
 I let...
-|-----------------------------------------------|----------------------------
-|-----------------------------------------------|----------------------------
-|*---------------------------------------------*|----------------------------
-|*-(2)-----(4)-----(2)---------(2)-------------*|-x8-------------------------
-|--(2)-----(4)-----(2)---------(2)--------------|----------------------------
-|------0-0-----0-0-----0-0-0-0-----0-0-0-000-0--|----------------------------
        . .     . .     . . . .     . . . ... .
(2:37)
to inquire
-|---------------------------|------------------------------------------------
-|---------------------------|------------------------------------------------
-|---------------------------|------------------------------------------------
-|-6-6-6-6--8-8-8-8----4-5-4-|------------------------------------------------
-|-6-6-6-6--8-8-8-8----4-5-4-|------------------------------------------------
-|-4-4-4-4--6-6-6-6--0-2-3-2-|------------------------------------------------

Chorus 2 (2:40):
As I...
-|--------------|----------------|--------------|----------------|-
-|--------------|----------------|--------------|----------------|-
-|--------------|----------------|--------------|----------------|-
-|-3-----4-5-4--|-6--8----4-5-4--|-3-----4-5-4--|-6--8----4-5-4--|-
-|-3-----4-5-4--|-6--8----4-5-4--|-3-----4-5-4--|-6--8----4-5-4--|-
-|-1---0-2-3-2--|-4--6--0-2-3-2--|-1---0-2-3-2--|-4--6--0-2-3-2--|-

							
-|--------------|----------------|--------------|----------------|-
-|--------------|----------------|--------------|----------------|-
-|--------------|----------------|--------------|----------------|-
-|-3-----4-5-4--|-6--8----4-5-4--|-3-----4-5-4--|-10--8----------|-
-|-3-----4-5-4--|-6--8----4-5-4--|-3-----4-5-4--|-10--8----------|-
-|-1---0-2-3-2--|-4--6--0-2-3-2--|-1---0-2-3-2--|-8---6--0-0-000-|-
							 . . ...

-|-----------------------------------------------|----------------------------
-|-----------------------------------------------|----------------------------
-|*---------------------------------------------*|----------------------------
-|*-(2)-----(4)-----(2)---------(2)-------------*|-x3-------------------------
-|--(2)-----(4)-----(2)---------(2)--------------|----------------------------
-|------0-0-----0-0-----0-0-0-0-----0-0-0-000-0--|----------------------------
 |      . .     . .     . . . .     . . . ... .  |
 |						 | 2 guitars
 |						 |
-|------------------------------<5>--------------|----------------------------
-|---------------------------------<5>----<7>----|----------------------------
-|------------------------------------<5>--------|--2nd-time------------------
-|-----------------------------------------------|----------------------------
-|-----------------------------------------------|----------------------------
-|-----------------------------------------------|----------------------------
                                                                              

-|-----------------------------------|----------------------------------------
-|-----------------------------------|----------------------------------------
-|-----------------------------------|----------------------------------------
-|--(2)-----(4)-----(2)---------(2)--|----------------------------------------
-|--(2)-----(4)-----(2)---------(2)--|----------------------------------------
-|------0-0-----0-0-----0-0-0-0------|----------------------------------------
        . .     . .     . . . . 

Solo 2 (3:14) over verse riffs and over chorus riffs 1&2

bridge (4:05)
-|-----------------------------------------------|----------------------------
-|-----------------------------------------------|----------------------------
-|*---------------------------------------------*|----------------------------
-|*-(2)-----(4)-----(2)---------(2)-------------*|-x3-------------------------
-|--(2)-----(4)-----(2)---------(2)--------------|----------------------------
-|------0-0-----0-0-----0-0-0-0-----0-0-0-000-0--|----------------------------
 |      . .     . .     . . . .     . . . ... .  |
 |						 | 2 guitars
 |						 |
-|------------------------------<5>--------------|----------------------------
-|---------------------------------<5>----<7>----|----------------------------
-|------------------------------------<5>--------|--2nd-time------------------
-|-----------------------------------------------|----------------------------
-|-----------------------------------------------|----------------------------
-|-----------------------------------------------|----------------------------
                                                                              

-|-----------------------------------|----------------------------------------
-|-----------------------------------|----------------------------------------
-|-----------------------------------|----------------------------------------
-|--(2)-----(4)-----(2)---------(2)--|----------------------------------------
-|--(2)-----(4)-----(2)---------(2)--|----------------------------------------
-|------0-0-----0-0-----0-0-0-0------|----------------------------------------
        . .     . .     . . . . 

Verse 4 (4:17):
 Now it's...
-|-----------------------------------------------|----------------------------
-|-----------------------------------------------|----------------------------
-|*---------------------------------------------*|----------------------------
-|*-(2)-----(4)-----(2)---------(2)-------------*|-x8-------------------------
-|--(2)-----(4)-----(2)---------(2)--------------|----------------------------
-|------0-0-----0-0-----0-0-0-0-----0-0-0-000-0--|----------------------------
        . .     . .     . . . .     . . . ... .
(4:40)
will find
-|---------------------------|------------------------------------------------
-|---------------------------|------------------------------------------------
-|---------------------------|------------------------------------------------
-|-6-6-6-6--8-8-8-8----4-5-4-|------------------------------------------------
-|-6-6-6-6--8-8-8-8----4-5-4-|------------------------------------------------
-|-4-4-4-4--6-6-6-6--0-2-3-2-|------------------------------------------------

Chorus 3 (4:44):
As I...
-|--------------|----------------|--------------|----------------|-
-|--------------|----------------|--------------|----------------|-
-|--------------|----------------|--------------|----------------|-
-|-3-----4-5-4--|-6--8----4-5-4--|-3-----4-5-4--|-6--8----4-5-4--|-
-|-3-----4-5-4--|-6--8----4-5-4--|-3-----4-5-4--|-6--8----4-5-4--|-
-|-1---0-2-3-2--|-4--6--0-2-3-2--|-1---0-2-3-2--|-4--6--0-2-3-2--|-

							
-|--------------|----------------|--------------|----------------|-
-|--------------|----------------|--------------|----------------|-
-|--------------|----------------|--------------|----------------|-
-|-3-----4-5-4--|-6--8----4-5-4--|-3-----4-5-4--|-10--8----------|-
-|-3-----4-5-4--|-6--8----4-5-4--|-3-----4-5-4--|-10--8----------|-
-|-1---0-2-3-2--|-4--6--0-2-3-2--|-1---0-2-3-2--|-8---6--0-0-000-|-
							 . . ...
						 And I'll...
-|-----------------------------------------------|---------|-
-|-----------------------------------------------|---------|-
-|*----------------------------------------------|--------*|- x3
-|*-(2)-----(4)-----(2)---------(2)--------------|-10--8--*|-
-|--(2)-----(4)-----(2)---------(2)--------------|-10--8---|-
-|------0-0-----0-0-----0-0-0-0-----0-0-0-000-0--|-8---6---|-
        . .     . .     . . . .     . . . ... .

-|-----<5>-----------|----------------------------
-|--------<5>--------|----------------------------
-|*----------<5>----*|-x5-------------------------
-|*-----------------*|----------------------------
-|-------------------|----------------------------
-|-------------------|----------------------------
comments
We did not receive enough feedback on this tab! Please rate:
print report bad tab
1 2 3 4 5
1 comment total.
0 reply
JTHM773 wrote on November 10 2006, 03:06 pm

the first tab is wrong....the 2nd one is good ...but no solos

I want to post or [tab]
guest
You may want to rate the tab now too:
select rating
Please do not post tabs as comments. Select "correction" instead!