Oops, an error
Loading. Please wait.

Electric Crown Tab

ver2
ver2

Whole song

Interactive

More versions @911Tabs.com
9,472 views 30 this week
no commentswrite comment
1 2 3 4 5
excellent!
x 2
Autoscroll
+/-
esc
set tempo
stop
Contributor
Hey! There's an official Ultimate Guitar app which is ideal
for learning songs when you're away from computer. Get the app
WARNING: You are trying to view
                                    content from Ultimate-Guitar.com
                                    in an unauthorized application,
                                    which is prohibited.

                                    Please use an official Ultimate
                                    Guitar Tabs application for iPhone,
                                    iPad or Android to access legitimate
                                    chords, guitar, bass, and drum tabs
                                    from Ultimate-Guitar.com database.

                                    Type "ultimate guitar tabs" in Apple
                                    App Store's or Android Market's
                                    search to find the application.
                                TESTAMENT
                              ELECTRIC CROWN
                           from "THE RITUAL"(1992)

A Intro

Gtr. 1
|-----------------------------|----------------------|----------------------------------------|
|-----------------------------|----------------------|----------------------------------------|
|--------9---11----12---11----|-------11-------------|-------------9----11----12-----11-------|
|--------9---11----12---11----|-------11-------------|-------------9----11----12-----11-------|
|--------7----9----10----9----|--------9-------------|-------------7-----9----10------9-------|
|-----------------------------|----------------------|----------------------------------------|
|
|Gtr.2
|-----------------------------|----------------------|----------------------------------------|
|-----------------------------|----------------------|----------------------------------------|
|-----------------------------|----------------------|----------------------------------------|
|--------2----4-----5----4----|--------4-------------|-------------2-----4-----5------4-------|
|--------2----4-----5----4----|--------4-------------|-------------2-----4-----5------4-------|
|--------0----2-----3----2----|--------2-------------|-------------0-----2-----3------2-------|


|-----------------------------------------------|--------------------|----------------------------------------------|
|-----------------------------------------------|--------------------|----------------------------------------------|
|-----------------------9-----11----12----11----|--------11----------|-------9-----11----12----11-------------------|
|------7-------9--------9-----11----12----11----|--------11----------|-------9-----11----12----11-------------------|
|------7-------9--------7------9----10-----9----|---------9----------|-------7------9----10-----9-------------------|
|------5-------7--------------------------------|--------------------|----------------------------------------------|
|
|
|-----------------------------------------------|--------------------|----------------------------------------------|
|-----------------------------------------------|--------------------|----------------------------------------------|
|------2-------4--------------------------------|--------------------|----------------------------------------------|
|------2-------4--------2------4-----5-----4----|---------4----------|-------2------4-----5-----4-------------------|
|------0-------2--------2------4-----5-----4----|---------4----------|-------2------4-----5-----4-------------------|
|-----------------------0------2-----3-----2----|---------2----------|-------0------2-----3-----2-------------------|

_______________________________________________
_____________________________________
|1.                                              |2.

|-----------------------------------------------|--------------------------------------|----------------------------|
|-----------------------------------------------|--------------------------------------|----------------------------|
|-------------4-------7-------9----11---12---11-|-------7-----4------------------------|----------------------------|
|-------------4-------7-------9----11---12---11-|-------7-----4------2---4---5---4-----|----------------------------|
|-------------2-------5-------7-----9---10----9-|-------5-----2------2---4---5---4-----|----------------------------|
|-----------------------------------------------|--------------------0---2---3---2-----|----------------------------|
|
|
    ~~~~~~      P.M. on 6th---------------------------------------------------------------------------------------|
|-----------------------------------------------|--------------------------------------|--------------------------|
|-----------------------------------------------|-------3------------------------------|--------------------------|
|-------------4-------7-------9----11---12---11-|-------2-----4------------------------|---2--------4-------------|
|-------------4-------7-------9----11---12---11-|-------0-----4------------------------|---2--------4----------5--|
|-------------2-------5-------7-----9---10----9-|-------------2------------------------|-----------------------5--|
|-----------------------------------------------|--------------------0---2---3---2-----|------2--2------2--2------|

         Gtr. 3

         Harm-----------------------------------------------------------------------------------------|
|------------------------------------|------------------------------------|----------5----------------|
|------------------------------------|------------------------------------|-------------5----------7--|
|------------------------------------|------------------------------------|-----------------5---------|
|------------------------------------|------------------------------------|---------------------------|
|------------------------------------|------------------------------------|---------------------------|
|------------------------------------|------------------------------------|---------------------------|
|
|  --------------------------------------------------------------------------------------------------------------|
P.M. on 6th------------------------------------------------------------------------------------------------------|
|------------------------------------|------------------------------------|--------------------------------------|
|------------------------------------|------------------------------------|--------------------------------------|
|------------------------------------|-------2-----------4----------------|--------------------------------------|
|---------------4--------------------|-------2-----------4------------5---|-------4------------------------------|
|---------------4--------------------|--------------------------------5---|-------4------------------------------|
|---0---2---2-------2--2---2--2--2---|--2--------2---2--------2---2-------|--2---------2---2---0---2---3--3---0--|


|------------------------------------|------------------------------------|-----------------------------------------|
|------------------------------------|------------------------------------|-----------------------------------------|
|------------------------------------|------------------------------------|-----------------------------------------|
|------------------------------------|------------------------------------|-----------------------------------------|
|------------------------------------|------------------------------------|-----------------------------------------|
|------------------------------------|------------------------------------|-----------------------------------------|
|
| P.M. on
6th-----------------------------------------------------------------------------------------------------------|
|------------------------------------|------------------------------------|-----------------------------------|
|------------------------------------|------------------------------------|-----------------------------------|
|------2-----------4-----------------|------------------------------------|------2------------4---------------|
|------2-----------4------------5----|--------------4---------------------|------2------------4------------5--|
|-------------------------------5----|--------------4---------------------|--------------------------------5--|
|--2-------2---2--------2---2--------|--0---2---2--------2---2--2--2--2-2-|--2-------2---2--------2---2-------|


P.M. on 6th (both gtrs.)
|-------------------------------|----------------------------------|------------------------------------------------|
|-------------------------------|----------------------------------|------------------------------------------------|
|-------------------------------|----------------------------------|------------------------------------------------|
|-------------------------------|----------------------------------|------------------------------------------------|
|-------------------------------|----------------------------------|------------------------------------------------|
|---------------0---2--3--3--0--|----------------------------------|------------------------------------------------|
|
|-------------------------------|----------------------------------|------------------------------------------------|
|-------------------------------|----------------------------------|------------------------------------------------|
|-------------------------------|-------2------------4-------------|------------------------------------------------|
|------4------------------------|-------2------------4----------5--|---------------4--------------------------------|
|------4------------------------|-------------------------------5--|---------------4--------------------------------|
|--2-------2--2--0--2---3-3--0--|--2---------2---2-------2---2-----|--2---2---2---------2---2----2--2---2-----------|


                                             Harm.------------------------|
|-------------------------------------|------5-------------------------|--|
|-------------------------------------|----------5---------7-----------|--|
|-------------------------------------|--------------5-----------------|--|
|-------------------------------------|--------------------------------|--|
|-------------------------------------|--------------------------------|--|
|-------------------------------------|--------------------------------|--|
|
|                                       Gtrs. 1 & 2
|-------------------------------------|--------------------------------|--------------------------------------------|
|-------------------------------------|--------------------------------|--------------------------------------------|
|-------2-------------4---------------|--------------------------------|-----2-----------4--------------------------|
|-------2-------------4------------5--|------4-------------------------|-----2-----------4-----------5--------------|
|----------------------------------5--|------4-------------------------|-----------------------------5--------------|
|--2---------2---2---------2---2------|--2-------2--2--0--2---3--3--0--|--2------2---2-------2---2------------------|

Figure B: Verses

  1. Here we  go               the    people    show
victims     of         tomor    -

|-----------------------------------|---------------------------------|---------------------------------------------|
|-----------------------------------|---------------------------------|---------------------------------------------|
|--------2-----------4--------------|---------------------------------|-------2------------4------------------------|
|--------2-----------4-----------5--|------------4--------------------|-------2------------4-------------5----------|
|--------------------------------5--|------------4--------------------|----------------------------------5----------|
|----2--------2--2--------2--2------|--0--2--2-------2---2---2--2--2--|---2--------2---2--------2---2---------------|

        row                         the    way it   goes           it
never      shows

             2nd time gtr.3 plays Fill 1
|---------------------------------------|--------------------------------|------------------------------------------|
|---------------------------------------|--------------------------------|------------------------------------------|
|---------------------------------------|-------2----------4-------------|------------------------------------------|
|---------4-----------------------------|-------2----------4----------5--|-------------4----------------------------|
|---------4-----------------------------|-----------------------------5--|-------------4----------------------------|
|----2---------2---2---2---2---3--3--0--|---2-------2--2-------2--2------|---0---2--2------2--2---2--2--2-----------|

  emp  - ti   -   ness      or    sor     -     row

                   Fill 2. played by gtr3
														           second time
|---------------------------------------|----------------------------------------------------|----------------------|
|---------------------------------------|----------------------------------------------------|-----16--14-----------|
|--------2--------------4---------------|----------------------------------------------------|-----16--14-----------|
|--------2--------------4------------5--|--------4-------------------------------------------|-------------16p14----|
|------------------------------------5--|--------4-------------------------------------------|-------------------16-|
|----2--------2----2---------2---2------|---2---------2-----2-----2----2-----3-----3-----0---|----------------------|

Fill 1. (gtr 3.)

       b+1
|-------------------14-------------------|-------------------|
|---------------14-------17p14-----------|-------------------|
|------16------------------------17p14---|---14----(14)\-----|
|----------------------------------------|-------------------|
|----------------------------------------|-------------------|
|----------------------------------------|-------------------|


   There is       no   -   thing     left           in   -  side
        no  -  thing  left   to    cry

Gtr. 3 dig in throughout
|-----------------------------------------|---------------------------------------|---------------------------------|
|-----------------------------------------|---------------------------------------|---------------------------------|
|---9-------------9-------------------9---|--------11-----------------------------|---9-----------9--------------9--|
|-------11-----------------11-------------|-----------------10--------11----------|-------11-------------11---------|
|-----------------------------------------|---------------------------------------|---------------------------------|
|-----------------------------------------|---------------------------------------|---------------------------------|
|
|Gtrs. 1 & 2 - P.M. on 6th
|-----------------------------------------|---------------------------------------|---------------------------------|
|-----------------------------------------|---------------------------------------|---------------------------------|
|-----------------------------------------|---------------------------------------|---------------------------------|
|--4--------------4-------------------4---|----------------------2---4------------|--4-------------4-------------4--|
|--4--------------0-------------------4---|----------------------2---4------------|--4-------------0-------------4--|
|-------2----2---------2----2----2--------|---2----2----2----2-----------3--3--0--|-------2---2--------2--2--2------|

         for.                      So   I        jus  -  ti   -  fy
    my  crimes,

|--------------------------------|------------------------------------|---------------------------------------------|
|--------------------------------|------------------------------------|---------------------------------------------|
|--------11----------------------|--9------------9---------------9----|---------------------------------------------|
|--------------------------------|-------11-----------11--------------|-----10-------9------7-----------------------|
|--------------------------------|------------------------------------|---------------------------------------------|
|--------------------------------|------------------------------------|---------------------------------------------|
|
|--------------------------------|------------------------------------|---------------------------------------------|
|--------------------------------|------------------------------------|---------------------------------------------|
|-------------------2------------|------------------------------------|---------------------2-----------------------|
|-------------------2------------|---4------------4---------------4---|---------------------2-----------------------|
|--------------------------------|---4------------0---------------4---|---------------------------------------------|
|---2---2---2---2--------2---0---|--------2---2--------2---2---2------|---2---2---2---2-------------2----0----------|


  things that   I     must    die     for

|---------------------------------|------------------------------------|--------------------------------------------|
|---------------------------------|------------------------------------|--------------------------------------------|
|---------------------------------|------------------------------------|--------------------------------------------|
|------------------------------7--|------------------------------------|--------------------------------------------|
|---7--9--------9-------9---------|-----9------------------------------|--------------------------------------------|
|---------------------------------|------------------------------------|--------------------------------------------|
|
|                                                                       Gtrs
1 & 2
|---------------------------------|------------------------------------|--------------------------------------------|
|---------------------------------|------------------------------------|--------------------------------------------|
|---------------------------------|------------------------------------|---2-----2----2----2--------------4-----4---|
|---4------------4-------------4--|------------------------------------|---2-----2----2----2--------------4-----4---|
|---4------------0-------------4--|------------------------------------|---0-----0----0----0--------------2-----2---|
|-------2---2--------2---2---2----|--2---2---2---2--0--2--3---3---0----|--------------------------------------------|


                                Solo 1:

____________________________________________________
                              |1.

                                 b+1                b+1
b+1~~~~~~     b+1~~~~~
|-----------------------------|------2--------------------------|-2------------2---------------------2---|
|-----------------------------|---------2-----5-----5-----------|----5-------------5---------------------|
|-----------------------------|--4------------------------------|----------------------------------------|
|-----------------------------|---------------------------------|----------------------------------------|
|-----------------------------|---------------------------------|----------------------------------------|
|------------------------2----|---------------------------------|----------------------------------------|

|-----------------------------|---------------------------------|----------------------------------------|
|-----------------------------|---------------------------------|----------------------------------------|
|--4--4---------------0-------|------2----------4---------------|----------------------------------------|
|--4--4------2----4---0----4--|------2----------4-----------5---|----------------4-----------------------|
|--2--2------2----4--------4--|-----------------------------5---|----------------4-----------------------|
|------------0----2---3----2--|--2-------2--2--------2--2-------|---0---2---2---------2---2----2--2--2---|

~~~~~~
|-----------------------------------------|--------------------------------------------------|
|-4h5p4--2--4--2----2---------------------|--------------------------------------------------|
|----------------5-----4h5p4--2--4p2------|--4h5p4--2----4p2------5---4p2h4----/-16----------|
|------------------------------------4p2--|-------------------4------------------------------|
|-----------------------------------------|--------------------------------------------------|
|-----------------------------------------|--------------------------------------------------|
|
|
|-----------------------------------------|--------------------------------------------------|
|-----------------------------------------|--------------------------------------------------|
|--------2----------------4---------------|--------------------------------------------------|
|--------2----------------4-------------5-|--------4-----------------------------------------|
|---------------------------------------5-|--------4-----------------------------------------|
|---2-----------2----2----------2---2-----|---2----------2-----2------0-----2----3--3--0-----|


   b+1   r     ~~~~               b+1     r        b+1
b+1
|--------------------------------------|-----------------14---------|-------------------------------------------------|
|---------------------------------17---|--(17)--------14----17p14---|-16p14-----14------------------------------------|
|--16---(16)--14-----------14h16-------|--------14-16---------------|-------16----17p16p14---16h17p16p14-16p14--------|
|------------------14--16--------------|----------------------------|---------------------16-------------------16p14--|
|--------------------------------------|----------------------------|-------------------------------------------------|
|--------------------------------------|----------------------------|-------------------------------------------------|
|
|--------------------------------------|----------------------------|-------------------------------------------------|
|--------------------------------------|----------------------------|-------------------------------------------------|
|------2-----------4-------------------|----------------------------|--------2----------------4-----------------------|
|------2-----------4----------------5--|-----------4----------------|--------2----------------4----------------5------|
|-----------------------------------5--|-----------4----------------|------------------------------------------5------|
|--2------2--2---------2---2-----------|--0--2--2-----2--2---2--2-2-|---2----------2-----2---------2-----2------------|


                    Figure C (Chorus)
                    _________________________________
                    |2.
                            As         I               wan    -  der....
|------------------|---------------------------------|------------------------------------------------------|
|--14---(14)\------|---------------------------------|------------------------------------------------------|
|--14---(14)\------|---------------------------------|------------------------------------------------------|
|------------------|---------------------------------|------------------------------------------------------|
|------------------|---------------------------------|------------------------------------------------------|
|------------------|---------------------------------|------------------------------------------------------|
|
|                    Gtrs. 1 & 2
|------------------|---------------------------------|------------------------------------------------------|
|------------------|---------------------------------|------------------------------------------------------|
|------------------|---------------------------------|------------------------------------------------------|
|--------4---------|--------4------------------------|----------2-----4-----5-----4-------------------------|
|--------4---------|--------4------------------------|----------2-----4-----5-----4-------------------------|
|--2---------------|--------2------------------------|----------0-----2-----3-----2-------------------------|


|---------------------------|--------------------------------|----------------------------------------------|
|---------------------------|--------------------------------|----------------------------------------------|
|----2----------------------|--4-----------------------------|----------------------------------------------|
|----2----------------------|--4----------2----4----5----4---|-------------4--------------------------------|
|----0----------------------|--2----------2----4----5----4---|-------------4--------------------------------|
|---------------------------|-------------0----2----3----2---|-------0-----2--------------------------------|


|--------------------------------|------------------------------|-------------------------------------------|
|--------------------------------|---------3--------------------|-------------------------------------------|
|--------------------------------|---------2--------------------|----4--------------------------------------|
|---(4)-------2----4----5----4---|---------0--------------------|----4----------2----4----5----4------------|
|---(4)-------2----4----5----4---|------------------------------|----2----------2----4----5----4------------|
|---(2)-------0----2----3----2---|------------------------------|---------------0----2----3----2------------|


                                                                     Harm----------------------------------------|
|-------------------------------|------------------------------|--------------------------|---------5------------|
|-------------------------------|------------------------------|--------------------------|------------5------7--|
|-------------------------------|------------------------------|--------------------------|---------------5------|
|-------------------------------|------------------------------|--------------------------|----------------------|
|-------------------------------|------------------------------|--------------------------|----------------------|
|-------------------------------|------------------------------|--------------------------|----------------------|
|
|-------------------------------|------------------------------|--------------------------|---------------------------|
|-------------------------------|------------------------------|--------------------------|---------------------------|
|---------2--------4------------|------------------------------|-----2--------4-----------|---------------------------|
|---------2--------4---------5--|-----------4------------------|-----2--------4--------5--|-----4---------------------|
|----------------------------5--|-----------4------------------|-----------------------5--|-----4---------------------|
|-----2------2--2------2--2-----|--0--2--2-----2--2---2--2--2--|--2-----2--2-----2--2-----|--2-----2--2--0--2-3-3--0--|


|-------------------------------|------------------------------|--------------------------|---------------------------|
|-------------------------------|------------------------------|--------------------------|---------------------------|
|-------------------------------|------------------------------|--------------------------|---------------------------|
|-------------------------------|------------------------------|--------------------------|---------------------------|
|-------------------------------|------------------------------|--------------------------|---------------------------|
|-------------------------------|------------------------------|--------------------------|---------------------------|
|
|-------------------------------|------------------------------|--------------------------|---------------------------|
|-------------------------------|------------------------------|--------------------------|---------------------------|
|---------2--------4------------|------------------------------|-----2--------4-----------|---------------------------|
|---------2--------4---------5--|-----------4------------------|-----2--------4--------5--|-----4---------------------|
|----------------------------5--|-----------4------------------|-----------------------5--|-----4---------------------|
|-----2------2--2------2--2-----|--0--2--2-----2--2---2--2--2--|--2-----2--2-----2--2-----|--2------------------------|


3rd Verse
(Gtrs. 1 & 2 repeats Figure B simile)

   Let you know, the reapers show, makes you beg or bor -

   row                         He    comes to see             the
tragedy,                             his

  2nd time Gtr. 3 plays Fill 3

           b+1         b+1/4             ~~~~~~~~~~~~~~~~~~~~~~~~
|-----------------------------------|-----------------------------------|---------------------------------------------|
|-----------------------------------|-----------------------------------|---------------------------------------------|
|----------16----------14-----------|-----------------------------------|---------------------------------------------|
|---------------------------16------|-----------------------------------|---------------------------------------------|
|-----------------------------------|---12---------------------(12)\----|---------------------------------------------|
|-----------------------------------|-----------------------------------|---------------------------------------------|


   fate  he   will    not     fol   -     low
  Wearing     your   e   -   lec
                                       2nd time Gtr. 3 plays Fill 4
|-----------------------------------|---------------------------------------|-----------------------------------------|
|-----------------------------------|-----------------12p10-----------------|-----------------------------------------|
|-----------------------------------|--------9---11----------11p9-----------|--9-----------9---------------9----------|
|-----------------------------------|---11-------------------------10--11---|-----11-------------11-------------------|
|-----------------------------------|---------------------------------------|-----------------------------------------|
|-----------------------------------|---------------------------------------|-----------------------------------------|

Fill 3 (Gtr. 3)
                                   A.H.         A.H.           A.H.
A.H.
         P.M.---|                   ~~~~~~~~~~~   ~~~~~~        ~~~~~~~~~~
~~~~~~~~~~~~~
|----------------------------|-----2------------------------|------------------------------|
|----------------------------|-------------------5----------|---2------------5-------------|
|------------------2---------|------------------------------|------------------------------|
|-----------------------4----|------------------------------|------------------------------|
|---------2---4--------------|------------------------------|------------------------------|
|----------------------------|------------------------------|------------------------------|


Fill 4 (Gtr. 3)
            b+1
|----------------------------------------------------------------|
|----------------------------------------------------------------|
|-----------16-------14------------------------------------------|
|---------------------------16----14-----------------------------|
|---------------------------------------16----15p14--------------|
|------------------------------------------------------17p14-----|


          tric  crown           the   preacher        starts    to      pray

|-----------------------------------|---------------------------------------|-----------------------------------------|
|-----------------------------------|---------------------------------------|-----------------------------------------|
|----------11-----------------------|-----9-------------9----------------9--|----------11-----------(11)\-------------|
|----------------10--------11-------|-----------11---------------11---------|-----------------------------------------|
|-----------------------------------|---------------------------------------|-----------------------------------------|
|-----------------------------------|---------------------------------------|-----------------------------------------|

  Shiver          as       the  lights     go      down
  heed  these   words I       say

|-----------------------------------|---------------------------------------|-----------------------------------------|
|-----------------------------------|---------------------------------------|-----------------------------------------|
|---9--------------9------------9---|---------------------------------------|-----------------------------------------|
|---------11---------------11-------|------10-------9-----7-----------------|------------------------------7----------|
|-----------------------------------|---------------------------------------|---7---9-------9-----9-------------------|
|-----------------------------------|---------------------------------------|-----------------------------------------|


					        Gtrs. 1 & 2
|-----------------------------------|---------------------------------------|-----------------------------------------|
|-----------------------------------|---------------------------------------|-----------------------------------------|
|-----------------------------------|---2----2---2----2---------4-----4-----|--4---4----------------------------------|
|-----------------------------------|---2----2---2----2---------4-----4-----|--4---4---------2----4----5----4---------|
|-----9----------------(9)\---------|---0----0---0----0---------2-----2-----|--2---2---------2----4----5----4---------|
|-----------------------------------|---------------------------------------|----------------0----2----3----2---------|


Chorus:

|---------------------|-----------------------------|---------------------|--------------------------------------------|
|---------------------|-----------------------------|---------------------|--------------------------------------------|
|------11-------------|----------9---11----12--11---|------2--------------|----4---------------------------------------|
|------11-------------|----------9---11----12--11---|------2--------------|----4-----2-----4----5----4-----------------|
|-------9-------------|----------7----9----10---9---|------0--------------|----2-----2-----4----5----4-----------------|
|---------------------|-----------------------------|---------------------|----------0-----2----3----2-----------------|

|---------------------|-----------------------------|---------------------|--------------------------------------------|
|---------------------|-----------------------------|---------------------|--------------------------------------------|
|------11-------------|----------9---11----12--11---|------4--------------|----7---------------------------------------|
|------11-------------|----------9---11----12--11---|------4--------------|----7-----2-----4----5----4-----------------|
|-------9-------------|----------7----9----10---9---|------2--------------|----5-----2-----4----5----4-----------------|
|---------------------|-----------------------------|---------------------|----------0-----2----3----2-----------------|


|---------------------|-----------------------------|---------------------|--------------------------------------------|
|---------------------|-----------------------------|---------------------|--------------------------------------------|
|------11-------------|----------9---11----12--11---|------2--------------|----4---------------------------------------|
|------11-------------|----------9---11----12--11---|------2--------------|----4-----2-----4----5----4-----------------|
|-------9-------------|----------7----9----10---9---|------0--------------|----2-----2-----4----5----4-----------------|
|---------------------|-----------------------------|---------------------|----------0-----2----3----2-----------------|

|---------------------|-----------------------------|---------------------|--------------------------------------------|
|---------------------|-----------------------------|---------------------|--------------------------------------------|
|---------------------|-----------------------------|---------------------|--------------------------------------------|
|---------------------|-----------------------------|---------------------|--------------------------------------------|
|---------------------|-----------------------------|---------------------|--------9-----------------------------------|
|---------------------|-----------------------------|---------------------|--------------------------------------------|


        P.M.--------------------------------------------------------------------------------------------|
|---------------------|-----------------------------|---------------------|-----------------------------|
|---------------------|-----------------------------|---------------------|-----------------------------|
|------11-------------|----------9---11----12--11---|------2--------------|----4------------------------|
|------11-------------|----------9---11----12--11---|------2--------------|----4------------------------|
|-------9-------------|----------7----9----10---9---|------0--------------|----2------------------------|
|---------------------|-----------------------------|---------------------|----------0-----2----3----2--|


Gtr. 3                           fdbk.                               fdbk.

~~~~~~~~~~~~~~~~~~~~~~~~~~~~~~~~~~~~~~~~~~~~~~~~~~~~~~~~~~~~~~~~~~~~~~~~~~~~~
|-------------------------------|------------------------------|--------------------------|---------------------------|
|-------------------------------|------------------------------|--------------------------|---------------------------|
|-------------------------------|------------------------------|--------------------------|---------------------------|
|-------------------------------|------------------------------|--------------------------|---------------------------|
|---(9)-------------------------|------------------------------|--------------------------|---------------------------|
|-------------------------------|------------------------------|--------------------------|---------------------------|
|
|Gtr 2.
|-------------------------------|------------------------------|--------------------------|---------------------------|
|-------------------------------|------------------------------|--------------------------|---------------------------|
|---------2--------4------------|------------------------------|-----2--------4-----------|---------------------------|
|---------2--------4---------5--|-----------4------------------|-----2--------4--------5--|-----4---------------------|
|----------------------------5--|-----------4------------------|-----------------------5--|-----4---------------------|
|-----2------2--2------2--2-----|--0--2--2-----2--2---2--2--2--|--2-----2--2-----2--2-----|--2-----2--2--0--2-3-3--0--|


																	       Solo 2:


~~~~~~~~~~~~~~~~~~~~~~~~~~~~~~~~~~~~~~~~~~~~~~~~~~~~~~~~~~~~~~~~~~~~~~~~~~~~~~~~~~~~~~~~~~~~~~~~~~~~~
   b+1
|-------------------------------|------------------------------|--------------------------|---------------------------|
|-------------------------------|------------------------------|--------------------------|---------------------------|
|-------------------------------|------------------------------|--------------------------|-------------------16------|
|----/16------------------------|------------------------------|--------------------------|---------------------------|
|-------------------------------|------------------------------|--------------------------|---------------------------|
|-------------------------------|------------------------------|--------------------------|---------------------------|
|
|-------------------------------|------------------------------|--------------------------|---------------------------|
|-------------------------------|------------------------------|--------------------------|---------------------------|
|---------2--------4------------|------------------------------|-----2--------4-----------|---------------------------|
|---------2--------4---------5--|-----------4------------------|-----2--------4--------5--|-----4---------------------|
|----------------------------5--|-----------4------------------|-----------------------5--|-----4---------------------|
|-----2------2--2------2--2-----|--0--2--2-----2--2---2--2--2--|--2-----2--2-----2--2-----|--2------------------------|

     r    P.H.~~~            b+1    r   ~~~~~        b+½    r
|--------------------------------|-----------------------|------------------------------------------------|
|----------------------------17--|--(17)-------------16--|-(16)p14-----------16------(16)-----(16)p14-----|
|----(16)--14--------------------|-------14-------14-----|-----------16p14----------------------------16--|
|-----------------------16-------|-------------16--------|------------------------------------------------|
|--------------------------------|-----------------------|------------------------------------------------|
|--------------------------------|-----------------------|------------------------------------------------|


|----------------------------------------------------|
|----------------------------------------------------|
|--16h17p16p14--16p14-------16h17p16p14-16p14--------|
|---------------------16p14--------------------16----|
|----------------------------------------------------|
|----------------------------------------------------|

  b+1/4   ~~~~~                       ~~~~~~
|--------------------------|------------------|----------------------------------------------|
|-14----14-----------14-14-|------------------|----------14-16-17-16-14-------------14-------|
|-14----14-----------14-14-|------------------|-14-16-17----------------17-16-18-17----17-16-|
|----16----------16--------|-16--14h16--------|----------------------------------------------|
|--------------------------|------------------|----------------------------------------------|
|--------------------------|------------------|----------------------------------------------|

                                                      ~~~    P.H.~~
b+1   r
|-------------------------------------------------|------------------------------------------|
|----------14-16-17-16-------16-14-------14-------|------------------------------------------|
|-14-16-17-------------18-17-------17-16----17-16-|-14-------14--------14--17-----(17)-------|
|-------------------------------------------------|-------17--------17-----------------------|
|-------------------------------------------------|------------------------------------------|
|-------------------------------------------------|------------------------------------------|

                 ~~~~~  b+1              b+1  r
|-------------------------------17-----------------------------------------------------------|
|----------------------------17----20p17-----------------------------------------------------|
|--14h17p14----14-------19---------------19---(19)p17-17\14----14\12----12\11----------------|
|-----------17----------------------------------------------17-------14----------------------|
|--------------------------------------------------------------------------------------------|
|--------------------------------------------------------------------------------------------|
|
|
|--------------------------------|---------------------------|-------------------------------|
|--------------------------------|---------------------------|-------------------------------|
|------5----------7--------------|---------------------------|------5-----------7------------|
|------5----------7----------7---|------------7--------------|------5-----------7---------5--|
|----------------------------7---|------------7--------------|----------------------------5--|
|--5-------5--5--------5--5------|--5--5--5------5--5--5--5--|--5--------5--5-------5--5-----|

                                    ~~~~    ~~~~       P.H.~
      b+1/4
|---------------------------------|---------------------------------------------------------------------|
|---------------------------------|-------------------------------------14---14--(14)-----14-14---------|
|----11\9----9\7-----5\4---4\2----|-2-------2---------2--2--------------14---14--(14)-----14-14---------|
|-12------10-----9-7-----5--------|-------4--------4---------4--2h4/16-----------------16--------16-----|
|------------------------------9--|---------------------------------------------------------------------|
|---------------------------------|---------------------------------------------------------------------|
|
|---------------------------------|---------------------------------------------------------------------|
|---------------------------------|---------------------------------------------------------------------|
|---------------------------------|---------------------------------------------------------------------|
|--------7------------------------|---------------------------------------------------------------------|
|--------7------------------------|---------------------------------------------------------------------|
|----5--------5--5--5--5--5--5----|---------------------------------------------------------------------|


          A.H.
|--------------|-9h11h12p11--9h12p11p9---------------------------------------------------------|
|---------14---|-----------------------12h10p9h12p10p9-----------------------------------------|
|--------------|---------------------------------------11p9p8h11p9p8---------------------------|
|--14h16-------|-----------------------------------------------------11p9p7h11p9p7-------------|
|--------------|-------------------------------------------------------------------11p9p7h11p9-|
|--------------|-------------------------------------------------------------------------------|


Gtr. 4 Upper notes
Gtr. 3 Lower notes (dig in throughout)
                                      P.H.
|----12/14-----12----|------------------------------|
|--------------------|---14\12--------10------------|
|--------------------|------------------------------|
|--------------------|------------------------------|
|-----7/9-------7----|------------------------------|
|--------------------|----9\7----------5------------|

  Gtr. 3        ~~~~~~~~~
                           ~~~~~~~~~~~~
|------------------------|----------------------------|-----------12/14---------12----|-----------------------------|
|------------------------|----------------------------|-------------------------------|--14\12--------10------------|
|------------------------|----------------------------|-------------------------------|-----------------------------|
|------------------------|--------9---9h10p9p7--------|-------------------------------|-----------------------------|
|---------------7--------|---6------------------9p7---|-----9------7/9-----------7----|-----------------------------|
|---5---7/9--------------|----------------------------|-------------------------------|---9\7----------5------------|

|------------------------------------------|---------------------------------------------|
|------------------------------------------|-------------------------------------7h10h---|
|------------------------------------------|----------------------------6h7--9-----------|
|------------------------------------------|--6h7h9p7p6----------6h7h9-------------------|
|-------------4h5h7p5p4-----------4h5h7/9--|--------------9p7h9--------------------------|
|--2--4--5/7--------------7p5p4------------|---------------------------------------------|


                    P.H.                     P.H.  \-1/   \-1/    \-1---------------------------------------------|
|----------14-------12--------|----16--------14--------------------------|----9h10h12p10p9h12p10p9---19p17p16h19--|
|-7---------7--------5--------|--7/9-------------------------------------|----------------------------------------|
|-----------------------------|--------------11----(11)---(11)----(11)---|----------------------------------------|
|-----------------------------|------------------------------------------|----------------------------------------|
|-----------------------------|------------------------------------------|----------------------------------------|
|-----------------------------|------------------------------------------|----------------------------------------|


           P.H.
|----------------------------------------------|---12/14-------12-----|----------------------|
|--10p9----------------------------------------|----------------------|--14\12---------10----|
|---------11p9p7h11p9p7------------------------|----------------------|----------------------|
|------------------------11p9p7----------------|----------------------|----------------------|
|--------------------------------11p9p7h9h11---|----7/9---------7-----|----------------------|
|----------------------------------------------|----------------------|---9\7-----------9----|


    w/harmonizer														         ~~~~~~~~~
|-------------------------------------------------|----------------------------------------------17---------------|
|--------2-----------5-----------7-----------10---|----------12-------------14-------------17-----------19--------|
|--4----------/6----------/9----------/11---------|---/14-----------/16-----------16/18---------------------------|
|-------------------------------------------------|---------------------------------------------------------------|
|-------------------------------------------------|---------------------------------------------------------------|
|-------------------------------------------------|---------------------------------------------------------------|

~~~~~~~~~~~~~~~~~~~~~~~~~~~~~~~~~~~~~~~~~~~~~~~~~~~~~~~~~~~~~~~~~~~~~~~~~~~~~
             Harm.----------------------------------------------------------------------------------------------|
|-----------------------|-----------------------------|--------------------------------|----5-------------------|
|---(19)----------------|-----------------------------|--------------------------------|---------5-----------7--|
|-----------------------|-----------------------------|--------------------------------|--------------5---------|
|-----------------------|-----------------------------|--------------------------------|------------------------|
|-----------------------|-----------------------------|--------------------------------|------------------------|
|-----------------------|-----------------------------|--------------------------------|------------------------|


End:
     	      	       P.M.-----|
|---------------|-------------------------|---------------------------------|-------------------------------------|
|---3-----------|-------------------------|---------------------------------|-------------------------------------|
|---2-----------|---4---------------------|--------2----------4-------------|-------------------------------------|
|---0-----------|---4---------------------|--------2----------4---------5---|--------------4----------------------|
|---------------|---2---------------------|-----------------------------5---|--------------4----------------------|
|---------------|---------0---2---3---2---|---2--------2--2-------2--2------|---0---2---2------2---2---2---2------|

                                 N.H.----------------------------------------------------------------------------|
|-----------------|--------------------------|--5----------5----------5----|-----------5-----------5-------------|
|-----------------|--------------------------|-----5----------5------------|--5------------5-----------5---------|
|-----------------|--------------------------|--------5----------5---------|------5-----------5-----------5---7--|
|-----------------|--------------------------|-----------------------------|-------------------------------------|
|-----------------|--------------------------|-----------------------------|-------------------------------------|
|-----------------|--------------------------|-----------------------------|-------------------------------------|

|-----------------|--------------------------|-------------------------------|------------------------------------|
|-----3-----------|--------------------------|-------------------------------|------------------------------------|
|-----2-----------|---4----------------------|-------------------------------|------------------------------------|
|-----0-----------|---4----------------------|-------------------------------|------------------------------------|
|-----------------|---2----------------------|----4---4---4---4---4---4--4---|---4--4--4--4--4--4--4--4-----------|
|-----------------|----------0---2---3---0---|----2---2---2---2---2---2--2---|---2--2--2--2--2--2--2--2-----------|
comments
We did not receive enough feedback on this tab! Please rate:
print report bad tab
1 2 3 4 5
I want to post or [tab]
guest
You may want to rate the tab now too:
select rating
Please do not post tabs as comments. Select "correction" instead!