Oops, an error
Loading. Please wait.

Electric Crown Tab

ver3
ver3

Whole song

More versions @911Tabs.com
4,846 views 21 this week
no commentswrite comment
1 2 3 4 5
excellent!
x 1
Autoscroll
+/-
esc
set tempo
stop
Contributor
Tuning
D# G# C# F# A# D#
WARNING: You are trying to view
                                    content from Ultimate-Guitar.com
                                    in an unauthorized application,
                                    which is prohibited.

                                    Please use an official Ultimate
                                    Guitar Tabs application for iPhone,
                                    iPad or Android to access legitimate
                                    chords, guitar, bass, and drum tabs
                                    from Ultimate-Guitar.com database.

                                    Type "ultimate guitar tabs" in Apple
                                    App Store's or Android Market's
                                    search to find the application.
#----------------------------------PLEASE NOTE---------------------------------#
#This file is the author's own work and represents their interpretation of the #
#song. You may only use this file for private study, scholarship, or research. #
#------------------------------------------------------------------------------#

ELECTRIC CROWN
As recorded by Testament
(From the 1992 Album THE RITUAL)

Transcribed by cbliss66@aol.com
        

Words by Billy and Skolnick Music by Skolnick and Peterson
Arranged by Testament

Gtr I (Eb Ab Db Gb Bb Eb) - 'Eric Rhythm'
Gtr II (Eb Ab Db Gb Bb Eb) - 'Alex Solo Gtr'
Gtr III (Eb Ab Db Gb Bb Eb) - 'Alex Rhy Gtr.'
Gtr IV (Eb Ab Db Gb Bb Eb) - 'Feedback and Phalse Harmonics'
Gtr V (Eb Ab Db Gb Bb Eb) - 'Harmony Guitar'

 Intro
  Moderately Fast Rock Q=162
  EbF5 F#5F5      F5                 EbF5 F#5F5      G#5  Bb5
 2/4          4/4
  Gtr I
  E  E  E  E   Q   H.         +H     E  E  E  E   Q  Q.   Q.
|------------|-------------|--------------------|--------------|
|------------|-------------|--------------------|--------------|
|------------|-------------|--------------------|--------------|
|-9-11-12-11-|----11-------|-(11)----9-11-12-11-|----7----9----|
|-7--9-10--9-|-----9-------|--(9)----7--9-10--9-|----7----9----|
|------------|-------------|--------------------|----5----7----|
|
| Gtr III
| E  E  E  E   Q   H.         +H     E  E  E  E   Q  Q.   Q.
|------------|-------------|--------------------|--------------|
|------------|-------------|--------------------|--------------|
|------------|-------------|--------------------|----2----4----|
|------------|-------------|--------------------|----2----4----|
|-2--4--5--4-|-----4-------|--(4)----2--4--5--4-|----0----2----|
|-0--2--3--2-|-----2-------|--(2)----0--2--3--2-|--------------|


  EbF5 F#5F5      F5                 EbF5 F#5F5      Bb5  C#5
 2/4          4/4
  E  E  E  E   Q   H.         +H     E  E  E  E   Q  Q.   Q.
|------------|-------------|--------------------|--------------|
|------------|-------------|--------------------|--------------|
|------------|-------------|--------------------|----4----7----|
|-9-11-12-11-|----11-------|-(11)----9-11-12-11-|----4----7----|
|-7--9-10--9-|-----9-------|--(9)----7--9-10--9-|----2----5----|
|------------|-------------|--------------------|--------------|
|
| E  E  E  E   Q   H.         +H     E  E  E  E   Q  Q.   Q.
|------------|-------------|--------------------|--------------|
|------------|-------------|--------------------|--------------|
|------------|-------------|--------------------|----4----7----|
|------------|-------------|--------------------|----4----7----|
|-2--4--5--4-|-----4-------|--(4)----2--4--5--4-|----2----5----|
|-0--2--3--2-|-----2-------|--(2)----0--2--3--2-|--------------|


  EbF5 F#5F5      F5                 EbF5 F#5F5      G#5  Bb5
 2/4          4/4
  E  E  E  E   Q   H.         +H     E  E  E  E   Q  Q.   Q.
|------------|-------------|--------------------|--------------|
|------------|-------------|--------------------|--------------|
|-9-11-12-11-|----11-------|-(11)----9-11-12-11-|--------------|
|-9-11-12-11-|----11-------|-(11)----9-11-12-11-|----7----9----|
|-7--9-10--9-|-----9-------|--(9)----7--9-10--9-|----7----9----|
|------------|-------------|--------------------|----5----7----|
|
| E  E  E  E   Q   H.         +H     E  E  E  E   Q  Q.   Q.
|------------|-------------|--------------------|--------------|
|------------|-------------|--------------------|--------------|
|------------|-------------|--------------------|----2----4----|
|-2--4--5--4-|-----4-------|--(4)----2--4--5--4-|----2----4----|
|-2--4--5--4-|-----4-------|--(4)----2--4--5--4-|----0----2----|
|-0--2--3--2-|-----2-------|--(2)----0--2--3--2-|--------------|


  EbF5 F#5F5      F5                 EbF5 F#5F5      C#5  Bb5  EbF5F#F5
 2/4          4/4                                6/4
  E  E  E  E   Q   H.         +H     E  E  E  E   Q  Q.   Q.   E E E E
|------------|-------------|--------------------|----------------------|
|------------|-------------|--------------------|----------------------|
|-9-11-12-11-|----11-------|-(11)----9-11-12-11-|----7----4------------|
|-9-11-12-11-|----11-------|-(11)----9-11-12-11-|----7----4----2-4-5-4-|
|-7--9-10--9-|-----9-------|--(9)----7--9-10--9-|----5----2----2-4-5-4-|
|------------|-------------|--------------------|--------------0-2-3-2-|
|
|                                                                    ~
| E  E  E  E   Q   H.         +H     E  E  E  E   Q  Q.   Q.   E E E E
|------------|-------------|--------------------|----------------------|
|------------|-------------|--------------------|----------------------|
|------------|-------------|--------------------|----7----4------------|
|-2--4--5--4-|-----4-------|--(4)----2--4--5--4-|----7----4------------|
|-2--4--5--4-|-----4-------|--(4)----2--4--5--4-|----5----2------------|
|-0--2--3--2-|-----2-------|--(2)----0--2--3--2-|--------------0-2-3-2-|


  Slightly Faster Q=166
      G#5/EbBb5/F F#5/C#    F5/C
 4/4
  Gtr II
   W                  W
|-------------------|-------------------|
|-------------------|-------------------|
|-------------------|-------------------|
|-------------------|-------------------|
|-------------------|-------------------|
|-------------------|-------------------|
|
| Gtr I
|  ~~~  PM|     PM--------|   PM------|
| +E  E E E E E E E   E E E E E E S S E
|-------------------|-------------------|
|-------------------|-------------------|
|-----2-----4-------|-------------------|
|-----2-----4-----5-|-------4-----------|
|-----------------5-|-------4-----------|
|-(2)---2-2---2-2---|-0-2-2---2-2-2-2-2-|


    G#5/EbBb5/F F#5/C#F5/C
  W                 H        E   E   E      E
|-----------------|---------<5>-----------------|
|-----------------|-------------<5>--------<7>--|
|-----------------|-----------------<5>---(<5>)-|
|-----------------|-----------------------------|
|-----------------|-----------------------------|
|-----------------|-----------------------------|
|
|     PM|     PM----|   PM----------------|
| E E E E E E E E   E E E E  E   E   S  S   E
|-----------------|-----------------------------|
|-----------------|-----------------------------|
|---2-----4-------|-----------------------------|
|---2-----4-----5-|---4-------------------------|
|---------------5-|---4-------------------------|
|-2---2-2---2-2---|-2---2-2--0---2---3--3---0---|


        G#5/EbBb5/F F#5/C#        F5/C
   +W                    +W
|---------------------|-----------------------|
|-(<7>)---------------|-(<7>)-----------------|
|-(<5>)---------------|-(<5>)-----------------|
|---------------------|-----------------------|
|---------------------|-----------------------|
|---------------------|-----------------------|
|
|   ~~~~~ PM|     PM------------|   PM------|
|   E   E E E E E E E     E   E E E E E S S E
|---------------------|-----------------------|
|---------------------|-----------------------|
|-------2-----4-------|-----------------------|
|-------2-----4-----5-|-----------4-----------|
|-------------------5-|-----------4-----------|
|---2-----2-2---2-2---|---0---2-2---2-2-2-2-2-|


        G#5/EbBb5/F F#5/C#    F5/C
                                    PM------|
   +W                    +H         E E S S E
|---------------------|------------------------|
|-(<7>)---------------|-(<7>)------------------|
|-(<5>)---------------|-(<5>)------------------|
|---------------------|------------------------|
|---------------------|------------------------|
|---------------------|-------------0-2-3-3-0--|
|
|         PM|     PM----|       PM----------|
|   E   E E E E E E E     E   E E E E E S S E
|---------------------|------------------------|
|---------------------|------------------------|
|-------2-----4-------|------------------------|
|-------2-----4-----5-|-------4----------------|
|-------------------5-|-------4----------------|
|---2-----2-2---2-2---|---2-----2-2-0-2-3-3-0--|


    G#5/EbBb5/F F#5/C#    F5/C
 4/4
  Gtr II
  W                 W
|-----------------|-------------------|
|-----------------|-------------------|
|-----------------|-------------------|
|-----------------|-------------------|
|-----------------|-------------------|
|-----------------|-------------------|
|
| Gtrs I, III
|     PM|     PM--------|   PM------|
| E E E E E E E E   E E E E E E S S E
|-----------------|-------------------|
|-----------------|-------------------|
|---2-----4-------|-------------------|
|---2-----4-----5-|-------4-----------|
|---------------5-|-------4-----------|
|-2---2-2---2-2---|-0-2-2---2-2-2-2-2-|


    G#5/EbBb5/F F#5/C#F5/C
  W                 H        E   E   E     E
|-----------------|---------<5>---------------|
|-----------------|-------------<5>-------<7>-|
|-----------------|-----------------<5>-------|
|-----------------|---------------------------|
|-----------------|---------------------------|
|-----------------|---------------------------|
|
|     PM|     PM----|   PM----------------|
| E E E E E E E E   E E E E  E   E   S  S  E
|-----------------|---------------------------|
|-----------------|---------------------------|
|---2-----4-------|---------------------------|
|---2-----4-----5-|---4-----------------------|
|---------------5-|---4-----------------------|
|-2---2-2---2-2---|-2---2-2--0---2---3--3--0--|


        G#5/EbBb5/F F#5/C#        F5/C
   +W                    +W
|---------------------|-----------------------|
|-(<7>)---------------|-(<7>)-----------------|
|---------------------|-----------------------|
|---------------------|-----------------------|
|---------------------|-----------------------|
|---------------------|-----------------------|
|
|   ~~~~~ PM|     PM------------|   PM------|
|   E   E E E E E E E     E   E E E E E S S E
|---------------------|-----------------------|
|---------------------|-----------------------|
|-------2-----4-------|-----------------------|
|-------2-----4-----5-|-----------4-----------|
|-------------------5-|-----------4-----------|
|---2-----2-2---2-2---|---0---2-2---2-2-2-2-2-|


        G#5/EbBb5/F F#5/C#    F5/C
   +W                    +E   H.        E
|---------------------|-------------------||
|-(<7>)---------------|-(<7>)-------------||
|---------------------|-------------------||
|---------------------|-------------------||
|---------------------|-------------------||
|---------------------|-------------------||
|
|         PM|     PM----|
|   E   E E E E E E E     E   E  H.
|---------------------|-------------------||
|---------------------|-------------------||
|-------2-----4-------|-------------------||
|-------2-----4-----5-|-------4-----------||
|-------------------5-|-------4-----------||
|---2-----2-2---2-2---|---2---------------||


 1st Verse
    G#5/EbBb5/F F#5/C#    F5/C            G#5/EbBb5/F F#5/C#F5/C
  Gtrs I, III
      PM|     PM--------|   PM------|       PM|     PM----|   PM----------|
  E E E E E E E E   E E E E E E S S E   E E E E E E E E   E E E E E E S S E
|-----------------|-------------------|-----------------|--------------------|
|-----------------|-------------------|-----------------|--------------------|
|---2-----4-------|-------------------|---2-----4-------|--------------------|
|---2-----4-----5-|-------4-----------|---2-----4-----5-|---4----------------|
|---------------5-|-------4-----------|---------------5-|---4----------------|
|-2---2-2---2-2---|-0-2-2---2-2-2-2-2-|-2---2-2---2-2---|-2---2-2-2-2-3-3-0--|


    G#5/EbBb5/F F#5/C#    F5/C            G#5/EbBb5/F F#5/C#F5/C
      PM|     PM--------|   PM------|       PM|     PM----|   PM----------|
  E E E E E E E E   E E E E E E S S E   E E E E E E E E   E E E E E E S S E
|-----------------|-------------------|-----------------|--------------------|
|-----------------|-------------------|-----------------|--------------------|
|---2-----4-------|-------------------|---2-----4-------|--------------------|
|---2-----4-----5-|-------4-----------|---2-----4-----5-|---4----------------|
|---------------5-|-------4-----------|---------------5-|---4----------------|
|-2---2-2---2-2---|-0-2-2---2-2-2-2-2-|-2---2-2---2-2---|-2---2-2-2-2-3-3-0--|


  F5/C   Fm/Ab    F5/C              Eb5/Bb
  Gtr II
  E  E E E E  E E E   E  E E  Q        +Q       +E
|-------------------|--------------------------------|
|-------------------|--------------------------------|
|-9------9--------9-|---11---------------------------|
|---11-------11-----|--------10b11====(10)-----(10)r-|
|-------------------|--------------------------------|
|-------------------|--------------------------------|
|
| Gtrs I, III
|      PM  PM---|     PM-----|             PM--|
| E  E E E E  E E E   E  E E  E     E   E  S S   E
|-------------------|--------------------------------|
|-------------------|--------------------------------|
|-------------------|--------------------------------|
|-4------4--------4-|---------------2---4------------|
|-4------0--------4-|---------------2---4------------|
|----2-2---2--2-2---|-2--2-2--2------------3-3---0---|


  F5/C   Fm/Ab    F5/C          G#5/Eb
  E  E E E E  E E E   E  H.          E
|-------------------|------------------|
|-------------------|------------------|
|-9------9--------9-|---11-------------|
|---11-------11-----|------------------|
|-------------------|------------------|
|-------------------|------------------|
|
|    PM|   PM---|     PM------|    PM|
| E  E E E E  E E E   E  E  E E Q  E E
|-------------------|------------------|
|-------------------|------------------|
|-------------------|-----------2------|
|-4------4--------4-|-----------2------|
|-4------0--------4-|------------------|
|----2-2---2--2-2---|-2--2--2-2----2-0-|


  F5/C   Fm/Ab    F5/C           G#5/Eb
  E  E E E E  E E E   +E   Q   E H
|-------------------|-------------------|
|-------------------|-------------------|
|-9------9--------9-|-(9)---------------|
|---11-------11-----|-----10---9-7------|
|-------------------|-------------------|
|-------------------|-------------------|
|
|      PM  PM---|      PM------|    PM|
| E  E E E E  E E E    E   E E E Q  E E
|-------------------|-------------------|
|-------------------|-------------------|
|-------------------|------------2------|
|-4------4--------4-|------------2------|
|-4------0--------4-|-------------------|
|----2-2---2--2-2---|--2---2-2-2----2-0-|


  F5/C  Fm/Ab   F5/C
  E E E E E E E E   +E  Q.     +H
|-----------------|------------------------|
|-----------------|------------------------|
|-----------------|------------------------|
|---------------7-|-(7)--------------------|
|-7-9---9---9-----|-----9------(9)---------|
|-----------------|------------------------|
|
|   PM|   PM--|      PM------------------|
| E E E E E E E E    E  E  E E  E  E S S E
|-----------------|------------------------|
|-----------------|------------------------|
|-----------------|------------------------|
|-4-----4-------4-|------------------------|
|-4-----0-------4-|------------------------|
|---2-2---2-2-2---|--2--2--2-2--0--2-3-3-0-|


  G#5        Bb5           EbF5F#F5
  W                H.          E E
|----------------|-----------------||
|----------------|-----------------||
|----------------|-----------------||
|----------------|-----------------||
|----------------|-----------------||
|----------------|---------------2-||
|
| E E E E Q  E E   E  E Q  E E E E
|----------------|-----------------||
|----------------|-----------------||
|-2-2-2-2----4-4-|-4--4------------||
|-2-2-2-2----4-4-|-4--4----2-4-5-4-||
|-0-0-0-0----2-2-|-2--2----2-4-5-4-||
|----------------|---------0-2-3-2-||


 Guitar Solo I
      G#5/Eb      Bb5/F F#5/C#             F5/C
                                      ~~~~~~~~~~  ~~~~~~~~~~
  +E  Q      +E   E E E E      +E   E E    +E   E E    +E     E
|-----------------2----------|------2-----------2-------------2-|
|-------------------2-5-5b7==|=(5)r---5b7==(5)r---5b7==(5)r-----|
|-----4b6====(4)r------------|----------------------------------|
|----------------------------|----------------------------------|
|----------------------------|----------------------------------|
|-(2)------------------------|----------------------------------|
|
|          PM|        PM--------------|         PM------------|
|  E  E    E  E   E E E E       E   E E     E   E E     S   S E
|----------------------------|----------------------------------|
|----------------------------|----------------------------------|
|-----2-----------4----------|----------------------------------|
|-----2-----------4-----5----|--------------4-------------------|
|-----------------------5----|--------------4-------------------|
|--2-------2--2-----2-2------|--0---2-2---------2-2-----2---2-2-|


        G#5/Eb    Bb5/F       F#5/C#      F5/C
                                                        ~
                  |-3-|             |-3-|
  T T S S S S S e S S S e S S S S   S S S e S S S S S S E   e    E
|---------------------------------|------------------------------------|
|-4h5p4-2-4-2---2-----------------|------------------------------------|
|-------------5---4h5p4-2-4p2-----|-4h5p4-2-4-2---5-4p2h4-/16---16b18==|
|-----------------------------4p2-|-------------4----------------------|
|---------------------------------|------------------------------------|
|---------------------------------|------------------------------------|
|
|           PM--|         PM--------|       PM------------------|
| E     E   E   E E     E E   E     E     E E   E   E   E   S S  E
|---------------------------------|------------------------------------|
|---------------------------------|------------------------------------|
|-------2---------4---------------|------------------------------------|
|-------2---------4-----------5---|-------4----------------------------|
|-----------------------------5---|-------4----------------------------|
|-2---------2---2-------2-2-------|-2-------2---2---2---2---3-3--0-----|


       G#5/Eb    Bb5/F            F#5/C#
               ~~~~~~~
   +Q     +E   E  +E   S  S  S  S  E
|-----------------------------------------|
|---------------------------------17b19===|
|-(16)r==(16)-14-(14)-------14-16---------|
|---------------------14-16---------------|
|-----------------------------------------|
|-----------------------------------------|
|
|          PM-|              PM---|
|   E  E   E   E   E   E     E     E
|-----------------------------------------|
|-----------------------------------------|
|------2-----------4----------------------|
|------2-----------4---------------5------|
|----------------------------------5------|
|---2------2---2-------2-----2------------|


              F5/C
   +Q     +E   Q    S      +S    S  S  S  S
|----------------------------------14-------|
|-(17)r==(17)-------------------14----17p14-|
|-------------14---16b18==(16)r-------------|
|-------------------------------------------|
|-------------------------------------------|
|-------------------------------------------|
|
|   PM---|       PM-------------------|
|   E  E   E   E E  E            S  S  E
|-------------------------------------------|
|-------------------------------------------|
|-------------------------------------------|
|--------------4----------------------------|
|--------------4----------------------------|
|---0--2---2-----2--2------------2--2--2----|


        G#5/Eb                      Bb5/F             F#5/C#     F5/C
   S  S  T      +T    S  S  S  S  S  S  S  S  S  S  S  S  S    E  +E   H.
|-----------------------------------------------------------|----------------||
|-16p14--------------14-------------------------------------|-14-(14)\-------||
|-------16b18==(16)r----17-16-14----16h17p16p14-16p14-------|-14-(14)\-------||
|--------------------------------16-------------------16p14-|----------------||
|-----------------------------------------------------------|----------------||
|-----------------------------------------------------------|----------------||
|
|                        PM---|                  PM-----------|
|  E     E               E     E     E     E     E     E       E   E   H.
|-----------------------------------------------------------|----------------||
|-----------------------------------------------------------|----------------||
|--------2---------------------------4----------------------|----------------||
|--------2---------------------------4-----------------5----|------4---------||
|------------------------------------------------------5----|------4---------||
|--2---------------------2-----2-----------2-----2----------|--2-------------||


 2nd Verse
    G#5/EbBb5/F F#5/C#    F5/C            G#5/EbBb5/F F#5/C#F5/C
  W                 W                   W
|-----------------|-------------------|-----------------|
|-----------------|-------------------|-----------------|
|-----------------|-------------------|-----------------|
|-----------------|-------------------|-----------------|
|-----------------|-------------------|-----------------|
|-----------------|-------------------|-----------------|
|
|     PM|     PM--------|   PM------|       PM|     PM---
| E E E E E E E E   E E E E E E S S E   E E E E E E E E
|-----------------|-------------------|-----------------|
|-----------------|-------------------|-----------------|
|---2-----4-------|-------------------|---2-----4-------|
|---2-----4-----5-|-------4-----------|---2-----4-----5-|
|---------------5-|-------4-----------|---------------5-|
|-2---2-2---2-2---|-0-2-2---2-2-2-2-2-|-2---2-2---2-2---|


  H        S      +S    S  S  S  S  S  S
|-------------------------14--------------|
|----------------------14----17p14--------|
|---------16b18==(16)r-------------17p16--|
|-----------------------------------------|
|-----------------------------------------|
|-----------------------------------------|
|
|-|   PM---------------------------|
| E E E E  E            E     S  S  E
|-----------------------------------------|
|-----------------------------------------|
|-----------------------------------------|
|---4-------------------------------------|
|---4-------------------------------------|
|-2---2-2--2------------2-----3--3--0-----|


     G#5/Eb    Bb5/F F#5/C#    F5/C
   Q    +Q     H         W
|----------------------|-------------------|
|----------------------|-------------------|
|-14---(14)\-----------|-------------------|
|----------------------|-------------------|
|----------------------|-------------------|
|----------------------|-------------------|
|
|        PM--|     PM--------|   PM------|
|  E E   E   E E E E E   E E E E E E S S E
|----------------------|-------------------|
|----------------------|-------------------|
|----2---------4-------|-------------------|
|----2---------4-----5-|-------4-----------|
|--------------------5-|-------4-----------|
|--2-----2---2---2-2---|-0-2-2---2-2-2-2-2-|


  G#5/Eb  Bb5/F F#5/C#F5/C
  W                 H        E  E  S  S  E
|-----------------|-------------------------|
|-----------------|---------16-14-----------|
|-----------------|---------16-14-----------|
|-----------------|---------------16p14-----|
|-----------------|---------------------16--|
|-----------------|-------------------------|
|
|     PM|     PM----|   PM--------------|
| E E E E E E E E   E E E E  E  E  S  S  E
|-----------------|-------------------------|
|-----------------|-------------------------|
|---2-----4-------|-------------------------|
|---2-----4-----5-|---4---------------------|
|---------------5-|---4---------------------|
|-2---2-2---2-2---|-2---2-2--2--2--3--3--0--|


  F5/C   Fm/Ab    F5/C              Eb5/Bb
  E  E E E E  E E E   E  E E  Q        +Q       +E
|-------------------|--------------------------------|
|-------------------|--------------------------------|
|-9------9--------9-|---11---------------------------|
|---11-------11-----|--------10b11====(10)-----(10)r-|
|-------------------|--------------------------------|
|-------------------|--------------------------------|
|
|      PM  PM---|     PM-----|             PM--|
| E  E E E E  E E E   E  E E  E     E   E  S S   E
|-------------------|--------------------------------|
|-------------------|--------------------------------|
|-------------------|--------------------------------|
|-4------4--------4-|---------------2---4------------|
|-4------0--------4-|---------------2---4------------|
|----2-2---2--2-2---|-2--2-2--2------------3-3---0---|


  F5/C   Fm/Ab    F5/C          G#5/Eb
  E  E E E E  E E E   E  H.          E
|-------------------|------------------|
|-------------------|------------------|
|-9------9--------9-|---11-------------|
|---11-------11-----|------------------|
|-------------------|------------------|
|-------------------|------------------|
|
|    PM|   PM---|     PM------|    PM|
| E  E E E E  E E E   E  E  E E Q  E E
|-------------------|------------------|
|-------------------|------------------|
|-------------------|-----------2------|
|-4------4--------4-|-----------2------|
|-4------0--------4-|------------------|
|----2-2---2--2-2---|-2--2--2-2----2-0-|


  F5/C   Fm/Ab    F5/C           G#5/Eb
  E  E E E E  E E E   +E   Q   E H
|-------------------|-------------------|
|-------------------|-------------------|
|-9------9--------9-|-(9)---------------|
|---11-------11-----|-----10---9-7------|
|-------------------|-------------------|
|-------------------|-------------------|
|
|      PM  PM---|      PM------|    PM|
| E  E E E E  E E E    E   E E E Q  E E
|-------------------|-------------------|
|-------------------|-------------------|
|-------------------|------------2------|
|-4------4--------4-|------------2------|
|-4------0--------4-|-------------------|
|----2-2---2--2-2---|--2---2-2-2----2-0-|


  F5/C  Fm/Ab   F5/C
  E E E E E E E E   +E  Q.     +H
|-----------------|------------------------|
|-----------------|------------------------|
|-----------------|------------------------|
|---------------7-|-(7)--------------------|
|-7-9---9---9-----|-----9------(9)---------|
|-----------------|------------------------|
|
|   PM|   PM--|      PM------------------|
| E E E E E E E E    E  E  E E  E  E S S E
|-----------------|------------------------|
|-----------------|------------------------|
|-----------------|------------------------|
|-4-----4-------4-|------------------------|
|-4-----0-------4-|------------------------|
|---2-2---2-2-2---|--2--2--2-2--0--2-3-3-0-|


                                    Chorus
  G#5        Bb5          EbF5F#F5      F5                 EbF5F#F5
  Gtrs I, III
  E E E E Q  E E   E E Q  E E E E    Q  Q  +H       +H     E E E E
|----------------|----------------||--------------|-----------------|
|----------------|----------------||--------------|-----------------|
|-2-2-2-2----4-4-|-4-4------------||--------------|-----------------|
|-2-2-2-2----4-4-|-4-4----2-4-5-4-||----4--(4)----|-(4)----2-4-5-4--|
|-0-0-0-0----2-2-|-2-2----2-4-5-4-||----4--(4)----|-(4)----2-4-5-4--|
|----------------|--------0-2-3-2-||----2--(2)----|-(2)----0-2-3-2--|


     G#5         Bb5  EbF5F#F5      F5                 EbF5F#F5
  Q  Q  +H       H    E E E E   E E Q  +H       +H     E E E E
|--------------|--------------|---------------|-----------------|
|--------------|--------------|---------------|-----------------|
|----2--(2)----|-4------------|---------------|-----------------|
|----2--(2)----|-4----2-4-5-4-|-----4--(4)----|-(4)----2-4-5-4--|
|----0--(0)----|-2----2-4-5-4-|-----4--(4)----|-(4)----2-4-5-4--|
|--------------|------0-2-3-2-|---0-2--(2)----|-(2)----0-2-3-2--|


     C#5         Bb5  EbF5F#F5    G#5/EbBb5/F F#5/C#    F5/C
                                    PM|     PM--------|   PM------|
  Q  Q  +H       H    E E E E   E E E E E E E E   E E E E E E S S E
|--------------|--------------|-----------------|-------------------|
|--------------|--------------|-----------------|-------------------|
|----7--(7)----|-4------------|---2-----4-------|-------------------|
|----7--(7)----|-4----2-4-5-4-|---2-----4-----5-|-------4-----------|
|----5--(5)----|-2----2-4-5-4-|---------------5-|-------4-----------|
|--------------|------0-2-3-2-|-2---2-2---2-2---|-0-2-2---2-2-2-2-2-|


    G#5/EbBb5/F F#5/C#F5/C
  Gtr II
  W                 H        E   E   E      E
|-----------------|---------<5>-----------------|
|-----------------|-------------<5>--------<7>--|
|-----------------|-----------------<5>---(<5>)-|
|-----------------|-----------------------------|
|-----------------|-----------------------------|
|-----------------|-----------------------------|
|
| Gtrs I, III
|     PM|     PM----|   PM----------------|
| E E E E E E E E   E E E E  E   E   S  S   E
|-----------------|-----------------------------|
|-----------------|-----------------------------|
|---2-----4-------|-----------------------------|
|---2-----4-----5-|---4-------------------------|
|---------------5-|---4-------------------------|
|-2---2-2---2-2---|-2---2-2--0---2---3--3---0---|


        G#5/EbBb5/F F#5/C#        F5/C
   +W                    +W
|---------------------|------------------------|
|-(<7>)---------------|-(<7>)------------------|
|-(<5>)---------------|-(<5>)------------------|
|---------------------|------------------------|
|---------------------|------------------------|
|---------------------|------------------------|
|
|         PM|     PM------------|   PM------|
|   E   E E E E E E E     E   E E E E E S S E
|---------------------|------------------------|
|---------------------|------------------------|
|-------2-----4-------|------------------------|
|-------2-----4-----5-|-----------4------------|
|-------------------5-|-----------4------------|
|---2-----2-2---2-2---|---0---2-2---2-2-2-2-2--|


        G#5/EbBb5/F F#5/C#    F5/C
                                          Gt
   +W                    +E   H.        E
|---------------------|-------------------||
|-(<7>)---------------|-(<7>)-------------||
|-(<5>)---------------|-(<5>)-------------||
|---------------------|-------------------||
|---------------------|-------------------||
|---------------------|-------------------||
|
|                                         Gt
|         PM|     PM----|
|   E   E E E E E E E     E   E  H.
|---------------------|-------------------||
|---------------------|-------------------||
|-------2-----4-------|-------------------||
|-------2-----4-----5-|-------4-----------||
|-------------------5-|-------4-----------||
|---2-----2-2---2-2---|---2---------------||


 3rd Verse
    G#5/EbBb5/F F#5/C#    F5/C
 r III
      PM|     PM--------|   PM------|
  E E E E E E E E   E E E E E E S S E
|-----------------|-------------------|
|-----------------|-------------------|
|---2-----4-------|-------------------|
|---2-----4-----5-|-------4-----------|
|---------------5-|-------4-----------|
|-2---2-2---2-2---|-0-2-2---2-2-2-2-2-|
|
|r I
|     PM|     PM--------|   PM------|
| E E E E E E E E   E E E E E E S S E
|-----------------|-------------------|
|-----------------|-------------------|
|---2-----4-------|-------------------|
|---2-----4-----5-|-------4-----------|
|---------------5-|-------4-----------|
|-2---2-2---2-2---|-0-2-2---2-2-2-2-2-|


    G#5/EbBb5/F F#5/C# F5/C
  Gtr II
  W                 Q.      E      +E    S        +S    Q
|-----------------|-------------------------------------------|
|-----------------|--------12b14==(12)r-10b10.5==(10)r--------|
|-----------------|------------------------------------11-----|
|-----------------|-------------------------------------------|
|-----------------|-------------------------------------------|
|-----------------|-------------------------------------------|
|
| Gtrs I, III
|     PM|     PM----|    PM---------------------------------|
| E E E E E E E E   E  E E  E       E    E              S S E
|-----------------|-------------------------------------------|
|-----------------|-------------------------------------------|
|---2-----4-------|-------------------------------------------|
|---2-----4-----5-|----4--------------------------------------|
|---------------5-|----4--------------------------------------|
|-2---2-2---2-2---|-2----2--2-------2----2--------------3-3-0-|


    G#5/EbBb5/F    F#5/C#    F5/C
  ~
  H       +Q     Q     W
|--------------------|-------------------|
|--------------------|-------------------|
|--------------------|-------------------|
|-7-------(7)\-------|-------------------|
|--------------------|-------------------|
|--------------------|-------------------|
|
|     PM|        PM--------|   PM------|
| E E E E  E   E E E   E E E E E E S S E
|--------------------|-------------------|
|--------------------|-------------------|
|---2------4---------|-------------------|
|---2------4-------5-|-------4-----------|
|------------------5-|-------4-----------|
|-2---2-2------2-2---|-0-2-2---2-2-2-2-2-|


    G#5/EbBb5/F F#5/C#F5/C
  W                 E  E E  E  S  S  S S  E    E
|-----------------|------------------------------|
|-----------------|-----------12p10--------------|
|-----------------|------9-11-------11p9---------|
|-----------------|---11-----------------10---11-|
|-----------------|------------------------------|
|-----------------|------------------------------|
|
|     PM|     PM----|    PM-------------------|
| E E E E E E E E   E  E E  E  E     E    S S  E
|-----------------|------------------------------|
|-----------------|------------------------------|
|---2-----4-------|------------------------------|
|---2-----4-----5-|----4-------------------------|
|---------------5-|----4-------------------------|
|-2---2-2---2-2---|-2----2--2--2-----2----3-3--0-|


  F5/C   Fm/Ab    F5/C              Eb5/Bb
  E  E E E E  E E E   E  E E  Q        +Q       +E
|-------------------|----------------------------------|
|-------------------|----------------------------------|
|-9------9--------9-|---11-----------------------------|
|---11-------11-----|--------10b11====(10)-----(10)r---|
|-------------------|----------------------------------|
|-------------------|----------------------------------|
|
|      PM  PM---|     PM-----|             PM--|
| E  E E E E  E E E   E  E E  E     E   E  S S   E
|-------------------|----------------------------------|
|-------------------|----------------------------------|
|-------------------|----------------------------------|
|-4------4--------4-|---------------2---4--------------|
|-4------0--------4-|---------------2---4--------------|
|----2-2---2--2-2---|-2--2-2--2------------3-3---0-----|


  F5/C   Fm/Ab    F5/C             G#5/Eb
  E  E E E E  E E E   E  Q    +E   H
|-------------------|---------------------|
|-------------------|---------------------|
|-9------9--------9-|---11---(11)\--------|
|---11-------11-----|---------------------|
|-------------------|---------------------|
|-------------------|---------------------|
|
|    PM|   PM---|     PM-----|        PM|
| E  E E E E  E E E   E  E E   E   Q  E E
|-------------------|---------------------|
|-------------------|---------------------|
|-------------------|--------------2------|
|-4------4--------4-|--------------2------|
|-4------0--------4-|---------------------|
|----2-2---2--2-2---|-2--2-2---2------2-0-|


  F5/C   Fm/Ab    F5/C           G#5/Eb
  E  E E E E  E E E   +E   Q   E H
|-------------------|--------------------|
|-------------------|--------------------|
|-9------9--------9-|-(9)----------------|
|---11-------11-----|-----10---9-7-------|
|-------------------|--------------------|
|-------------------|--------------------|
|
|      PM  PM---|      PM------|    PM|
| E  E E E E  E E E    E   E E E Q  E E
|-------------------|--------------------|
|-------------------|--------------------|
|-------------------|------------2-------|
|-4------4--------4-|------------2-------|
|-4------0--------4-|--------------------|
|----2-2---2--2-2---|--2---2-2-2----2-0--|


  F5/C  Fm/Ab   F5/C                         G#5        Bb5          EbF5F#F5
                                           Gtr III
  E E E E E E E E   +E  Q.     +H            E E E E Q  E E   E E Q  E E E E
|-----------------|------------------------|----------------|----------------||
|-----------------|------------------------|----------------|----------------||
|-----------------|------------------------|-2-2-2-2----4-4-|-4-4------------||
|---------------7-|-(7)--------------------|-2-2-2-2----4-4-|-4-4----2-4-5-4-||
|-7-9---9---9-----|-----9------(9)---------|-0-0-0-0----2-2-|-2-2----2-4-5-4-||
|-----------------|------------------------|----------------|--------0-2-3-2-||
|
|                                          Gtr I
|   PM|   PM--|      PM------------------|
| E E E E E E E E    E  E  E E  E  E S S E   E E E E Q  E E   E E Q  E E E E
|-----------------|------------------------|----------------|----------------||
|-----------------|------------------------|----------------|----------------||
|-----------------|------------------------|-2-2-2-2----4-4-|-4-4------------||
|-4-----4-------4-|------------------------|-2-2-2-2----4-4-|-4-4----2-4-5-4-||
|-4-----0-------4-|------------------------|-0-0-0-0----2-2-|-2-2----2-4-5-4-||
|---2-2---2-2-2---|--2--2--2-2--0--2-3-3-0-|----------------|--------0-2-3-2-||


 Chorus II
     F5                    EbF5 F#5F5      G#5         Bb5  EbF5F#F5
  Gtr I
  Q   Q   +H        +H     E  E  E  E   Q  Q  +H       H    E E E E
|----------------|--------------------|--------------|---------------|
|----------------|--------------------|--------------|---------------|
|----------------|--------------------|----2--(2)----|-4-------------|
|-----4---(4)----|--(4)----2--4--5--4-|----2--(2)----|-4----2-4-5-4--|
|-----4---(4)----|--(4)----2--4--5--4-|----0--(0)----|-2----2-4-5-4--|
|-----2---(2)----|--(2)----0--2--3--2-|--------------|------0-2-3-2--|
|
| Gtr III
| Q   Q   +H        +H     E  E  E  E   Q  Q  +H       H    E E E E
|----------------|--------------------|--------------|---------------|
|----------------|--------------------|--------------|---------------|
|----11--(11)----|-(11)----9-11-12-11-|----2--(2)----|-4-------------|
|----11--(11)----|-(11)----9-11-12-11-|----2--(2)----|-4----2-4-5-4--|
|-----9---(9)----|--(9)----7--9-10--9-|----0--(0)----|-2----2-4-5-4--|
|----------------|--------------------|--------------|------0-2-3-2--|


     F5                    EbF5 F#5F5      Bb5         C#5  EbF5F#F5
  Q   Q   +H        +H     E  E  E  E   Q  Q  +H       H    E E E E
|----------------|--------------------|--------------|---------------|
|----------------|--------------------|--------------|---------------|
|----------------|--------------------|----4--(4)----|-7-------------|
|-----4---(4)----|--(4)----2--4--5--4-|----4--(4)----|-7----2-4-5-4--|
|-----4---(4)----|--(4)----2--4--5--4-|----2--(2)----|-5----2-4-5-4--|
|-----2---(2)----|--(2)----0--2--3--2-|--------------|------0-2-3-2--|
|
| Q   Q   +H        +H     E  E  E  E   Q  Q  +H       H    E E E E
|----------------|--------------------|--------------|---------------|
|----------------|--------------------|--------------|---------------|
|----11--(11)----|-(11)----9-11-12-11-|----4--(4)----|-7-------------|
|----11--(11)----|-(11)----9-11-12-11-|----4--(4)----|-7----2-4-5-4--|
|-----9---(9)----|--(9)----7--9-10--9-|----2--(2)----|-5----2-4-5-4--|
|----------------|--------------------|--------------|------0-2-3-2--|


     F5                    EbF5 F#5F5      G#5         Bb5  EbF5F#F5
  Q   Q   +H        +H     E  E  E  E   Q  Q  +H       H    E E E E
|----------------|--------------------|--------------|---------------|
|----------------|--------------------|--------------|---------------|
|----------------|--------------------|----2--(2)----|-4-------------|
|-----4---(4)----|--(4)----2--4--5--4-|----2--(2)----|-4----2-4-5-4--|
|-----4---(4)----|--(4)----2--4--5--4-|----0--(0)----|-2----2-4-5-4--|
|-----2---(2)----|--(2)----0--2--3--2-|--------------|------0-2-3-2--|
|
| Q   Q   +H        +H     E  E  E  E   Q  Q  +H       H    E E E E
|----------------|--------------------|--------------|---------------|
|----------------|--------------------|--------------|---------------|
|----11--(11)----|-(11)----9-11-12-11-|----2--(2)----|-4-------------|
|----11--(11)----|-(11)----9-11-12-11-|----2--(2)----|-4----2-4-5-4--|
|-----9---(9)----|--(9)----7--9-10--9-|----0--(0)----|-2----2-4-5-4--|
|----------------|--------------------|--------------|------0-2-3-2--|


     F5                    EbF5 F#5F5      C#5         Bb5
                                                       Gtr II
  Q   Q   +H        +H     E  E  E  E   Q  Q  +H       Q  Q  +H
|----------------|--------------------|--------------|------------------||
|----------------|--------------------|--------------|------------------||
|----------------|--------------------|----7--(7)----|------------------||
|-----4---(4)----|--(4)----2--4--5--4-|----7--(7)----|------------------||
|-----4---(4)----|--(4)----2--4--5--4-|----5--(5)----|----9--(9)--------||
|-----2---(2)----|--(2)----0--2--3--2-|--------------|------------------||
|
|                                                      Gtrs I, III
|                                                             PM-----|
| Q   Q   +H        +H     E  E  E  E   Q  Q  +H       H      E  E E E
|----------------|--------------------|--------------|------------------||
|----------------|--------------------|--------------|------------------||
|----11--(11)----|-(11)----9-11-12-11-|----7--(7)----|-4----------------||
|----11--(11)----|-(11)----9-11-12-11-|----7--(7)----|-4----------------||
|-----9---(9)----|--(9)----7--9-10--9-|----5--(5)----|-2----------------||
|----------------|--------------------|--------------|--------0--2-3-2--||


      G#5/EbBb5/F F#5/C#      F5/C
                      Gtr IV
                       <
   ~~~~~~~~~~~~~~~~~~~~~~~~~~~~~~~~~~~~~~~~
  +W                   W
|-------------------|--7------------------|
|-------------------|---------------------|
|-------------------|---------------------|
|-------------------|---------------------|
|-(9)---------------|-(9)-----------------|
|-------------------|---------------------|
|
|       PM|     PM----------|   PM------|
| +E  E E E E E E E    E  E E E E E S S E
|-------------------|---------------------|
|-------------------|---------------------|
|-----2-----4-------|---------------------|
|-----2-----4-----5-|---------4-----------|
|-----------------5-|---------4-----------|
|-(2)---2-2---2-2---|--0--2-2---2-2-2-2-2-|


      G#5/EbBb5/F   F#5/C#  F5/C
 ~~~~~~~~~~~~~~~~~~~~~~~~~~~
  +H         H          +W
|-(7)-------(3)-------|-(3)------------------|
|---------------------|----------------------|
|---------------------|----------------------|
|---------------------|----------------------|
|-(9)-------(9)-------|----------------------|
|---------------------|----------------------|
|
|       PM|       PM----|     PM----------|
|  E  E E E  E  E E E    E  E E E E E S S E
|---------------------|----------------------|
|---------------------|----------------------|
|-----2------4--------|----------------------|
|-----2------4------5-|-----4----------------|
|-------------------5-|-----4----------------|
|--2----2-2-----2-2---|--2----2-2-0-2-3-3-0--|


      G#5/EbBb5/F F#5/C#       F5/C
  Gtr II
    ~~~~~~~~~~~~~~~~~~~~~~~~~~~~~~~~~~~~~~~~
    W                  +W
|-------------------|----------------------|
|-------------------|----------------------|
|-/11---------------|-(11)-----------------|
|-------------------|----------------------|
|-------------------|----------------------|
|-------------------|----------------------|
|
|       PM|     PM-----------|   PM------|
|   E E E E E E E E     E  E E E E E S S E
|-------------------|----------------------|
|-------------------|----------------------|
|-----2-----4-------|----------------------|
|-----2-----4-----5-|----------4-----------|
|-----------------5-|----------4-----------|
|---2---2-2---2-2---|---0--2-2---2-2-2-2-2-|


       G#5/EbBb5/F F#5/C#   F5/C
 ~~~~~~~~~~~~~~~~~~~~~~~~~~~
   +W                   +H         +Q.    E
|--------------------|--------------------------||
|--------------------|--------------------------||
|-(11)---------------|-(11)-------(11)---16b18==||
|--------------------|--------------------------||
|--------------------|--------------------------||
|--------------------|--------------------------||
|
|        PM|     PM----|
|   E  E E E E E E E     E  E H.
|--------------------|--------------------------||
|--------------------|--------------------------||
|------2-----4-------|--------------------------||
|------2-----4-----5-|------4-------------------||
|------------------5-|------4-------------------||
|---2----2-2---2-2---|---2----------------------||


 Guitar Solo II
       G#5/Eb    Bb5/F     F#5/C#               F5/C
              Gtr IV    Gtr II
               ~~~~~~~                           ~~~~~~~
   +Q     +E   E  +Q     e  E        +Q     +E   E  +E   E  s  S      +E
|---------------------------------|---------------------------------------|
|--------------------------17b19==|=(17)r==(17)---------------16b17==(16)r|
|-(16)r==(16)-14-(14)-------------|-------------14-(14)----14-------------|
|-----------------------16--------|---------------------16----------------|
|---------------------------------|---------------------------------------|
|---------------------------------|---------------------------------------|
|
| Gtrs I, III
|          PM-|          PM----------------|         PM--------------|
|   E  E   E   E   E  E  E  E         E  E   E   E   E   E  S  S       E
|---------------------------------|---------------------------------------|
|---------------------------------|---------------------------------------|
|------2-----------4--------------|---------------------------------------|
|------2-----------4--------5-----|--------------4------------------------|
|---------------------------5-----|--------------4------------------------|
|---2------2---2------2--2--------|---0--2---2-------2---2--2--2-------2--|


          G#5/Eb                 Bb5/F                          F#5/C#
                                                       |--3---|
   +S   S  S  S  S     +S   S  S  S  E       +S       +S   S  S  e
|-------------------------------------------------------------------|
|-(16)p14-------16b17r(16)p14-------16b17r==(16)b17==(16)r16p14-----|
|---------16p14---------------16p14-----------------------------16--|
|-------------------------------------------------------------------|
|-------------------------------------------------------------------|
|-------------------------------------------------------------------|
|
|                PM--------|                           PM-------|
|   E      E     E          E     E       E            E         E
|-------------------------------------------------------------------|
|-------------------------------------------------------------------|
|----------2----------------------4---------------------------------|
|----------2----------------------4------------------------------5--|
|----------------------------------------------------------------5--|
|---2------------2----------2-------------2------------2------------|


     F5/C
   S  S  S  S  S  S  S  S  S  S  S  S  S  S  e
|----------------------------------------------|
|----------------------------------------------|
|-16h17p16p14-16p14-------16h17p16p14-16p14----|
|-------------------16p14-------------------16-|
|----------------------------------------------|
|----------------------------------------------|
|
|  PM          PM---------------------------|
|  E     E     E     E     E     E     S  S  E
|----------------------------------------------|
|----------------------------------------------|
|----------------------------------------------|
|--------4-------------------------------------|
|--------4-------------------------------------|
|--2-----------2-----2-----0-----2-----3--3--0-|


           G#5/Eb      Bb5/F      F#5/C#          F5/C
                     ~~~~~~~                               ~~~
   E        +E    E  E  +E   E  E  E    +E   E  E  E  +E   Q.
|------------------------------------|------------------------------|
|-14-------(14)-----14-(14)----14-14-|-(14)-------------------------|
|-14b14.5==(14)r----14-(14)----14-14-|-(14)-------------------------|
|----------------16---------16-------|------16----14-(14)h16--------|
|------------------------------------|---------16-------------------|
|------------------------------------|------------------------------|
|
|                 PM|           PM-------------|       PM---------|
|  E         E    E  E   E   E  E  E     E   E  E  E   E   E  S S E
|------------------------------------|------------------------------|
|------------------------------------|------------------------------|
|------------2-----------4-----------|------------------------------|
|------------2-----------4---------5-|-------------4----------------|
|----------------------------------5-|-------------4----------------|
|--2--------------2--2-------2--2----|---0---2--2------2---2--2-2-2-|


        G#5/Eb            Bb5/F             F#5/C#
   S  S  S  S  S  S  S  S  S  S  S  S  S  S  S  S
|-------------------------------------------------|
|----------14-16-17-16-14----------------14-------|
|-14-16-17----------------17-16-18-17-16----17-16-|
|-------------------------------------------------|
|-------------------------------------------------|
|-------------------------------------------------|
|
|              PM---|                  PM----------
|  E     E     E     E     E     E     E     E
|-------------------------------------------------|
|-------------------------------------------------|
|--------2-----------------4----------------------|
|--------2-----------------4-----------------5----|
|--------------------------------------------5----|
|--2-----------2-----2-----------2-----2----------|


        F5/C
   S  S  S  S  S  S  S  S  S  S  S  S  S  S  S  S
|-------------------------------------------------||
|----------14-16-17-16-14----16-14-------14-------||
|-14-16-17----------------17-------17-16----17-16-||
|-------------------------------------------------||
|-------------------------------------------------||
|-------------------------------------------------||
|
|-|            PM---------------------------|
|  E     E     E     E     E     E     S  S  E
|-------------------------------------------------||
|-------------------------------------------------||
|-------------------------------------------------||
|--------4----------------------------------------||
|--------4----------------------------------------||
|--2-----------2-----2-----0-----2-----3--3--0----||


     B5/F#   C#5/Ab            G#5/Eb                    G#5/Eb
          Gtr IV  Gtr II
   ~~      ~~~~~~~                                           ~~
                                                 |--3--|
   Q    E  E  +E   E  E  a      +E     +E   +E   S  S  S  E  Q    E      +E
|-----------------------------------|-----------------------------------------|
|-----------------------------------|-----------------------------------------|
|-14------14-(14)----14-17b19==(17)-|-(17)r(17)-14h17p14----14---19b21==(19)r-|
|------17---------17----------------|--------------------17-------------------|
|-----------------------------------|-----------------------------------------|
|-----------------------------------|-----------------------------------------|
|
|       PM|        PM|                  PM------|            PM----------------
|  E E  E  E   E   E  E          E      E    E   E        E  E E  E       E
|-----------------------------------|-----------------------------------------|
|-----------------------------------|-----------------------------------------|
|----5---------7--------------------|-----------------------------------------|
|----5---------7-----------------7--|---------------------7-------------------|
|--------------------------------7--|---------------------7-------------------|
|--5----5--5-------5--5-------------|---5----5---5-----------5-5--5-------5---|


        B5/F#                        C#5/Ab            F#5/C#
   S  S  S  S  a      +S   +S   S  S  S  S  S  S  S  S  S  S
|----17------------------------------------------------------|
|-17----20p17------------------------------------------------|
|-------------19b21==(19)r(19)p17----17s14----14s12----12s11-|
|---------------------------------19-------17-------14-------|
|------------------------------------------------------------|
|------------------------------------------------------------|
|
|-|                    PM------|            PM---|
|  E     E             E        E     E     E     E     E
|------------------------------------------------------------|
|------------------------------------------------------------|
|--------5----------------------------7----------------------|
|--------5----------------------------7-----------------5----|
|-------------------------------------------------------5----|
|--5-------------------5--------5-----------5-----5----------|


     G#5/Eb
   S  S S  S S S S S S S S S S S S S
|------------------------------------||
|------------------------------------||
|----11s9----9s7---7s5---5s4---4s2---||
|-12------10-----9-----7-----5-----4-||
|------------------------------------||
|------------------------------------||
|
|  PM        PM------------------|
|  E    E    E   E   E   E   E   E
|------------------------------------||
|------------------------------------||
|------------------------------------||
|-------7----------------------------||
|-------7----------------------------||
|--5---------5---5---5---5---5---5---||


    G#5/EbBb5/F F#5/C#      F5/C
                Gtr IV  Gtr II
  ~     ~       ~~~~~~~~
  Q   E Q   E E E   +E  E E E +E  S  S  E    E
|-----------------|----------------------------|
|-----------------|--------------------14---14-|
|-2-----2-----2-2-|-(2)----------------14---14-|
|-----4-----4-----|-----4---2-(2)h4s16---------|
|-----------------|-------4--------------------|
|-----------------|----------------------------|
|
|     PM|     PM----------|    PM-----------|
| E E E E E E E E    E  E E E  E  E     S S  E
|-----------------|----------------------------|
|-----------------|----------------------------|
|---2-----4-------|----------------------------|
|---2-----4-----5-|---------4------------------|
|---------------5-|---------4------------------|
|-2---2-2---2-2---|--0--2-2----2--2-----2-2--2-|


             G#5/Eb      Bb5/F      F#5/C#    F5/C
                                                 Gtr IV
                                                        ~~~~~~~~~~~~~~
   +S         +S    E  E  Q    E  E  E    +E   E  Q    +Q.        +E
|--------------------------------------|------------------------------|
|-(14)b14.5==(14)r----14-14------------|---------14---(14)-------(14)-|
|-(14)b14.5==(14)r----14-14---16-------|------------------------------|
|------------------16---------16----14-|-(14)h16----------------------|
|--------------------------------14----|------------------------------|
|--------------------------------------|------------------------------|
|
|                      PM|        PM-----|        PM-------------|
|   E               E  E  E E  E  E  E     E   E  E E   E  E S S   E
|--------------------------------------|------------------------------|
|--------------------------------------|------------------------------|
|-------------------2-------4----------|------------------------------|
|-------------------2-------4--------5-|-------4----------------------|
|------------------------------------5-|-------4----------------------|
|---2------------------2--2----2--2----|---2------2-2---0--2-3-3---0--|


  G#5                             Bb5
  Gtr II
  S  S  S  S S  S  S S  S  S S  S  S S  S S
|-9h11h12p11-9h12p11p9-----------------------|
|----------------------12p10p9h12p10p9-------|
|--------------------------------------11p9p=|
|--------------------------------------------|
|--------------------------------------------|
|--------------------------------------------|
|
| E     E    E     E    Q          E    E
|--------------------------------------------|
|--------------------------------------------|
|-2-----2----2-----2---------------4----4----|
|-2-----2----2-----2---------------4----4----|
|-0-----0----0-----0---------------2----2----|
|--------------------------------------------|


  Bb5                Eb5 F5     F#5  F5
                     |----5-----|
  S  S S S  S S S  S S S  S   S S  S E.
|-----------------------------------------|
|-----------------------------------------|
|-8h11p9p8--------------------------------|
|----------11p9p7h11p9p7------------------|
|------------------------11p==9p7h11p9----|
|-----------------------------------------|
|
| Gtr V
| W
|-----------------------------------------|
|-----------------------------------------|
|-----------------------------------------|
|-----------------------------------------|
|-----------------------------------------|
|-----------------------------------------|
|
| Gtrs I, III
| E    E    Q        E      E      E    E
|-----------------------------------------|
|-----------------------------------------|
|-4----4----------------------------------|
|-4----4-------------2------4------5----4-|
|-2----2-------------2------4------5----4-|
|--------------------0------2------3----2-|


       F5                            Eb5     FF#5  F5
                                      ~~~~~~~
  +Q    a  Q   +E   Q.      a   Q.    E  +H
|------------------------|-----------------------------|
|------------------------|-----------------------------|
|------------------------|-----------------------------|
|------------------------|-----------------------------|
|-(9)---7s=9---(9)--7----|-----------------------------|
|------------------------|--9s==7-----5--(5)-----------|
|
|                                    Gtr IV
|                                     ~~~~~~~
|  Q    a  Q   +E   Q.      a   Q.    E  +H
|------12s14--(14)-12----|-----------------------------|
|------------------------|-14s=12----10-(10)-----------|
|------------------------|-----------------------------|
|------------------------|-----------------------------|
|------------------------|-----------------------------|
|------------------------|-----------------------------|
|
|  Q       Q   +H              +H         E   E  E  E
|------------------------|-----------------------------|
|------------------------|-----------------------------|
|---------11--(11)-------|----(11)--------9--11-12-11--|
|---------11--(11)-------|----(11)--------9--11-12-11--|
|----------9---(9)-------|-----(9)--------7---9-10--9--|
|------------------------|-----------------------------|


       Bb5            C#5    EbF5   F#5 F5
  Gtr II
               ~~
  Q  a Q.      Q.     Q.   Q   S  S S S S S
|-------------------|-----------------------|
|-------------------|-----------------------|
|-------------------|-----------------------|
|-------------------|------9---9h10p9p7-----|
|--------------7----|-6-----------------9p7-|
|-5--7s9------------|-----------------------|
|
| Gtr V
| W                   W
|-------------------|-----------------------|
|-------------------|-----------------------|
|-------------------|-----------------------|
|-------------------|-----------------------|
|-------------------|-----------------------|
|-------------------|-----------------------|
|
| Q    Q   +H         H      E E    E   E
|-------------------|-----------------------|
|-------------------|-----------------------|
|------2---(2)------|-4---------------------|
|------2---(2)------|-4------2-4----5---4---|
|------0---(0)------|-2------2-4----5---4---|
|-------------------|--------0-2----3---2---|


        F5                            Eb5  F5 F#5F5
                                    ~~~~~~~
  Q   a  Q   +E   Q.      a   Q.    E  +H
|----------------------|----------------------------|
|----------------------|----------------------------|
|----------------------|----------------------------|
|----------------------|----------------------------|
|-9---7s=9---(9)--7----|----------------------------|
|----------------------|--9s==7-----5--(5)----------|
|
|                                   ~~~~~~~
| Q   a  Q   +E   Q.      a   Q.    E  +H
|----12s14--(14)-12----|----------------------------|
|----------------------|-14s=12----10-(10)----------|
|----------------------|----------------------------|
|----------------------|----------------------------|
|----------------------|----------------------------|
|----------------------|----------------------------|
|
| Q      Q   +H              +H         E   E  E  E
|----------------------|----------------------------|
|----------------------|----------------------------|
|-------11--(11)-------|----(11)--------9--11-12-11-|
|-------11--(11)-------|----(11)--------9--11-12-11-|
|--------9---(9)-------|-----(9)--------7---9-10--9-|
|----------------------|----------------------------|


          G#5                         Bb5             Eb5 F5  F#5 F5
  S S S S S S S S  S  S S S S S S S   S S S S S S S S S S S S S S S  S
|-----------------------------------|----------------------------------|
|-----------------------------------|-----------------------------7h10-|
|-----------------------------------|-----------------------6h7h9------|
|-----------------------------------|-6h7h9p7p6-------6h7h9------------|
|---------4h5h7p5p=4--------4h5h7s9-|-----------9p7h9------------------|
|-2-4-5s7-------------7p5h7---------|----------------------------------|
|
| Gtrs I, III
| Q       Q       +H                  H               E   E   E   E
|-----------------------------------|----------------------------------|
|-----------------------------------|----------------------------------|
|---------4-------(4)---------------|-7--------------------------------|
|---------4-------(4)---------------|-7---------------2---4---5---4----|
|---------2-------(2)---------------|-5---------------2---4---5---4----|
|-----------------------------------|-----------------0---2---3---2----|


      F5                            Eb5  F5    F#5   F5
                                           \1/   \1/   \1/
                ~~~
   Q   Q   +E   Q.      a   Q.    E  +E   +E    +E    +E
|--------------------|-------------------------------------|
|--------------------|-------------------------------------|
|-11--11--(11)--9----|-11s=13----11-(11)-(11)--(11)--(11)--|
|--------------------|-------------------------------------|
|--------------------|-------------------------------------|
|--------------------|-------------------------------------|
|
| Gtr V
|               ~~~
|  Q   Q   +E   Q.          Q.    E  +H
|-----14--(14)-12----|-----16----14-(14)-------------------|
|--------------------|-------------------------------------|
|--------------------|-------------------------------------|
|--------------------|-------------------------------------|
|--------------------|-------------------------------------|
|--------------------|-------------------------------------|
|
| Gtrs I, III
|  Q   Q   +H              +H         E    E     E     E
|--------------------|-------------------------------------|
|--------------------|-------------------------------------|
|-----11--(11)-------|----(11)--------9---11----12----11---|
|-----11--(11)-------|----(11)--------9---11----12----11---|
|------9---(9)-------|-----(9)--------7----9----10-----9---|
|--------------------|-------------------------------------|


     G#5                                 Bb5                Eb5  F5   F#5 F5
  Gtr II
  Q  S  S  S  S  S   S  S S  S  S S  S    S S  S S S  S S S  S S S  S S S S  S
|----9h10h12p10p=9h=12p10p9h12p10p9h12-|---------------------------------------|
|--------------------------------------|-10p9----------------------------------|
|--------------------------------------|------11p9p7-11p9p7--------------------|
|--------------------------------------|--------------------11p9p7-------------|
|--------------------------------------|---------------------------11p9p7h9h11-|
|--------------------------------------|---------------------------------------|
|
| Gtrs I, III
| Q  Q          +H                        H                  E   E    E   E
|--------------------------------------|---------------------------------------|
|--------------------------------------|---------------------------------------|
|----2----------(2)--------------------|--4------------------------------------|
|----2----------(2)--------------------|--4------------------2---4----5---4----|
|----0----------(0)--------------------|--2------------------2---4----5---4----|
|--------------------------------------|---------------------0---2----3---2----|


        F5                            Eb5  F5 F#5F5
                                    ~~~~~~~
  Q   a  Q   +E   Q.      a   Q.    E  +H
|----------------------|----------------------------|
|----------------------|----------------------------|
|----------------------|----------------------------|
|----------------------|----------------------------|
|-9---7s=9---(9)--7----|----------------------------|
|----------------------|--9s==7-----5--(5)----------|
|
| Gtr V                            Gtr IV           G
|                                   ~~~~~~~
| Q   a  Q   +E   Q.      a   Q.    E  +H
|----12s14--(14)-12----|----------------------------|
|----------------------|-14s=12----10-(10)----------|
|----------------------|----------------------------|
|----------------------|----------------------------|
|----------------------|----------------------------|
|----------------------|----------------------------|
|
| Gtrs I, III
| Q      Q   +H              +H         E   E  E  E
|----------------------|----------------------------|
|----------------------|----------------------------|
|-------11--(11)-------|----(11)--------9--11-12-11-|
|-------11--(11)-------|----(11)--------9--11-12-11-|
|--------9---(9)-------|-----(9)--------7---9-10--9-|
|----------------------|----------------------------|


         C#5                     Bb5              Eb5F5 F#5F5
                                                            ~~
    E  E   E  E   E   E   E  E     E  E   E  E  a  E  E  E  E
|------------------------------|------------------------17----|
|------2------5-------7-----10-|-----12-----14-------17----19-|
|--/4-----/6-----/9-----/11----|-/14----/16----16s18----------|
|------------------------------|------------------------------|
|------------------------------|------------------------------|
|------------------------------|------------------------------|
|
|tr V
|                                                           ~~
|   E  E   E  E   E   E   E  E     E  E   E  E  a  E  E  E  E
|------------------------------|------------------------17----|
|-----14-----17------19-----22-|-----24-----26-------17----19-|
|-/16----/18----/21-----/23----|-/26----/28----16s18----------|
|------------------------------|------------------------------|
|------------------------------|------------------------------|
|------------------------------|------------------------------|
|
|   Q      Q     +H                H               E  E  E  E
|------------------------------|------------------------------|
|------------------------------|------------------------------|
|----------7-----(7)-----------|---4--------------------------|
|----------7-----(7)-----------|---4---------------2--4--5--4-|
|----------5-----(5)-----------|---2---------------2--4--5--4-|
|------------------------------|-------------------0--2--3--2-|


       G#5/EbBb5/F F#5/C#       F5/C
  Gtr II
    ~~~~~~~~~~~~~~~~~~~~~~~~~~~~~~~~~~~~~~~~~
   +W                   +W
|--------------------|----------------------|
|-(19)---------------|-(19)-----------------|
|--------------------|----------------------|
|--------------------|----------------------|
|--------------------|----------------------|
|--------------------|----------------------|
|
| Gtrs I, III
|        PM|     PM-----------|   PM------|
|   E  E E E E E E E     E  E E E E E S S E
|--------------------|----------------------|
|--------------------|----------------------|
|------2-----4-------|----------------------|
|------2-----4-----5-|----------4-----------|
|------------------5-|----------4-----------|
|---2----2-2---2-2---|---0--2-2---2-2-2-2-2-|


       G#5/EbBb5/F F#5/C#   F5/C
 ~~~~~~~~~~~~~~~~~~~~~~~~~~~
   +W                   +Q    Q    E   E   E     E
|--------------------|------------<5>----------------|
|-(19)---------------|-(19)-----------<5>-------<7>--|
|--------------------|--------------------<5>--------|
|--------------------|-------------------------------|
|--------------------|-------------------------------|
|--------------------|-------------------------------|
|
|        PM|     PM----|      PM----------------|
|   E  E E E E E E E     E  E E E  E   E   S  S  E
|--------------------|-------------------------------|
|--------------------|-------------------------------|
|------2-----4-------|-------------------------------|
|------2-----4-----5-|------4------------------------|
|------------------5-|------4------------------------|
|---2----2-2---2-2---|---2----2-2--0---2---3--3--0---|


        G#5/EbBb5/F F#5/C#        F5/C
   +W                    +W
|---------------------|-----------------------|
|-(<7>)---------------|-(<7>)-----------------|
|---------------------|-----------------------|
|---------------------|-----------------------|
|---------------------|-----------------------|
|---------------------|-----------------------|
|
|         PM|     PM------------|   PM------|
|   E   E E E E E E E     E   E E E E E S S E
|---------------------|-----------------------|
|---------------------|-----------------------|
|-------2-----4-------|-----------------------|
|-------2-----4-----5-|-----------4-----------|
|-------------------5-|-----------4-----------|
|---2-----2-2---2-2---|---0---2-2---2-2-2-2-2-|


        G#5/EbBb5/F F#5/C#    F5/C
   +W                    +E   E H.
|---------------------|------------------||
|-(<7>)---------------|-(<7>)------------||
|---------------------|------------------||
|---------------------|------------------||
|---------------------|------------------||
|---------------------|------------------||
|
|         PM|     PM----|
|   E   E E E E E E E     E   E H     Q
|---------------------|------------------||
|---------------------|------------------||
|-------2-----4-------|------------------||
|-------2-----4-----5-|-------4----------||
|-------------------5-|-------4----------||
|---2-----2-2---2-2---|---2--------------||


 Verse 4
    G#5/EbBb5/F F#5/C#    F5/C            G#5/EbBb5/F F#5/C#F5/C
                                                                  PM|
  W                 W                   W                 H       E E E   E
|-----------------|-------------------|-----------------|--------------------|
|-----------------|-------------------|-----------------|--------------------|
|-----------------|-------------------|-----------------|-------------2------|
|-----------------|-------------------|-----------------|-----------------4--|
|-----------------|-------------------|-----------------|---------2-4--------|
|-----------------|-------------------|-----------------|--------------------|
|
|     PM|     PM--------|   PM------|       PM|     PM----|   PM----------|
| E E E E E E E E   E E E E E E S S E   E E E E E E E E   E E E E E E S S E
|-----------------|-------------------|-----------------|--------------------|
|-----------------|-------------------|-----------------|--------------------|
|---2-----4-------|-------------------|---2-----4-------|--------------------|
|---2-----4-----5-|-------4-----------|---2-----4-----5-|---4----------------|
|---------------5-|-------4-----------|---------------5-|---4----------------|
|-2---2-2---2-2---|-0-2-2---2-2-2-2-2-|-2---2-2---2-2---|-2---2-2-0-2-3-3-0--|


      G#5/Eb Bb5/F  F#5/C#     F5/C
        Gtr IV
        ~~~~~~~~~~~~~~~~~~~~~~~~~~~~~
  +Q    Q.     Q.       Q.     E +H
|-------2-------------|----------------------|
|--------------5------|-2------5-(5)---------|
|---------------------|----------------------|
|-(4)-----------------|----------------------|
|---------------------|----------------------|
|---------------------|----------------------|
|
|       PM-|      PM---------|    PM-------|
|  E  E E  E E E  E E   E  E E E  E  E S S E
|---------------------|----------------------|
|---------------------|----------------------|
|-----2------4--------|----------------------|
|-----2------4------5-|--------4-------------|
|-------------------5-|--------4-------------|
|--2----2--2---2--2---|-0--2-2----2--2-2-2-2-|


    G#5/EbBb5/F F#5/C#F5/C
                    Gtr II
  W                 E  S      +S    E  E  E  E  S  S  S  S
|-----------------|------------------------------------------|
|-----------------|------------------------------------------|
|-----------------|---16b18==(16)r-14------------------------|
|-----------------|-------------------16-14------------------|
|-----------------|-------------------------16-15p14---------|
|-----------------|----------------------------------17p14---|
|
|     PM|     PM----|               PM---------------|
| E E E E E E E E   E  E            E  E  E  E  S  S  E
|-----------------|------------------------------------------|
|-----------------|------------------------------------------|
|---2-----4-------|------------------------------------------|
|---2-----4-----5-|----4-------------------------------------|
|---------------5-|----4-------------------------------------|
|-2---2-2---2-2---|-2---------------2--2--0--2--3--3--0------|


  F5/C   Fm/Ab    F5/C              Eb5/Bb
  E  E E E E  E E E   E  E E  Q        +Q       +E
|-------------------|--------------------------------|
|-------------------|--------------------------------|
|-9------9--------9-|---11---------------------------|
|---11-------11-----|--------10b11====(10)-----(10)r-|
|-------------------|--------------------------------|
|-------------------|--------------------------------|
|
|      PM  PM---|     PM-----|             PM--|
| E  E E E E  E E E   E  E E  E     E   E  S S   E
|-------------------|--------------------------------|
|-------------------|--------------------------------|
|-------------------|--------------------------------|
|-4------4--------4-|---------------2---4------------|
|-4------0--------4-|---------------2---4------------|
|----2-2---2--2-2---|-2--2-2--2------------3-3---0---|


  F5/C   Fm/Ab    F5/C          G#5/Eb
  E  E E E E  E E E   E  H.          E
|-------------------|------------------|
|-------------------|------------------|
|-9------9--------9-|---11-------------|
|---11-------11-----|------------------|
|-------------------|------------------|
|-------------------|------------------|
|
|    PM|   PM---|     PM------|    PM|
| E  E E E E  E E E   E  E  E E Q  E E
|-------------------|------------------|
|-------------------|------------------|
|-------------------|-----------2------|
|-4------4--------4-|-----------2------|
|-4------0--------4-|------------------|
|----2-2---2--2-2---|-2--2--2-2----2-0-|


  F5/C   Fm/Ab    F5/C           G#5/Eb
  E  E E E E  E E E   +E   Q   E H
|-------------------|-------------------|
|-------------------|-------------------|
|-9------9--------9-|-(9)---------------|
|---11-------11-----|-----10---9-7------|
|-------------------|-------------------|
|-------------------|-------------------|
|
|      PM  PM---|      PM------|    PM|
| E  E E E E  E E E    E   E E E Q  E E
|-------------------|-------------------|
|-------------------|-------------------|
|-------------------|------------2------|
|-4------4--------4-|------------2------|
|-4------0--------4-|-------------------|
|----2-2---2--2-2---|--2---2-2-2----2-0-|


  F5/C  Fm/Ab   F5/C
  E E E E E E E E   +E  Q.     +H
|-----------------|------------------------|
|-----------------|------------------------|
|-----------------|------------------------|
|---------------7-|-(7)--------------------|
|-7-9---9---9-----|-----9------(9)---------|
|-----------------|------------------------|
|
|   PM|   PM--|      PM------------------|
| E E E E E E E E    E  E  E E  E  E S S E
|-----------------|------------------------|
|-----------------|------------------------|
|-----------------|------------------------|
|-4-----4-------4-|------------------------|
|-4-----0-------4-|------------------------|
|---2-2---2-2-2---|--2--2--2-2--0--2-3-3-0-|


                                    Chorus III
  G#5        Bb5          EbF5F#F5      F5                 EbF5F#F5
  Gtrs I, III
  E E E E Q  E E   E E Q  E E E E    Q  Q  +H       +H     E E E E
|----------------|----------------||--------------|-----------------|
|----------------|----------------||--------------|-----------------|
|-2-2-2-2----4-4-|-4-4------------||--------------|-----------------|
|-2-2-2-2----4-4-|-4-4----2-4-5-4-||----4--(4)----|-(4)----2-4-5-4--|
|-0-0-0-0----2-2-|-2-2----2-4-5-4-||----4--(4)----|-(4)----2-4-5-4--|
|----------------|--------0-2-3-2-||----2--(2)----|-(2)----0-2-3-2--|


     G#5         Bb5  EbF5F#F5      F5                 EbF5F#F5
  Q  Q  +H       H    E E E E   E E Q  +H       +H     E E E E
|--------------|--------------|---------------|-----------------|
|--------------|--------------|---------------|-----------------|
|----2--(2)----|-4------------|---------------|-----------------|
|----2--(2)----|-4----2-4-5-4-|-----4--(4)----|-(4)----2-4-5-4--|
|----0--(0)----|-2----2-4-5-4-|-----4--(4)----|-(4)----2-4-5-4--|
|--------------|------0-2-3-2-|---0-2--(2)----|-(2)----0-2-3-2--|


     Bb5         C#5  EbF5F#F5     F5                 EbF5F#F5
  Q  Q  +H       H    E E E E   Q  Q  +H       +H     E E E E
|--------------|--------------|--------------|-----------------|
|--------------|--------------|--------------|-----------------|
|----4--(4)----|-7------------|--------------|-----------------|
|----4--(4)----|-7----2-4-5-4-|----4--(4)----|-(4)----2-4-5-4--|
|----2--(2)----|-5----2-4-5-4-|----4--(4)----|-(4)----2-4-5-4--|
|--------------|------0-2-3-2-|----2--(2)----|-(2)----0-2-3-2--|


     G#5         Bb5  EbF5F#F5      F5                 EbF5F#F5
  Q  Q  +H       H    E E E E   E E Q  +H       +H     E E E E
|--------------|--------------|---------------|-----------------|
|--------------|--------------|---------------|-----------------|
|----2--(2)----|-4------------|---------------|-----------------|
|----2--(2)----|-4----2-4-5-4-|-----4--(4)----|-(4)----2-4-5-4--|
|----0--(0)----|-2----2-4-5-4-|-----4--(4)----|-(4)----2-4-5-4--|
|--------------|------0-2-3-2-|---0-2--(2)----|-(2)----0-2-3-2--|


     C#5         Bb5  EbF5F#F5    G#5/EbBb5/F F#5/C#    F5/C
                                    PM|     PM--------|   PM------|
  Q  Q  +H       H    E E E E   E E E E E E E E   E E E E E E S S E
|--------------|--------------|-----------------|-------------------|
|--------------|--------------|-----------------|-------------------|
|----7--(7)----|-4------------|---2-----4-------|-------------------|
|----7--(7)----|-4----2-4-5-4-|---2-----4-----5-|-------4-----------|
|----5--(5)----|-2----2-4-5-4-|---------------5-|-------4-----------|
|--------------|------0-2-3-2-|-2---2-2---2-2---|-0-2-2---2-2-2-2-2-|


  C#5        Bb5  EbF5F#F5    G#5/EbBb5/F F#5/C#    F5/C
                                PM|     PM--------|   PM------|
  W          H    E E E E   E E E E E E E E   E E E E E E S S E
|----------|--------------|-----------------|-------------------|
|----------|--------------|-----------------|-------------------|
|-7--------|-4------------|---2-----4-------|-------------------|
|-7--------|-4----2-4-5-4-|---2-----4-----5-|-------4-----------|
|-5--------|-2----2-4-5-4-|---------------5-|-------4-----------|
|----------|------0-2-3-2-|-2---2-2---2-2---|-0-2-2---2-2-2-2-2-|


  C#5        Bb5  EbF5F#F5    G#5/EbBb5/F F#5/C#    F5/C
                                PM|     PM--------|   PM------|
  W          H    E E E E   E E E E E E E E   E E E E E E S S E
|----------|--------------|-----------------|-------------------|
|----------|--------------|-----------------|-------------------|
|-7--------|-4------------|---2-----4-------|-------------------|
|-7--------|-4----2-4-5-4-|---2-----4-----5-|-------4-----------|
|-5--------|-2----2-4-5-4-|---------------5-|-------4-----------|
|----------|------0-2-3-2-|-2---2-2---2-2---|-0-2-2---2-2-2-2-2-|


  C#C#5      Bb5                F5
  Gtr II
  W          W               E   E   E   E   E   E   E   E
|----------|--------------|-----<5>---------<5>---------<5>-|
|----------|--------------|---------<5>---------<5>---------|
|----------|--------------|-------------<5>---------<5>-----|
|----------|--------------|---------------------------------|
|----------|--------------|---------------------------------|
|----------|--------------|---------------------------------|
|
| Gtrs I, III
|                                    PM----------------------
| W          H    E E E E   +E   E   E   E   E   E   E   E
|----------|--------------|---------------------------------|
|----------|--------------|---------------------------------|
|-7--------|-4------------|---------------------------------|
|-7--------|-4------------|---------------------------------|
|-5--------|-2------------|------4---4---4---4---4---4---4--|
|----------|------0-2-3-0-|-(0)--2---2---2---2---2---2---2--|


   E   E   E   E   E   E   E   E    W
|---------<5>---------<5>---------|------*|
|-<5>---------<5>---------<5>-----|------*|
|-----<5>---------<5>---------<5>-|------*|
|---------------------------------|------*|
|---------------------------------|------*|
|---------------------------------|------*|
|
|-----------------------------|
|  E   E   E   E   E   E   E   E    W
|---------------------------------|------*|
|---------------------------------|------*|
|---------------------------------|------*|
|---------------------------------|------*|
|--4---4---4---4---4---4---4---4--|------*|
|--2---2---2---2---2---2---2---2--|------*|



Duration Legend
---------------
W - whole; H - half; Q - quarter; E - 8th; S - 16th; T - 32nd; X - 64th; a - acciaccatura
+ - note tied to previous; . - note dotted; .. - note double dotted
Uncapitalized letters represent notes that are staccato (1/2 duration)
Irregular groupings are notated above the duration line
Duration letters will always appear directly above the note/fret number it represents the
duration for.  Duration letters with no fret number below them represent rests.  Multi-
bar rests are notated in the form Wxn, where n is the number of bars to rest for.  Low
melody durations appear below the staff

Tablature Legend
----------------
 h   - hammer-on
 p   - pull-off
 b   - bend
 pb  - pre-bend
 r   - bend release (if no number after the r, then release immediately)
 /\  - slide into or out of (from/to "nowhere")
 s   - legato slide
 S   - shift slide
 - natural harmonic
[n]  - artificial harmonic
n(n) - tapped harmonic
 ~   - vibrato
 tr  - trill
 T   - tap
 TP  - trem. picking
 PM  - palm muting
\n/  - tremolo bar dip; n = amount to dip
 \n  - tremolo bar down
 n/  - tremolo bar up
/n\  - tremolo bar inverted dip
 =   - hold bend; also acts as connecting device for hammers/pulls
 <> - volume swell (louder/softer)
 x   - on rhythm slash represents muted slash
 o   - on rhythm slash represents single note slash

Misc Legend
-----------
 |  - bar
||  - double bar
||o - repeat start
o|| - repeat end
*|  - double bar (ending)
 :  - bar (freetime)
 $  - Segno
 &  - Coda
Tempo markers -  = BPM(8/16=s8/s16), where s8 = swing 8ths, s16 = swing 16ths

comments
We did not receive enough feedback on this tab! Please rate:
print report bad tab
1 2 3 4 5
I want to post or [tab]
guest
You may want to rate the tab now too:
select rating
Please do not post tabs as comments. Select "correction" instead!