Oops, an error
Loading. Please wait.

Eyes Of Wrath Tab

ver2
ver2

Whole song

Interactive

More versions @911Tabs.com
1,208 views 12 this week
no commentswrite comment
1 2 3 4 5
please rate
add to favorites launch autoscroll
font size
0
reset
Autoscroll
+/-
esc
set tempo
stop
Contributor
Difficulty
Tuning
advanced
B E A D F# B
WARNING: You are trying to view
                                    content from Ultimate-Guitar.com
                                    in an unauthorized application,
                                    which is prohibited.

                                    Please use an official Ultimate
                                    Guitar Tabs application for iPhone,
                                    iPad or Android to access legitimate
                                    chords, guitar, bass, and drum tabs
                                    from Ultimate-Guitar.com database.

                                    Type "ultimate guitar tabs" in Apple
                                    App Store's or Android Market's
                                    search to find the application.
-------------------------------------------------------------------------------
                            Eyes of Wrath - Testament
-------------------------------------------------------------------------------
Tabbed by:QAAS
Email:hangar666@hotmail.it

Tuning:  7 standard
  
  Intro - clean with effects
e|---------------------------------------------------------------|
B|---------------------------------------------------------------|
G|--7-7-6-6---7-7-6-6----7-6-6---7-7-6-6-------------------------|
D|---4-4-4-----4-4-4--------4-----4-4-4----6-6-6-6-6-6-6-6-6-6---|
A|------------------------------------------4-4-4-4-4-4-4-4-4-4--|
E|---------------------------------------------------------------|
B|---------------------------------------------------------------|
 |
e|--------------------------------------------------------|-------|
b|--------------------------------------------------------|-------|
G|--7-6-6---7-7-6-6---7-7-6-6---7-6-6---7-6-6-------------|-------|
D|-----4-----4-4-4-----4-4-4-------4-------4----6-6-6-6---|4-6-7-6|
A|-----------------------------------------------4-4-4-4--|2-4-5-4|
E|--------------------------------------------------------|-------|
B|--------------------------------------------------------|-------|
                                                          end intro -
                                                        with distorcion            
                                                           
  
  pre - verse
e|----------------------------------------------------------------------|
b|----------------------------------------------------------------------|
G|----------------------------------------------------------------------|x 2
D|----------------------------------------------------------------------|
A|--4/6-6-6-6-4/6-6-6-6-4/6-6-6-6-7x7x7-4/6-6-6-6-4/6-6-6-6-11-10-7-10-7|
E|--2/4-4-4-4-2/4-4-4-4-2/4-4-4-4-5x5x5-2/4-4-4-4-2/4-4-4-4-9--8--5-8--5|
B|----------------------------------------------------------------------|
p.m..   . .   .   . .   .   . .         .   . .   .   . .  
  
  verse
e|---------------------------------------------------------|
b|---------------------------------------------------------|
G|---------------------------------------------------------|x 2
D|---------------------------------------------------------|
A|------4-------4-------4-------------4-------4------------|
E|--4-4-4-4-4-4-4-4-4-4-4-9-8-5\4-4-4-4-4-4-4-4-9-8-5-8-5--|
B|--2-2-2-2-2-2-2-2-2-2-2-7-6-3\2-2-2-2-2-2-2-2-7-6-3-6-3--|
p.m.. .   . . .   . . .           . .   . . .                
 |
e|-------------------------------------------|
b|-------------------------------------------|
G|-------------------------------------------|
D|-------------------------------------------|
A|-------------------------------------------|
E|--4-4-5-4-5-4x6/8x9\8x5\4-4-5-4x9-8-5-8-5--|
B|--2-2-3-2-3-2x4/6x7\6x3\2-2-3-2x7-6-3-6-3--|
 |
e|---------------------------------------------------------|
b|---------------------------------------------------------|
G|---------------------------------------------------------|
D|---------------------------------------------------------|
A|------4-------4-------4-------------4-------4------------|
E|--4-4-4-4-4-4-4-4-4-4-4-9-8-5\4-4-4-4-4-4-4-4-9-8-5-8----|
B|--2-2-2-2-2-2-2-2-2-2-2-7-6-3\2-2-2-2-2-2-2-2-7-6-3-6----|
p.m.. .   . . .   . . .           . .   . . .               

  
  Intro - guitar 1 - clean
e|--9--9--9-9---10-10-9--9--9-9---10-10-9--9--9-------------|
b|---7--7----7-7--7--7-7--7----7-7--7--7-7--7---------------|
G|----6--6-6--6---------6--6-6--6---------6--6-6-11-10-6-4--|
D|----------------------------------------------------------|
A|----------------------------------------------------------|
E|----------------------------------------------------------|
B|----------------------------------------------------------|
 |guitar 2 - clean                                                       
e|----------------------------------------------------------|
b|----------------------------------------------------------|
G|--------------7--7--6--6--------7--7--6--6----------------|
D|----------------4--4-4------------4--4-4------------------|
A|----------------------------------------------------------|
E|----------------------------------------------------------|
B|----------------------------------------------------------| 
 |guitar 1
e|--------------------------------------------|-------------|
b|--------------------------------------------|-------------|
G|---6--6--6-6--6--6-6--6--6-6--6--6----------|-------------|
D|----6--6----6--6----6--6----6--6---6-6-6-6--|-4-6-7/11\---|
A|--4--4--4-4--4--4-4--4--4-4--4--4-4---------|-2-4-5/9-\---|
E|------------------------------------4-4-4-4-|-------------|
B|--------------------------------------------|-------------| 
 |guitar 2                              
e|--------------------------------------------|-------------|
b|--------------------------------------------|-------------|
G|---7-6-6-----------7-6-6--------------------|-------------|
D|------4---------------4------------6-6-6-6--|-4-6-7/11\---|
A|--------------------------------------------|-2-4-5/9-\---|
E|------------------------------------4-4-4-4-|-------------|
B|--------------------------------------------|-------------|
                                                 end intro - 
                                               with distorcion

  verse
e|---------------------------------------------------------|
b|---------------------------------------------------------|
G|---------------------------------------------------------|x 2
D|---------------------------------------------------------|
A|------4-------4-------4-------------4-------4------------|
E|--4-4-4-4-4-4-4-4-4-4-4-9-8-5\4-4-4-4-4-4-4-4-9-8-5-8-5--|
B|--2-2-2-2-2-2-2-2-2-2-2-7-6-3\2-2-2-2-2-2-2-2-7-6-3-6-3--|
p.m.. .   . . .   . . .           . .   . . .                
 |
e|-------------------------------------------|
b|-------------------------------------------|
G|-------------------------------------------|
D|-------------------------------------------|
A|-------------------------------------------|
E|--4-4-5-4-5-4x6/8x9\8x5\4-4-5-4x9-8-5-8-5--|
B|--2-2-3-2-3-2x4/6x7\6x3\2-2-3-2x7-6-3-6-3--|
 |
e|---------------------------------------------------------|
b|---------------------------------------------------------|
G|---------------------------------------------------------|
D|---------------------------------------------------------|
A|------4-------4-------4-------------4-------4------------|
E|--4-4-4-4-4-4-4-4-4-4-4-9-8-5\4-4-4-4-4-4-4-4-9-8-5-8----|
B|--2-2-2-2-2-2-2-2-2-2-2-7-6-3\2-2-2-2-2-2-2-2-7-6-3-6----|
p.m.. .   . . .   . . .           . .   . . .               
 |
 |play fast
e|-----------------------------------------------------|
b|-----------------------------------------------------|
G|-----------------------------------------------------|
D|-----------------------------------------------------|
A|-----------------------------------------------------|
E|-----------------------------------------------------|
B|--7-7-7\6p2-6-6-6\5p2-5-5-5\4p2-4-4-4\3p0-0-0-0-0-0--|
 |
e|---------------------------------|
b|---------------------------------|
G|---------------------------------|
D|---------------------------------|
A|------4-------4-------4----------|
E|--4-4-4-4-4-4-4-4-4-4-4-9-8-5\4--|
B|--2-2-2-2-2-2-2-2-2-2-2-7-6-3\2--|
p.m.. .   . . .   . . .
 |
 |play fast
e|-----------------------------------------------------|
b|-----------------------------------------------------|
G|-----------------------------------------------------|
D|-----------------------------------------------------|
A|-----------------------------------------------------|
E|-----------------------------------------------------|
B|--7-7-7\6p2-6-6-6\5p2-5-5-5\4p2-4-4-4\3p0-0-0-0-0-0--|
 |
e|---------------------------------------------------------|
b|---------------------------------------------------------|
G|---------------------------------------------------------|
D|---------------------------------------------------------|
A|------4-------4-------4-------------4-------4------------|
E|--4-4-4-4-4-4-4-4-4-4-4-9-8-5\4-4-4-4-4-4-4-4-9-8-5-8----|
B|--2-2-2-2-2-2-2-2-2-2-2-7-6-3\2-2-2-2-2-2-2-2-7-6-3-6----|
p.m.. .   . . .   . . .           . .   . . .

  bridge
e|----------------------------------------------------|  |
b|----------------------------------------------------|  |
G|----------------------------------------------------|  |
D|----------------------------------------------------|  |
A|----------------------------------------------------|  |
E|--4-4-4-4-4-4-4-4-4-4-4-4-4-4-4-4-4-2-2/5-9-8-5-4x--|  |
B|--2-2-2-2-2-2-2-2-2-2-2-2-2-2-2-2-2-2-2/3-7-6-3-2x--|  |
p.m.  . .   . .   . .   . .   . .   . .                  |
 |                                                       |x 2
e|-----------------------------------------|             |
b|-----------------------------------------|             |
G|-----------------------------------------|             |
D|-----------------------------------------|             |
A|-----------------------------------------|             |
E|--4-4-4-4-4-4-4-4-4-4-4-4-4/5-9-8-5-8-5--|             |
B|--2-2-2-2-2-2-2-2-2-2-2-2-2/3-7-6-3-6-3--|             |
p.m.  . .   . .   . .   . .                              |
 |
 |listen for timing
e|----------------------------------|
b|----------------------------------|
G|----------------------------------|
D|--4-6-7-6-4-6-7-6-4-6-7-6-10-7-6--|x 2
A|--2-4-5-4-2-4-5-4-2-4-5-4-8--5-4--|
E|----------------------------------|
B|----------------------------------|
 |
 |
e|----------------------------------------------------|  |
b|----------------------------------------------------|  |
G|----------------------------------------------------|  |
D|----------------------------------------------------|  |
A|----------------------------------------------------|  |
E|--4-4-4-4-4-4-4-4-4-4-4-4-4-4-4-4-4-2-2/5-9-8-5-4x--|  |
B|--2-2-2-2-2-2-2-2-2-2-2-2-2-2-2-2-2-2-2/3-7-6-3-2x--|  |
p.m.  . .   . .   . .   . .   . .   . .                  |
 |                                                       |x 2
e|-----------------------------------------|             |
b|-----------------------------------------|             |
G|-----------------------------------------|             |
D|-----------------------------------------|             |
A|-----------------------------------------|             |
E|--4-4-4-4-4-4-4-4-4-4-4-4-4/5-9-8-5-8-5--|             |
B|--2-2-2-2-2-2-2-2-2-2-2-2-2/3-7-6-3-6-3--|             |
p.m.  . .   . .   . .   . .                              |


Drum - Bass - Guitar with some effect
 - at the end play this note
e|-----------|
b|-----------|
G|-----------|
D|-----------|
A|-----------|
E|--9-8-5-8--|
B|--7-6-3-6--|

  
  Intro
e|--------------------------------------------------------|-------------|
b|--------------------------------------------------------|-------------|
G|--7-7-6-6-----7-7-6-6-----7-6-6-----7-6-6---------------|-------------|
D|---4-4-4-------4-4-4---------4---------4------6-6-6-6---|--4-6-7/11\--|
A|--------------------------------------------------------|--2-4-5/9-\--|
E|-----------------------------------------------4-4-4-4--|-------------|
B|--------------------------------------------------------|-------------|
 
                                                                         last time
                                                                          let ring
  pre verse                                                              this chord
e|----------------------------------------------------------------------|  |----|
b|----------------------------------------------------------------------|  |----|
G|----------------------------------------------------------------------|x2|----|
D|----------------------------------------------------------------------|  |----|
A|--4/6-6-6-6-4/6-6-6-6-4/6-6-6-6-7x7x7-4/6-6-6-6-4/6-6-6-6-11-10-7-10-7|  |-10-|
E|--2/4-4-4-4-2/4-4-4-4-2/4-4-4-4-5x5x5-2/4-4-4-4-2/4-4-4-4-9--8--5-8--5|  |-8--|
B|----------------------------------------------------------------------|  |----|
p.m..   . .   .   . .   .   . .         .   . .   .   . .  

  fill
e|-----------|
b|-----------|
G|-----------|
D|--11-10-7--|
A|--9--8--5--|
E|-----------|
B|-----------|

  pre solo and under solo rithm - guitar 1 - listen for timing
e|-----------------------------------------------------------------------------------|
b|-----------------------------------------------------------------------------------|
G|-----------------------------------------------------------------------------------|
D|-----------------------------------------------------------------------------------|
A|--------------------------------4-2-0-2---------------5-4-2-4-0--------------------|
E|--4-5-8-4-9-8-5-8-5-4-5-8-4-9-8---------4-4-5-8-4-9-8-----------4-5-8-4-9-8-5-8-5--|
B|--2-3-6-2-7-6-3-6-3-2-3-6-2-7-6-----------2-3-6-2-7-6-----------2-3-6-2-7-6-3-6-3--|
 |guitar 2
e|-----------------------------------------------------------------------------------|
b|-----------------------------------------------------------------------------------|
G|--------------------------------6-4---4---------------7-6-4-6----------------------|
D|--6-7-106-11107-107-6-7-106-1110----7---6-6-7-106-1110--------7-6-7-106-11107-8-7--|
A|--4-5-8-4-9-8-5-8-5-4-5-8-4-9-8-----------4-5-8-4-9-8-----------4-5-8-4-9-8-5-6-5--|
E|-----------------------------------------------------------------------------------|
B|-----------------------------------------------------------------------------------|

  solo - first part
e|-----------------------------------------------------|
b|-----------------------------------------------------|
G|--13v-------13h14p13----13h14p13----13h14p13----13v--|
D|--------------------h16---------h16---------h16------|
A|-----------------------------------------------------|
E|-----------------------------------------------------|
B|-----------------------------------------------------|

e|-----------------13-13h14p13----13/14p13------------------------------|
b|-----------14-15------------h15----------15-14-12----12h14p12p10-12v--|
G|--13-14-16----------------------------------------14v-----------------|
D|----------------------------------------------------------------------|
A|----------------------------------------------------------------------|
E|----------------------------------------------------------------------|
B|----------------------------------------------------------------------|









| /  slide up
| \  slide down
| h  hammer-on
| p  pull-off
| ~  vibrato
| +  harmonic
| x  Mute note
===============================================================================
comments
We did not receive enough feedback on this tab! Please rate:
print report bad tab
1 2 3 4 5
I want to post or [tab]
guest
You may want to rate the tab now too:
select rating
Please do not post tabs as comments. Select "correction" instead!