Oops, an error
Loading. Please wait.

Face In The Sky Tab

ver1
ver1

Whole song

Interactive

More versions @911Tabs.com
3,313 views 3 this week
no commentswrite comment
1 2 3 4 5
excellent!
x 5
Autoscroll
+/-
esc
set tempo
stop
Contributor
Hey! There's an official Ultimate Guitar app which is ideal
for learning songs when you're away from computer. Get the app
WARNING: You are trying to view
                                    content from Ultimate-Guitar.com
                                    in an unauthorized application,
                                    which is prohibited.

                                    Please use an official Ultimate
                                    Guitar Tabs application for iPhone,
                                    iPad or Android to access legitimate
                                    chords, guitar, bass, and drum tabs
                                    from Ultimate-Guitar.com database.

                                    Type "ultimate guitar tabs" in Apple
                                    App Store's or Android Market's
                                    search to find the application.
#----------------------------------PLEASE NOTE---------------------------------#
#This file is the author's own work and represents their interpretation of the #
#song. You may only use this file for private study, scholarship, or research. #
#------------------------------------------------------------------------------#

FACE IN THE SKY
As recorded by Testament
(From the 1990 Album SOULS OF BLACK)

Transcribed by Dave Whitehill
        

Words by Billy Music by Peterson, Skolnick

Gtr I (E A D G B E) - 'Rhythm guitar'
Gtr II (E A D G B E) - 'Rhythm guitar'
Gtr III (E A D G B E) - 'Solo guitar'
Gtr IV (E A D G B E) - 'Keyboard'

 Intro
  Very Fast Q=200
  N.C.(E5)E5F5 A5Bb5   (E5)    Bb5A5F5 E5
 4/4
  Gtr I
  PM----|              PM----|
  E S S E E  E E  Q    E S S E  E E  E Q
|--------------------|--------------------|
|--------------------|--------------------|
|--------------9-10--|---------10-9-------|
|---------9-10-------|--------------10-9--|
|--------------------|--------------------|
|-0-0-0-0------------|-0-0-0-0------------|
|
| Gtr II
| PM----|              PM----|
| E S S E E  E E  Q    E S S E  E E  E Q
|--------------------|--------------------|
|--------------------|--------------------|
|--------------------|--------------------|
|--------------7--8--|----------8-7-------|
|---------7--8-------|---------------8-7--|
|-0-0-0-0------------|-0-0-0-0------------|


            F5 A5Bb5      A5     G5F5 E5D5A5
  PM----|                                 ~
                          |-3--|
  E S S E E  E E  Q     E S  S S E  E E E Q
|--------------------|-----------------------|
|--------------------|-----------------------|
|--------------9-10--|-10-9h10p9-7--------9--|
|---------9-10-------|-------------10-9-7----|
|--------------------|-----------------------|
|-0-0-0-0------------|-----------------------|
|
| PM----|                                 ~
|                         |-3--|
| E S S E E  E E  Q     E S  S S E  E E E Q
|--------------------|-----------------------|
|--------------------|-----------------------|
|--------------------|-----------------------|
|--------------7--8--|--8-7--8-7-5--------7--|
|---------7--8-------|--------------8-7-5----|
|-0-0-0-0------------|-----------------------|


  (E5)    E5F5 A5Bb5   (E5)    Bb5A5F5 E5
 4/4
  PM----|              PM----|
  E S S E E  E E  Q    E S S E  E E  E Q
|--------------------|--------------------|
|--------------------|--------------------|
|--------------9-10--|---------10-9-------|
|---------9-10-------|--------------10-9--|
|--------------------|--------------------|
|-0-0-0-0------------|-0-0-0-0------------|
|
| PM----|              PM----|
| E S S E E  E E  Q    E S S E  E E  E Q
|--------------------|--------------------|
|--------------------|--------------------|
|--------------------|--------------------|
|--------------7--8--|----------8-7-------|
|---------7--8-------|---------------8-7--|
|-0-0-0-0------------|-0-0-0-0------------|


            F5 A5Bb5      N.C.
  PM----|                 PM---------|  ~
  E S S E E  E E  Q       E E  E E E  E Q
|-----------------------|-------------------||
|-----------------------|-------------------||
|--------------9-10-----|-------------------||
|---------9-10----------|-8-7-----------7---||
|-----------------------|-----10-8-7--------||
|-0-0-0-0---------------|------------10-----||
|
| PM----|                 PM---------|  ~
| E S S E E  E E  E S s   E E  E E E  E Q
|-----------------------|-------------------||
|-----------------------|-------------------||
|-----------------------|-------------------||
|--------------7--8p7p5-|-8-7--5--------7---||
|---------7--8----------|--------8-7--5-----||
|-0-0-0-0---------------|-------------------||


    N.C.(E5)E5F5 A5Bb5   (E5)    Bb5A5F5 E5
    PM----|              PM----|
    E S S E E  E E  Q    E S S E  E E  E Q
||---------------------|--------------------|
||o--------------------|--------------------|
||---------------9-10--|---------10-9-------|
||----------9-10-------|--------------10-9--|
||o--------------------|--------------------|
||--0-0-0-0------------|-0-0-0-0------------|
|
|   PM----|              PM----|
|   E S S E E  E E  Q    E S S E  E E  E Q
||---------------------|--------------------|
||o--------------------|--------------------|
||---------------------|--------------------|
||---------------7--8--|----------8-7-------|
||o---------7--8-------|---------------8-7--|
||--0-0-0-0------------|-0-0-0-0------------|


            F5 A5Bb5   N.C.
  PM----|               PM----------------| ~
                           |--3--|
  E S S E E  E E  Q     E  S  S  S E  E E E Q
|--------------------|--------------------------||
|--------------------|-11-10h11p10p8-----------o||
|--------------9-10--|---------------10-9-7-----||
|---------9-10-------|----------------------7---||
|--------------------|-------------------------o||
|-0-0-0-0------------|--------------------------||
|
| PM----|               PM----------------| ~
| E S S E E  E E  Q     E  E       E  E E E Q
|--------------------|--------------------------||
|--------------------|-------------------------o||
|--------------------|--------------------------||
|--------------7--8--|--8--7-------5--------7---||
|---------7--8-------|----------------8-7-5----o||
|-0-0-0-0------------|--------------------------||


  E5   F5       G5         F5    Bb5A5E5        G5  Bb5A5E5        G5  BbB5G5F#5
                                 PM-----------|          PM      PM
  Q.    E  +Q    Q     +E   Q  E Q  E E   +E  E E E Q  E E   +E  E E E E E E E
|-------------------|-------------------|------------------|-------------------|
|-------------------|-------------------|------------------|-------------------|
|-------------------|-------------------|------------------|-------------------|
|-9----10-(10)--12--|-(12)-10----3--2---|-----------3--2---|-----------3s4-----|
|-7-----8--(8)--10--|-(10)--8--0-1--0-2-|-(2)---5---1--0-2-|-(2)---5---1s2-5-4-|
|-------------------|-----------------0-|-(0)-0-3-0------0-|-(0)-0-3-0-----3-2-|
|
|                                PM---|                                PM--|
| Q.    E  +Q    Q     +E   Q  E Q  E E    H        Q  E E    H        Q   Q
|-------------------|-------------------|------------------|-------------------|
|-------------------|-------------------|------------------|-------------------|
|-------------------|-------------------|------------------|-------------------|
|-9----10-(10)--12--|-(12)-10----3--2---|------------------|-------------------|
|-7-----8--(8)--10--|-(10)--8--0-1--0-2-|--------------2-2-|-----------2---2---|
|-------------------|-----------------0-|--------------0-0-|-----------0---0---|


                                   $
  E5  G5  Bb5A5E5    C5    A#B5G5F#5   E5  G5  Bb5A5E5        G5  A#B5G5F#5
                                      2/2
  PM|                                  PM|          PM      PM
  E E E E Q  E E   E E E E E E E E     E E E E Q  E E   +E  E E E E E E E
|----------------|-----------------||-----------------|-------------------|
|----------------|-----------------||o----------------|-------------------|
|----------------|-----------------||-----------------|-------------------|
|---------3--2---|---5-5---3s4-----||----------3--2---|-----------3s4-----|
|-2---5---1--0-2-|---3-3---1s2-5-4-||o-2---5---1--0-2-|-(2)---5---1s2-5-4-|
|-0-0-3-0------0-|-------------3-2-||--0-0-3-0------0-|-(0)-0-3-0-----3-2-|
|
| PM                                   PM|          PM      PM
| E E Q   Q  E E   E E E E E E E E     E E E E Q  E E   +E  E E E E E E E
|----------------|-----------------||-----------------|-------------------|
|----------------|-----------------||o----------------|-------------------|
|----------------|-----------------||-----------------|-------------------|
|----------------|---5-5---3s4-----||----------3--2---|-----------3s4-----|
|-2----------2-2-|---3-3---1s2-5-4-||o-2---5---1--0-2-|-(2)---5---1s2-5-4-|
|-0----------0-0-|-------------3-2-||--0-0-3-0------0-|-(0)-0-3-0-----3-2-|


                                      Verses 1,3
  E5  G5  Bb5A5E5    C5    BbB5G5F#5   E5  G5  Bb5A5E5            G5
                                      4/4
  Gtrs I, II
  PM|                                  PM|                PM------|
  E E E E Q  E E   E E E E E E E E     E E E E Q  E E   E E Q  Q  Q
|----------------|------------------||----------------|--------------|
|----------------|-----------------o||----------------|--------------|
|----------------|------------------||----------------|--------------|
|---------3--2---|---5-5---3s4------||---------3--2---|--------------|
|-2---5---1--0-2-|---3-3---1s2-5-4-o||-2---5---1--0-2-|-----2--2--5--|
|-0-0-3-0------0-|-------------3-2--||-0-0-3-0------0-|---0-0--0--3--|


  E5  G5  Bb5A5E5    C5    BbB5G5F#5 E5  G5  Bb5A5E5            G5
  E E E E Q  E E   E E E E E E E E   E E E E Q  E E   E E Q  Q  Q
|----------------|-----------------|----------------|--------------|
|----------------|-----------------|----------------|--------------|
|----------------|-----------------|----------------|--------------|
|---------3--2---|---5-5---3s4-----|---------3--2---|--------------|
|-2---5---1--0-2-|---3-3---1s2-5-4-|-2---5---1--0-2-|-----2--2--5--|
|-0-0-3-0------0-|-------------3-2-|-0-0-3-0------0-|---0-0--0--3--|


  E5  G5  Bb5A5E5    C5    BbB5G5F#5 E5  G5  Bb5A5E5              G5
  PM|                                PM|              PM
  E E E E Q  E E   E E E E E E E E   E E E E Q  E E   E E E E E E E E
|----------------|-----------------|----------------|-----------------|
|----------------|-----------------|----------------|-----------------|
|----------------|-----------------|----------------|-----------------|
|---------3--2---|---5-5---3s4-----|---------3--2---|---------3s4-----|
|-2---5---1--0-2-|---3-3---1s2-5-4-|-2---5---1--0-2-|-2---5---1s2-5-4-|
|-0-0-3-0------0-|-------------3-2-|-0-0-3-0------0-|-0-0-3-0-----3-2-|


  E5  G5  Bb5A5E5    C5    BbB5G5F#5 E5  G5  Bb5A5E5              G5
  E E E E Q  E E   E E E E E E E E   E E E E Q  E E   E E E E E E E E
|----------------|-----------------|----------------|-----------------|
|----------------|-----------------|----------------|-----------------|
|----------------|-----------------|----------------|-----------------|
|---------3--2---|---5-5---3s4-----|---------3--2---|---------3s4-----|
|-2---5---1--0-2-|---3-3---1s2-5-4-|-2---5---1--0-2-|-2---5---1s2-5-4-|
|-0-0-3-0------0-|-------------3-2-|-0-0-3-0------0-|-0-0-3-0-----3-2-|


                                    Chorus
  E5  G5  Bb5A5E5    C5    BbB5G5F#5 Bb5       A5              E5
                                             PM          PM    PM|
  E E E E Q  E E   E E E E E E E E   H    Q  E E   +Q.   E E E E E
|----------------|-----------------|-------------|-----------------|
|----------------|-----------------|-------------|-----------------|
|----------------|-----------------|-------------|-----------------|
|---------3--2---|---5-5---3s4-----|-3----3----2-|-(2)-------------|
|-2---5---1--0-2-|---3-3---1s2-5-4-|-1----1----0-|-(0)-----1p0---2-|
|-0-0-3-0------0-|-------------3-2-|---------0---|-------0-----0-0-|


        G5  Bb5A5E5        G5  BbB5(Em)  Bb5       A5                Bb5
   PM-|          PM------|                       PM          PM
  +E  E E E Q  E E   +E  E E E E E E E   H    Q  E E   +Q.   E E E E E
|------------------|-------------------|-------------|-----------------|
|------------------|-------------------|-------------|-----------------|
|------------------|-------------------|-------------|-----------------|
|-----------3--2---|-----------3s4-----|-3----3----2-|-(2)-----------3-|
|-(2)---5---1--0-2-|-(2)---5---1s2-----|-1----1----0-|-(0)-----1p0---1-|
|-(0)-0-3-0------0-|-(0)-0-3-0-----3-0-|---------0---|-------0---------|


  N.C.G55)Bb5A5E5        G5  BbB5      Bb5       A5          Bb5   E5
  PM|          PM------|
  E E E E Q  E E   +E  E E E E E E E   H    Q.   E   +Q   Q  E E E E
|----------------|-------------------|-------------|-----------------|
|----------------|-------------------|-------------|-----------------|
|----------------|-------------------|-------------|-----------------|
|---------3--2---|-----------3s4-----|-3----3----2-|-(2)-----3-------|
|-----5---1--0-2-|-(2)---5---1s2-----|-1----1----0-|-(0)-----1-0---2-|
|-0-0-3-0------0-|-(0)-0-3-0-----3-0-|-------------|-------------0-0-|


        G5  Bb5A5E5        G5  BbB5G5F#5 E5  G5  Bb5A5E5    C5    BbB5G5F#5
 2/2
        PM       PM------|               PM|
  +E  E E E Q  E E   +E  E E E E E E E   E E E E Q  E E   E E E E E E E E
|------------------|-------------------|----------------|-----------------|
|------------------|-------------------|----------------|-----------------|
|------------------|-------------------|----------------|-----------------|
|-----------3--2---|-----------3s4-----|---------3--2---|---5-5---3s4-----|
|-(2)---5---1--0-2-|-(2)---5---1s2-5-4-|-2---5---1--0-2-|---3-3---1s2-5-4-|
|-(0)-0-3-0------0-|-(0)-0-3-0-----3-2-|-0-0-3-0------0-|-------------3-2-|


                                             To Coda
      G5  Bb5A5E5      G5  BbB5G5F#5 E5  G5  Bb5A5E5    C5    BbB5G5F#5
  PM|          PM----|               PM|
  E E E E Q  E E   E E E E E E E E   E E E E Q  E E   E E E E E E E E
|----------------|-----------------|----------------|-----------------||
|----------------|-----------------|----------------|-----------------||
|----------------|-----------------|----------------|-----------------||
|---------3--2---|---------3s4-----|---------3--2---|---5-5---3s4-----||
|-2---5---1--0-2-|-2---5---1s2-5-4-|-2---5---1--0-2-|---3-3---1s2-5-4-||
|-0-0-3-0------0-|-0-0-3-0-----3-2-|-0-0-3-0------0-|-------------3-2-||


 Verse 2
  E5  G5  Bb5A5E5            G5   E5  G5  Bb5A5E5
 4/4
  PM|                PM------|
  E E E E Q  E E   E E Q  Q  Q    E E E E Q  E E
|----------------|--------------|-----------------|
|----------------|--------------|-----------------|
|----------------|--------------|-----------------|
|---------3--2---|--------------|---------3--2----|
|-2---5---1--0-2-|-----2--2--5--|-2---5---1--0-2--|
|-0-0-3-0------0-|---0-0--0--3--|-0-0-3-0------0--|


    C5             Bb5  B5    G5    F#5     E5   G5  Bb5A5E5            G5
  E E    E    E     E    E     E     E       E E E E Q  E E   E E Q  Q  Q
|-----------------------------------------|-----------------|--------------|
|-----------------------------------------|-----------------|--------------|
|-----------------------------------------|-----------------|--------------|
|---5----5----------3s===4----------------|----------3--2---|--------------|
|---3----3----------1s===2-----5-----4----|--2---5---1--0-2-|-----2--2--5--|
|------------------------------3-----2----|--0-0-3-0------0-|---0-0--0--3--|
|
| Gtr III
| E S S  S  S S  S  S S  S  S  S  S  S  S    E E Q   H        W
|--------------------------------------10-|-12--------------|--------------|
|-----------------------------10-12-13----|-----------------|--------------|
|---------------------9-10-12-------------|-----------------|--------------|
|-------------9-10-12---------------------|-----------------|--------------|
|---7h8-10-12-----------------------------|-----------------|--------------|
|-----------------------------------------|-----------------|--------------|


  E5  G5   Bb5    A5E5    C5    BbB5G5F#5 E5  G5  Bb5A5E5              G5
  PM|                                     PM|              PM
  E E E  E   Q    E E   E E E E E E E E   E E E E Q  E E   E E E E E E E E
|---------------------|-----------------|----------------|-----------------|
|---------------------|-----------------|----------------|-----------------|
|---------------------|-----------------|----------------|-----------------|
|------------3----2---|---5-5---3s4-----|---------3--2---|---------3s4-----|
|-2---5------1----0-2-|---3-3---1s2-5-4-|-2---5---1--0-2-|-2---5---1s2-5-4-|
|-0-0-3--0----------0-|-------------3-2-|-0-0-3-0------0-|-0-0-3-0-----3-2-|
|
| Q   E  E  +Q    Q     E E E E E E E E   W                W
|---------------------|-----------------|----------------|-----------------|
|---------------------|-----------------|----------------|-----------------|
|-------17-(17)\------|-----------------|----------------|-----------------|
|---------------------|-----------------|----------------|-----------------|
|---------------------|-----------------|----------------|-----------------|
|---------------------|---0-0-0-0-0-0-0-|----------------|-----------------|


  E5  G5  Bb5A5E5    C5    BbB5G5F#5 E5  G5  Bb5A5E5              G5
  E E E E Q  E E   E E E E E E E E   E E E E Q  E E   E E E E E E E E
|----------------|-----------------|----------------|-----------------|
|----------------|-----------------|----------------|-----------------|
|----------------|-----------------|----------------|-----------------|
|---------3--2---|---5-5---3s4-----|---------3--2---|---------3s4-----|
|-2---5---1--0-2-|---3-3---1s2-5-4-|-2---5---1--0-2-|-2---5---1s2-5-4-|
|-0-0-3-0------0-|-------------3-2-|-0-0-3-0------0-|-0-0-3-0-----3-2-|


                                    Chorus
  E5  G5  Bb5A5E5    C5    BbB5G5F#5 Bb5       A5              E5
                                             PM          PM    PM|
  E E E E Q  E E   E E E E E E E E   H    Q  E E   +Q.   E E E E E
|----------------|-----------------|-------------|-----------------|
|----------------|-----------------|-------------|-----------------|
|----------------|-----------------|-------------|-----------------|
|---------3--2---|---5-5---3s4-----|-3----3----2-|-(2)-------------|
|-2---5---1--0-2-|---3-3---1s2-5-4-|-1----1----0-|-(0)-----1p0---2-|
|-0-0-3-0------0-|-------------3-2-|---------0---|-------0-----0-0-|


        G5  Bb5A5E5        G5  BbB5(Em)  Bb5       A5                Bb5
   PM-|          PM------|                       PM          PM
  +E  E E E Q  E E   +E  E E E E E E E   H    Q  E E   +Q.   E E E E E
|------------------|-------------------|-------------|-----------------|
|------------------|-------------------|-------------|-----------------|
|------------------|-------------------|-------------|-----------------|
|-----------3--2---|-----------3s4-----|-3----3----2-|-(2)-----------3-|
|-(2)---5---1--0-2-|-(2)---5---1s2-----|-1----1----0-|-(0)-----1p0---1-|
|-(0)-0-3-0------0-|-(0)-0-3-0-----3-0-|---------0---|-------0---------|


  N.C.G55)Bb5A5E5        G5  BbB5      Bb5       A5          Bb5   E5
  PM|          PM------|
  E E E E Q  E E   +E  E E E E E E E   H    Q.   E   +Q   Q  E E E E
|----------------|-------------------|-------------|-----------------|
|----------------|-------------------|-------------|-----------------|
|----------------|-------------------|-------------|-----------------|
|---------3--2---|-----------3s4-----|-3----3----2-|-(2)-----3-------|
|-----5---1--0-2-|-(2)---5---1s2-----|-1----1----0-|-(0)-----1-0---2-|
|-0-0-3-0------0-|-(0)-0-3-0-----3-0-|-------------|-------------0-0-|


        G5  Bb5A5E5        G5  BbB5G5F#5 E5  G5  Bb5A5E5    C5    BbB5G5F#5
 2/2
        PM       PM------|               PM|
  +E  E E E Q  E E   +E  E E E E E E E   E E E E Q  E E   E E E E E E E E
|------------------|-------------------|----------------|-----------------|
|------------------|-------------------|----------------|-----------------|
|------------------|-------------------|----------------|-----------------|
|-----------3--2---|-----------3s4-----|---------3--2---|---5-5---3s4-----|
|-(2)---5---1--0-2-|-(2)---5---1s2-5-4-|-2---5---1--0-2-|---3-3---1s2-5-4-|
|-(0)-0-3-0------0-|-(0)-0-3-0-----3-2-|-0-0-3-0------0-|-------------3-2-|


      G5  Bb5A5E5      G5  BbB5G5F#5 E5  G5  Bb5A5E5    C5    BbB5G5F#5
  PM|          PM----|               PM|
  E E E E Q  E E   E E E E E E E E   E E E E Q  E E   E E E E E E E E
|----------------|-----------------|----------------|-----------------||
|----------------|-----------------|----------------|-----------------||
|----------------|-----------------|----------------|-----------------||
|---------3--2---|---------3s4-----|---------3--2---|---5-5---3s4-----||
|-2---5---1--0-2-|-2---5---1s2-5-4-|-2---5---1--0-2-|---3-3---1s2-5-4-||
|-0-0-3-0------0-|-0-0-3-0-----3-2-|-0-0-3-0------0-|-------------3-2-||


   Instrumental Interlude
    N.C.G55)Bb5(E5)  G5  C5 (E5)G5    Eb5D5     Db5
    E E E E Q  E E   E E Q  E E E E   Q  Q  E E Q    E E E E E E E E
||-----------------|----------------|--------------|-------------------||
||o----------------|----------------|--------------|------------------o||
||-----------------|----------------|--------------|-------------------||
||----------3------|-----5----------|-8--7------6--|-------------------||
||o-----5---1------|-5---3------5---|-6--5--5-5-4--|-4-4-4-3-4-3------o||
||--0-0-3-0----0-0-|-3-0----0-0-3-0-|--------------|-------------4-3---||


    Gsus2/E            Fsus2/E         Esus2
   3/4
    Gtr IV
     a  H.              H.             H.             +H        +E  E  3x
||-------------------|---------------|--------------|------------------||
||o--8s10------------|--8------------|-7------------|-(7)-------(7)---o||
||--10s12------------|-10------------|-9------------|-(9)-------(9)----||
||--10s12------------|-10------------|-9------------|-(9)-------(9)----||
||o------------------|---------------|--------------|-----------------o||
||-------------------|---------------|--------------|------------------||
|
|   Gtrs I, II
|       PM----------------------------------------|         PM
|       E  E E E E E    E  E E E E E   E  E E E E E    E  E E E  E  E  3x
||-------------------|---------------|--------------|------------------||
||o------------------|---------------|--------------|-----------------o||
||-------------------|---------------|--------------|------------------||
||-------------------|---------------|--------------|------------------||
||o----------5---5---|-------5---5---|------5---5---|--3--2---2-------o||
||------0--0-3-0-3-0-|--0--0-3-0-3-0-|-0--0-3-0-3-0-|-------4----4--3--||


  Gsus2/E         Fsus2/E         Esus2
                                                4/4
  Gtr III
   W               W              W               H        H
|---------------|---------------|--------------|-----------2/-------||
|---------------|---------------|--------------|--------------------||
|---------------|---------------|--------------|--------------------||
|---------------|---------------|--------------|--------------------||
|---------------|---------------|--------------|--------------------||
|---------------|---------------|--------------|--------------------||
|
| Gtr IV
|  H.              H.             H.             +W
|---------------|--8------------|-7------------|-(7)----------------||
|-10------------|--8------------|-7------------|-(7)----------------||
|-12------------|-10------------|-9------------|-(9)----------------||
|-12------------|---------------|--------------|--------------------||
|---------------|---------------|--------------|--------------------||
|---------------|---------------|--------------|--------------------||
|
| Gtrs I, II
|  PM-------------------------|                        PM       PM|
|  E  E E E E E    E  E E E E E   E  E E E E E    E  E E E E  E E E
|---------------|---------------|--------------|--------------------||
|---------------|---------------|--------------|--------------------||
|---------------|---------------|--------------|--------------------||
|---------------|---------------|--------------|--------------------||
|-------5---5---|-------5---5---|------5---5---|--3--2---2--------3-||
|--0--0-3-0-3-0-|--0--0-3-0-3-0-|-0--0-3-0-3-0-|-------4---4--3-0-1-||


 Guitar Solo
  F#5
  Gtr III
            ~~~~                                    ~~
                   |-----3-----|
   Q       +Q     +Q      Q    Q      Q.       +E   H
|-19b21===(19)---(19)r---19---17---|-21pb23r==(21)-21-------|
|----------------------------------|------------------------|
|----------------------------------|------------------------|
|----------------------------------|------------------------|
|----------------------------------|------------------------|
|----------------------------------|------------------------|
|
| Gtrs I, II
|                                PM                       PM
|  Q.          E   E   E    E    E    Q.        E   E E E E
|----------------------------------|------------------------|
|----------------------------------|------------------------|
|----------------------------------|------------------------|
|----------------------------------|------------------------|
|--4-----------4-------4-----------|--4---------4-----4-----|
|--2-----------2-------2---------2-|--2---------2-----2---2-|


                                                                        ~~~~~~
   |--3--|  |--3--|           |--3--|
   S  S  S  S  S  S  E  S  S  S  S  S  E  S  S  E    E  E  S  S   E    +Q.       E
|-21p19p17-------------19p17----------17-------18-|--------------------------------|
|----------21p19p17----------19p17-------19-17----|--------------------------------|
|-------------------19-------------18-------------|-16----16-----------------------|
|-------------------------------------------------|----18----18-[16]-([16])-----16-|
|-------------------------------------------------|--------------------------------|
|-------------------------------------------------|--------------------------------|
|
|                                               PM                               PM
|  Q.                   E     E        E  E     E    E  E  E      E     E   E E  E
|-------------------------------------------------|--------------------------------|
|-------------------------------------------------|--------------------------------|
|-------------------------------------------------|--------------------------------|
|-------------------------------------------------|--------------------------------|
|--4--------------------4--------------4----------|--4------------4---------4----0-|
|--2--------------------2--------------2--------2-|--0h=2---------2---------2------|


  D5
 6/4
   S  S  S  S  S  S  S  S  S  S  S  S  S  S  S  S  S  S  S  S  S  S  S  S
|-------------------------------------------------------------------------|
|-------------------------------------------------------------------------|
|-17p14-------17p14-------17p14-------17p14-------17p14----14h17p14----14h|
|-------16p14-------16p14-------16p14-------16p14-------16----------16----|
|-------------------------------------------------------------------------|
|-------------------------------------------------------------------------|
|
|  Q           Q           Q           Q           Q           Q
|-------------------------------------------------------------------------|
|-------------------------------------------------------------------------|
|-------------------------------------------------------------------------|
|--7-----------7-----------7-----------7-----------7-----------7----------|
|--5-----------5-----------5-----------5-----------5-----------5----------|
|-------------------------------------------------------------------------|


  C#5   B5
 4/4
   S  S  S  S  S  S  S  S  S  S  S  S  S S  S  S
|---------------------------------------------------|
|---------------------------------------------------|
|-17p14-18p14h16p14-13h14-16p13h14p13-11p9----------|
|------------------------------------------12p11p===|
|---------------------------------------------------|
|---------------------------------------------------|
|
|  E     Q           E     E     E     E    E
|---------------------------------------------------|
|---------------------------------------------------|
|---------------------------------------------------|
|--6s====4-----------4-----------4----------4-------|
|--4s====2-----------2-----------2----------2-------|
|---------------------------------------------------|


  B5                  F#5
           ~~~
  H       +Q.     E   +S  S  S  S E.  S S S  E      +S   S S S
|-------------------|------------------------------------------|
|-------------------|------------------------------------------|
|-------------------|------------------------------------------|
|-9-------(9)-----9-|-(9)p7-------9p==7-----[9]b11r([9])p7-----|
|-------------------|--------9p=7-------9-7----------------9p7-|
|-------------------|------------------------------------------|
|
| E E E E  E  E E E    E     Q      E   E    E       E     E
|-------------------|------------------------------------------|
|-------------------|------------------------------------------|
|-------------------|------------------------------------------|
|-4-----4-----4---4-|------------------------------------------|
|-0h2---2-----2---2-|--4----(4)-----4--------4-----------------|
|-------------------|--0h====2------2--------2-------------2---|


                      ~~~~~
   E.     S S S  E   +Q     E  S S
|-----------------------------------|
|-----------------------------------|
|-----------------------------------|
|-[9]p====7-------------------11p9--|
|-----------9p7-[9]-([9])-----------|
|-----------------------------------|
|
|  E   Q         E    E   E E  E
|-----------------------------------|
|-----------------------------------|
|-----------------------------------|
|-----------------------------------|
|--4--(4)--------4--------4---------|
|--0h==2---------2--------2----2----|


                                                             ~~~~
   |-3--|
   S  S S  S  S  e E  S S  e  S S     +E    +Q      +E   E  +Q.      E
|-----------------------------------------|----------------------------|
|-------------------------------9b10==(9)-|-(9)r====(9)-10-(10)--------|
|-------9-11p=9----9-11p9----11-----------|-------------------------11-|
|-11h12---------11--------11--------------|----------------------------|
|-----------------------------------------|----------------------------|
|-----------------------------------------|----------------------------|
|
|  E       Q       E  E    E  E        E     E   Q       E   E  E Q
|-----------------------------------------|----------------------------|
|-----------------------------------------|----------------------------|
|-----------------------------------------|----------------------------|
|-----------------------------------------|----------------------------|
|--4------(4)------4-------4--------------|--4--(4)------4------4------|
|--0h======2-------2-------2-----------0--|--0h==2-------2------2------|


  D5
 6/4
  S  S S  S S  S S  S S  S S  S S  S S  S S  S S  S S  S S  S
|--------------------------------------------------------------|
|--------------------------------------------------------------|
|-9h10p9----9h10p9----9h10p9----9h10p9----9h10p9----9h10p9-----|
|--------11--------11--------11--------11--------11--------11--|
|--------------------------------------------------------------|
|--------------------------------------------------------------|
|
| Q         Q         Q         Q         Q         Q
|--------------------------------------------------------------|
|--------------------------------------------------------------|
|--------------------------------------------------------------|
|-7---------7---------7---------7---------7---------7----------|
|-5---------5---------5---------5---------5---------5----------|
|--------------------------------------------------------------|


     C#5                         D5  C#5
 4/4
                                              ~~~~~~
   |---3----|    |----3----|
   Q    Q   Q    Q    Q    Q       H         +Q.      E
|------------------------------|------------------------|
|-12---10---9------------------|------------------------|
|---------------11---10--------|------------------------|
|-------------------------12---|-[11]------([11])-------|
|------------------------------|------------------------|
|------------------------------|------------------------|
|
|  E E    E   E  E E    E    E     E E E E    E   E E E
|------------------------------|------------------------|
|------------------------------|------------------------|
|------------------------------|------------------------|
|--7s6--------6----6---------6-|---7s6---6--------6---6-|
|--5s4--------4----4---------4-|---5s4---4--------4---4-|
|------------------------------|------------------------|


 6/4
                                        PM----|
          |-3-|
  S S S S S S S S S S S S S S S S S S S S S E E
|-5p2-----7p5p2----------------------------------|
|-----5p2-------5p2------------------------------|
|-------------------4p2---2-4p2------------------|
|-----------------------4-------4p2-4p2---2------|
|---------------------------------------4---4-2--|
|------------------------------------------------|
|
| Q       Q         Q       Q       Q       Q
|------------------------------------------------|
|------------------------------------------------|
|------------------------------------------------|
|-6-------6---------6-------6-------6-------6----|
|-4-------4---------4-------4-------4-------4----|
|------------------------------------------------|


  F#5                  E5
 4/4
  ~~
  Q.   E E E E  E       +E   E E  E   E      +E    +E   E
|--------------------|------------------------------------|
|--------------------|------------------------------------|
|--------2---2-[2]b4r|=([2])-----[2]-[2]b4==([2])r([2])---|
|------4---4---------|-------4----------------------------|
|--------------------|------------------------------------|
|-2------------------|------------------------------------|
|
|               PM
| Q.   E E E E  E        E   E E  E   E       E     Q
|--------------------|------------------------------------|
|--------------------|------------------------------------|
|--------------------|------------------------------------|
|--------------------|------------------------------------|
|-4----4---4---------|---4--------2-----------2-----------|
|-2----2---2----2----|---2---0----0-----------0-----------|


  D5                   E5                    F#5
   W                    W                     W               +W
|--------------------|---------------------|---------------|-------------||
|--------------------|---------------------|---------------|-------------||
|-14tr17-------------|-16tr19--------------|-17tr21--------|-(17tr21)----||
|--------------------|---------------------|---------------|-------------||
|--------------------|---------------------|---------------|-------------||
|--------------------|---------------------|---------------|-------------||
|
|  Q.      E E E E E    E     E E E E E Q     W                W
|--------------------|---------------------|---------------|-------------||
|--------------------|---------------------|---------------|-------------||
|--------------------|---------------------|---------------|-------------||
|--7-------7---7---7-|--7s====9---9---9----|-11------------|---x\--------||
|--5-------5---5---5-|--5s====7---7---7----|--9------------|---x\--------||
|--------------------|---------------------|---------------|-------------||


     E5       G5       Bb5      A5 E5
   T        T        T        T
   a  E  E  a  E  E  a  E  E  a  E  E
|-19h26p17-19h26p17-19h26p17-19h26p17-|
|-------------------------------------|
|-------------------------------------|
|-------------------------------------|
|-------------------------------------|
|-------------------------------------|
|
|     PM|
|     E  E     E  E     Q        E  E
|-------------------------------------|
|-------------------------------------|
|-------------------------------------|
|-----------------------3--------2----|
|-----2--------5--------1--------0--2-|
|-----0--0-----3--0-----------------0-|


                                                              D.S. al Coda
               G5       Bb5B5    G5 F#5  E5   G5  Bb5A5E5     C5    BbB5G5F#5
   T         T        T        T          T
   a  E   E  a  E  E  a  E  E  a  E  E    W                H.           Q
|-19h26p=17-19h26p17-19h26p17-19h26p17-|-21s=============|=7----------------||
|--------------------------------------|-----------------|------------------||
|--------------------------------------|-----------------|------------------||
|--------------------------------------|-----------------|------------------||
|--------------------------------------|-----------------|------------------||
|--------------------------------------|-----------------|------------------||
|
|         PM                              PM|
|    +E   E     E  E     E  E     E  E    E E E E Q  E E   E  E E E E E E E
|--------------------------------------|-----------------|------------------||
|--------------------------------------|-----------------|------------------||
|--------------------------------------|-----------------|------------------||
|------------------------3s=4----------|----------3--2---|----5-5---3s4-----||
|----(2)--------5--------1s=2-----5s=4-|--2---5---1--0-2-|----3-3---1s2-5s4-||
|----(0)--0-----3--0--------------3s=2-|--0-0-3-0------0-|--------------3s2-||


 Outro
  &
    C5    BbB5G5F#5 E5   F5     G5       F5    Bb5F5E5
  Gtr I
                                               PM-|
  E E E E E E E E   Q.   E +Q   Q    +E  Q.    Q  E E
|-----------------|----------------|------------------*|
|-----------------|----------------|------------------*|
|-----------------|-4----5-(5)--7--|-(7)-5------------*|
|---5-5---3s4-----|-2----3-(3)--5--|-(5)-3-----3----2-*|
|---3-3---1s2-5-4-|----------------|-----------1--3-2-*|
|-------------3-2-|----------------|--------------1-0-*|
|
| Gtr II
|                                            PM---|
| E E E E E E E E   Q.   E +Q   Q    +E  Q   e Q  E E
|-----------------|----------------|------------------*|
|-----------------|----------------|------------------*|
|-----------------|----------------|------------------*|
|---5-5---3s4-----|----------------|-----------3----2-*|
|---3-3---1s2-5-4-|-2----3-(3)--5--|-(5)-3-----1--3-2-*|
|-------------3-2-|-0----1-(1)--3--|-(3)-1---1----1-0-*|



Duration Legend
---------------
W - whole; H - half; Q - quarter; E - 8th; S - 16th; T - 32nd; X - 64th; a - acciaccatura
+ - note tied to previous; . - note dotted; .. - note double dotted
Uncapitalized letters represent notes that are staccato (1/2 duration)
Irregular groupings are notated above the duration line
Duration letters will always appear directly above the note/fret number it represents the
duration for.  Duration letters with no fret number below them represent rests.  Multi-
bar rests are notated in the form Wxn, where n is the number of bars to rest for.  Low
melody durations appear below the staff

Tablature Legend
----------------
 h   - hammer-on
 p   - pull-off
 b   - bend
 pb  - pre-bend
 r   - bend release (if no number after the r, then release immediately)
 /\  - slide into or out of (from/to "nowhere")
 s   - legato slide
 S   - shift slide
 - natural harmonic
[n]  - artificial harmonic
n(n) - tapped harmonic
 ~   - vibrato
 tr  - trill
 T   - tap
 TP  - trem. picking
 PM  - palm muting
\n/  - tremolo bar dip; n = amount to dip
 \n  - tremolo bar down
 n/  - tremolo bar up
/n\  - tremolo bar inverted dip
 =   - hold bend; also acts as connecting device for hammers/pulls
 <> - volume swell (louder/softer)
 x   - on rhythm slash represents muted slash
 o   - on rhythm slash represents single note slash

Misc Legend
-----------
 |  - bar
||  - double bar
||o - repeat start
o|| - repeat end
*|  - double bar (ending)
 :  - bar (freetime)
 $  - Segno
 &  - Coda
Tempo markers -  = BPM(8/16=s8/s16), where s8 = swing 8ths, s16 = swing 16ths

comments
print report bad tab
I want to post or [tab]
guest
You may want to rate the tab now too:
select rating
Please do not post tabs as comments. Select "correction" instead!