Oops, an error
Loading. Please wait.

Legacy Bass Tab

859 views 1 this week
no commentswrite comment
1 2 3 4 5
please rate
Autoscroll
+/-
esc
set tempo
stop
Hey! There's an official Ultimate Guitar app which is ideal
for learning songs when you're away from computer. Get the app
WARNING: You are trying to view
                                    content from Ultimate-Guitar.com
                                    in an unauthorized application,
                                    which is prohibited.

                                    Please use an official Ultimate
                                    Guitar Tabs application for iPhone,
                                    iPad or Android to access legitimate
                                    chords, guitar, bass, and drum tabs
                                    from Ultimate-Guitar.com database.

                                    Type "ultimate guitar tabs" in Apple
                                    App Store's or Android Market's
                                    search to find the application.
Testament - The Legacy                             



                                                                
G||------------------|--------------------|--------------------|
D||------------------|--------------------|--0--------------0--|
A||------------------|-----------------3--|--------------------|
E||------------------|--------------5-----|--------------------|


                                                               
-------------------|--------------------|---------------------|
--0----------------|--------------------|---------------------|
-------------------|--------------------|---------------0--3--|
-------------------|--1--------------1--|--1------------------|


                                                              
--------------------|-------------------|--------------------|
--0--------------0--|--0----------------|--------------------|
--------------------|-------------------|--------------------|
--------------------|-------------------|--1--------------1--|


                                                               
---------------------|--------------------|-------------------|
---------------------|--0--------------0--|--0----------------|
---------------0--3--|--------------------|-------------------|
--1------------------|--------------------|-------------------|


                                                                
--------------------|---------------------|--------------------|
--------------------|---------------------|--------------------|
--------------------|---------------0--3--|--2--------------2--|
--1--------------1--|--1------------------|--------------------|


                                                                   
----------------------|--------------------|----------------------|
----------------------|--------------------|----------------------|
--2----------0--3--2--|--2--------------2--|--2----------0--3--2--|
----------------------|--------------------|----------------------|


                                                                     
----------------------|----------------------|----------------------|
----------------------|----------------------|----------------------|
--3------3--3------3--|--2------2--2------2--|--3------3--3------3--|
----------------------|----------------------|----------------------|


                                                                     
----------------------|----------------------|----------------------|
----------------------|----------------------|----------------------|
--2------2--2------2--|--3------3--3------3--|--2------2--2------2--|
----------------------|----------------------|----------------------|


                                                                   
----------------------|----------------------|--------------------|
----------------------|----------------------|--------------------|
--0------0--0------0--|----------------------|--------------------|
----------------------|--3------3--3------3--|--2--------0--------|


                                                             
--------------------|-------------------|-------------------|
--------------------|-------------------|----------------2--|
--------------------|-------------------|-------------------|
--3--------2--------|--0----------------|-------------------|


                                                                     
----------------------|----------------------|----------------------|
--2------2----2----2--|--2------2----2----2--|--0------0----0----0--|
----------------------|----------------------|----------------------|
----------------------|----------------------|----------------------|


                                                                  
----------------------|--------------------|---------------------|
--0------0----0----0--|--------------------|---------------------|
----------------------|--4--------------4--|--4----4----4--------|
----------------------|--------------------|---------------------|


                                                                  
---------------------|--------------------|----------------------|
---------------------|--2--------------2--|--2----2--------2--0--|
---------------------|--------------------|----------------------|
--3------2------3----|--------------------|----------------------|


                                                                 
--------------------|----------------------|--------------------|
--0--------------0--|--0----0--------0-----|--------------------|
--------------------|-------------------4--|--4--------------4--|
--------------------|----------------------|--------------------|


                                                                  
----------------------|---------------------|--------------------|
----------------------|---------------------|--2--------------2--|
--4----4------4--4----|---------------------|--------------------|
----------------------|--3------2------3----|--------------------|


                                                                   
----------------------|--------------------|----------------------|
--2----2--------2--0--|--0--------------0--|--0----0--------0-----|
----------------------|--------------------|-------------------4--|
----------------------|--------------------|----------------------|


                                                                  
--------------------|----------------------|---------------------|
--------------------|----------------------|---------------------|
--4--------------4--|--4----4------4--4----|---------------------|
--------------------|----------------------|--3------2------3----|


                                                                 
--------------------|----------------------|--------------------|
--2--------------2--|--2----2--------2--0--|--0--------------0--|
--------------------|----------------------|--------------------|
--------------------|----------------------|--------------------|


                                                                   
----------------------|--------------------|----------------------|
--0----0--------0-----|--------------------|----------------------|
-------------------4--|--4--------------4--|--4----4------4--4----|
----------------------|--------------------|----------------------|


                                                                    
---------------------|----------------------|----------------------|
---------------------|--2------2----2----2--|--2------2----2----2--|
---------------------|----------------------|----------------------|
--3------2------3----|----------------------|----------------------|


                                                                   
----------------------|----------------------|--------------------|
--0------0----0----0--|--0------0----0----0--|--------------------|
----------------------|----------------------|--4--------------4--|
----------------------|----------------------|--------------------|


                                                                 
---------------------|---------------------|--------------------|
---------------------|---------------------|--2--------------2--|
--4----4----4--------|---------------------|--------------------|
---------------------|--3------2------3----|--------------------|


                                                                   
----------------------|--------------------|----------------------|
--2----2--------2--0--|--0--------------0--|--0----0--------0-----|
----------------------|--------------------|-------------------4--|
----------------------|--------------------|----------------------|


                                                                  
--------------------|----------------------|---------------------|
--------------------|----------------------|---------------------|
--4--------------4--|--4----4------4--4----|---------------------|
--------------------|----------------------|--3------2------3----|


                                                                 
--------------------|----------------------|--------------------|
--2--------------2--|--2----2--------2--0--|--0--------------0--|
--------------------|----------------------|--------------------|
--------------------|----------------------|--------------------|


                                                                   
----------------------|--------------------|----------------------|
--0----0--------0-----|--------------------|----------------------|
-------------------4--|--4--------------4--|--4----4------4--4----|
----------------------|--------------------|----------------------|


                                                                            
---------------------|--------------------------|--------------------------|
---------------------|--------------------------|--------------------------|
---------------------|--1--1--1--1--1--1--1--1--|--1--1--1--1--1--1--1--1--|
--3------2------3----|--------------------------|--------------------------|


                                                      
--------------------------|--------------------------|
--------------------------|--------------------------|
--------------------------|--------------------------|
--2--2--2--2--2--2--2--2--|--2--2--2--2--2--2--2--2--|


                                                      
--------------------------|--------------------------|
--------------------------|--------------------------|
--1--1--1--1--1--1--1--1--|--1--1--1--1--1--1--1--1--|
--------------------------|--------------------------|


                                                                             
--------------------------|--------------------------|----------------------|
--------------------------|--------------------------|----------------------|
--------------------------|--------------------------|--7------7---7---7----|
--2--2--2--2--2--2--2--2--|--2--2--2--2--2--2--2--2--|----------------------|


                                                                             
--------------------------|----------------------|--------------------------|
-----5--5--4--4--7--7-----|----------------------|--7--5--4--5---4--2--0--2-|
--7--------------------0--|--5------5--5----5----|--------------------------|
--------------------------|----------------------|--------------------------|


                                                                       
----------------------|--------------------------|--------------------|
----------------------|-------2--4--5---4--2--0--|--------------------|
--3------3--3----3----|--3--5--------------------|--2--------2--------|
----------------------|--------------------------|--------------------|


                                                                       
--------------------|------------------------|------------------------|
--------------------|------------------------|--2--------2----2--2----|
--3--------5--------|---------------------0--|-----0--0---------------|
--------------------|--0--0--0--0--0---------|------------------------|


                                                                           
------------------------|--------------------------|----------------------|
--0--0--0--0--0---------|--0--0--0--0--0--0--0--0--|----------------------|
---------------------0--|--------------------------|--4------4--4----4----|
------------------------|--------------------------|----------------------|


                                                                      
------------------------|---------------------|----------------------|
------------------------|---------------------|--2------2----2----2--|
--4--4--4--4----4--4----|---------------------|----------------------|
------------------------|--3------2------3----|----------------------|


                                                                     
----------------------|----------------------|----------------------|
--2------2----2----2--|--0------0----0----0--|--0------0----0----0--|
----------------------|----------------------|----------------------|
----------------------|----------------------|----------------------|


                                                                 
--------------------|---------------------|---------------------|
--------------------|---------------------|---------------------|
--4--------------4--|--4----4----4--------|---------------------|
--------------------|---------------------|--3------2------3----|


                                                                 
--------------------|----------------------|--------------------|
--2--------------2--|--2----2--------2--0--|--0--------------0--|
--------------------|----------------------|--------------------|
--------------------|----------------------|--------------------|


                                                                   
----------------------|--------------------|----------------------|
--0----0--------0-----|--------------------|----------------------|
-------------------4--|--4--------------4--|--4----4------4--4----|
----------------------|--------------------|----------------------|


                                                                       
---------------------|------------------------|-----------------------|
---------------------|--2--2--2--2--2------2--|--2----2--2----2--2----|
---------------------|------------------------|-----------------------|
--3------2------3----|------------------------|-----------------------|


                                                                           
------------------------|--------------------------|----------------------|
--0--0--0--0--0---------|--------------------------|----------------------|
---------------------0--|--0--0--0--0--0--0--0--0--|--4------4--4----4----|
------------------------|--------------------------|----------------------|


                                                                      
----------------------|---------------------|------------------------|
----------------------|---------------------|--2--2--2--2--2------2--|
--4------4--4----4----|---------------------|------------------------|
----------------------|--3------2------3----|------------------------|


                                                                            
-----------------------|------------------------|--------------------------|
--2----2--2----2--2----|--0--0--0--0--0---------|--------------------------|
-----------------------|---------------------0--|--0--0--0--0--0--0--0--0--|
-----------------------|------------------------|--------------------------|


                                                                    
----------------------|----------------------|---------------------|
----------------------|----------------------|---------------------|
--4------4--4----4----|--4------4--4----4----|---------------------|
----------------------|----------------------|--3------2------3----|


                                                                         
----------------------|-----0--0--------2--2-----|----------------------|
--2------2--2----2----|--2--------4--4-----------|--0------0--0----0----|
----------------------|-----------------------0--|----------------------|
----------------------|--------------------------|----------------------|


                                                                             
--2--0-----0--------------|----------------------|--------------0-----------|
--------4-----4--2--0--2--|----------------------|-----0--2--4-----4--2--0--|
--------------------------|--3------3--3----3----|--3-----------------------|
--------------------------|----------------------|--------------------------|


                                                                 
--------------------|--------------------|----------------------|
--------------------|-----------0--------|--2------2--2----2----|
--2--------2--------|--3-----------------|----------------------|
--------------------|--------------------|----------------------|


                                                                             
-----0--0--------2--2-----|----------------------|--2--0-----0--------------|
--2--------4--4-----------|--0------0--0----0----|--------4-----4--2--0--2--|
-----------------------0--|----------------------|--------------------------|
--------------------------|----------------------|--------------------------|


                                                                       
----------------------|--------------0-----------|--------------------|
----------------------|-----0--2--4-----4--2--0--|--------------------|
--3------3--3----3----|--3-----------------------|--2--------2--------|
----------------------|--------------------------|--------------------|


                                                                   
--------------------|----------------------|----------------------|
-----------0--------|--2------2----2----2--|--2------2----2----2--|
--3-----------------|----------------------|----------------------|
--------------------|----------------------|----------------------|


                                                                   
----------------------|----------------------|--------------------|
--0------0----0----0--|--0------0----0----0--|--------------------|
----------------------|----------------------|--4--------------4--|
----------------------|----------------------|--------------------|


                                                                 
---------------------|---------------------|--------------------|
---------------------|---------------------|--2--------------2--|
--4----4----4--------|---------------------|--------------------|
---------------------|--3------2------3----|--------------------|


                                                                   
----------------------|--------------------|----------------------|
--2----2--------2--0--|--0--------------0--|--0----0--------0-----|
----------------------|--------------------|-------------------4--|
----------------------|--------------------|----------------------|


                                                                  
--------------------|----------------------|---------------------|
--------------------|----------------------|---------------------|
--4--------------4--|--4----4------4--4----|---------------------|
--------------------|----------------------|--3------2------3----|


                                        
-------------------|------------------||
-------------------|------------------||
-------------------|------------------||
--0----------------|------------------||
comments
We did not receive enough feedback on this tab! Please rate:
print report bad tab
1 2 3 4 5
I want to post or [tab]
guest
You may want to rate the tab now too:
select rating
Please do not post tabs as comments. Select "correction" instead!