Oops, an error
Loading. Please wait.

Over The Wall Bass Tab

ver1
ver1

Whole song

Interactive

More versions @911Tabs.com
2,170 views 1 this week
no commentswrite comment
1 2 3 4 5
please rate
Autoscroll
+/-
esc
set tempo
stop
Contributor
Difficulty
intermediate
Hey! There's an official Ultimate Guitar app which is ideal
for learning songs when you're away from computer. Get the app
WARNING: You are trying to view
                                    content from Ultimate-Guitar.com
                                    in an unauthorized application,
                                    which is prohibited.

                                    Please use an official Ultimate
                                    Guitar Tabs application for iPhone,
                                    iPad or Android to access legitimate
                                    chords, guitar, bass, and drum tabs
                                    from Ultimate-Guitar.com database.

                                    Type "ultimate guitar tabs" in Apple
                                    App Store's or Android Market's
                                    search to find the application.
Easy song...please rate


G||-------------------|-------------------|-------------------|
D||-------------------|-------------------|-------------------|
A||-------------------|-------------------|-------------------|
E||--0----------------|----------------0--|--0----------------|



------------------|-------------------|-------------------|-------------------|
------------------|-------------------|-------------------|-------------------|
------------------|-------------------|-------------------|-------------------|
------------------|--0----------------|----------------0--|--0----------------|



-------------------|-------------------|-------------------|-----------------|
--3----------------|--2----------------|-------------------|-----------------|
-------------------|-------------------|--5----------------|-----------------|
-------------------|-------------------|-------------------|--0--------------|



----------------|-----------------|----------------|------------------|
----------------|-----------------|----------------|--1-------2-------|
----------------|-----------------|----------------|------------------|
----------------|--0--------------|----------------|------------------|



--------------------|------------------|------------------|
--3--2-----2--1-----|--1-------2-------|--2-------1-------|
--------------------|------------------|------------------|
--------------------|------------------|------------------|



--------------------------|--------------------------|
--------------------------|--------------------------|
--------------------------|--------------------------|
--0--0--0--0--0--0--0--0--|--0--0--0--0--0--0--0--0--|



--------------------------|--------------------------|
--------------------------|--------------------------|
--------------------------|--------------------------|
--1--1--1--1--1--1--1--1--|--1--1--1--1--1--1--1--1--|



--------------------------|--------------------------|
--------------------------|--------------------------|
--------------------------|--------------------------|
--2--2--2--2--2--2--2--2--|--2--2--2--2--2--2--2--2--|



--------------------------|--------------------------|
--------------------------|--------------------------|
--------------------------|--------------------------|
--1--1--1--1--1--1--1--1--|--1--1--1--1--1--1--1--1--|



--------------------------|--------------------------|
--------------------------|--------------------------|
--7--7--7--7--7--7--7--7--|--5--5--5--5--5--5--5--5--|
--------------------------|--------------------------|



--------------------------|------------------------|--------------------------|
--------------------------|------------------------|--------------------------|
--3--3--3--3--3--3--3--3--|--2--2--2--2------------|--------------------------|
--------------------------|--------------3----2----|--0--0--0--0--0--0--4/-3--|



--------------------------|--------------------------|
--------------------------|--------------------------|
--------------------------|--------------------------|
--0--0--0--0--0--0--2/-1--|--0--0--0--0--0--0--7/-6--|



--------------------------|--------------------------|
--------------------------|--------------------------|
--------------------------|--------------------------|
--0--0--4/-3--0--0--6/-7--|--0--0--0--0--0--0--4/-3--|



--------------------------|--------------------------|
--------------------------|--------------------------|
--------------------------|--------------------------|
--0--0--0--0--0--0--2/-1--|--0--0--0--0--0--0--7/-6--|



--------------------------|--------------------------|
--------------------------|--------------------------|
--------------------------|--------------------------|
--0--0--4/-3--0--0--6/-7--|--0--0--0--0--0--0--4/-3--|



--------------------------|--------------------------|
--------------------------|--------------------------|
--------------------------|--------------------------|
--0--0--0--0--0--0--2/-1--|--0--0--0--0--0--0--7/-6--|



--------------------------|--------------------------|
--------------------------|--------------------------|
--------------------------|--------------------------|
--0--0--4/-3--0--0--6/-7--|--0--0--0--0--0--0--4/-3--|



--------------------------|--------------------------|
--------------------------|--------------------------|
--------------------------|--------------------------|
--0--0--0--0--0--0--2/-1--|--0--0--0--0--0--0--7/-6--|



--------------------------|-------------------------|--------------------------|
--------------------------|-------------------------|-----------------3--2--0--|
--------------------------|--------2----2h-0--------|-----2-----0--2-----------|
--0--0--4/-3--0--0--6/-7--|--0--0-------------0--0--|--0-----0-----------------|



-------------------------|--------------------------|-------------------------|
-------------------------|--------------------------|-------------------------|
--------2----2h-0-----0--|--------------0-----------|--------2----2h-0--------|
--0--0-------------0-----|----3-3-3--3-----3--2--1--|--0--0-------------0--0--|



--------------------------|-------------------------|
-----------------3--2--0--|-------------------------|
-----2-----0--2-----------|--------2----2h-0-----0--|
--0-----0-----------------|--0--0-------------0-----|



---------------------------|--------------------------|
---------------------------|--------------------------|
---------------0-----------|--------------------------|
--3--3-3-3--3-----3--2--1--|--0--0--0--0--0--0--4/-3--|



--------------------------|--------------------------|
--------------------------|--------------------------|
--------------------------|--------------------------|
--0--0--0--0--0--0--2/-1--|--0--0--0--0--0--0--7/-6--|



--------------------------|--------------------------|
--------------------------|--------------------------|
--------------------------|--------------------------|
--0--0--4/-3--0--0--6/-7--|--0--0--0--0--0--0--4/-3--|



--------------------------|--------------------------|
--------------------------|--------------------------|
--------------------------|--------------------------|
--0--0--0--0--0--0--2/-1--|--0--0--0--0--0--0--7/-6--|



--------------------------|-------------------------|--------------------------|
--------------------------|-------------------------|-----------------3--2--0--|
--------------------------|--------2----2h-0--------|-----2-----0--2-----------|
--0--0--4/-3--0--0--6/-7--|--0--0-------------0--0--|--0-----0-----------------|



-------------------------|--------------------------|-------------------------|
-------------------------|--------------------------|-------------------------|
--------2----2h-0-----0--|--------------0-----------|--------2----2h-0--------|
--0--0-------------0-----|----3-3-3--3-----3--2--1--|--0--0-------------0--0--|



--------------------------|-------------------------|
-----------------3--2--0--|-------------------------|
-----2-----0--2-----------|--------2----2h-0-----0--|
--0-----0-----------------|--0--0-------------0-----|



---------------------------|--------------------------|
---------------------------|--------------------------|
---------------0-----------|--------------------------|
--3--3-3-3--3-----3--2--1--|--0--0--0--0--0--0--4/-3--|



--------------------------|--------------------------|
--------------------------|--------------------------|
--------------------------|--------------------------|
--0--0--0--0--0--0--2/-1--|--0--0--0--0--0--0--7/-6--|



--------------------------|--------------------------|
--------------------------|--------------------------|
--------------------------|--------------------------|
--0--0--4/-3--0--0--6/-7--|--0--0--0--0--0--0--4/-3--|



--------------------------|--------------------------|
--------------------------|--------------------------|
--------------------------|--------------------------|
--0--0--0--0--0--0--2/-1--|--0--0--0--0--0--0--7/-6--|



--------------------------|-----------------------|--------------------------|
--------------------------|--------0----2----3----|--3--2--------3--2--------|
--------------------------|-----------------------|--------3--2--------------|
--0--0--4/-3--0--0--6/-7--|--0--0-----------------|--------------------0--0--|



-----------------------|--------------------------|-----------------------|
--------0----2----3----|--6--5--3--2-----------0--|--------0----2----3----|
-----------------------|--------------------------|-----------------------|
--0--0-----------------|--------------3--1--0-----|--0--0-----------------|



--------------------------|-----------------------|-----------------------|
--3--2--------3--2--------|--------0----2----3----|-----------------------|
--------3--2--------------|-----------------------|--5--5----0--0---------|
--------------------0--0--|--0--0-----------------|-----------------------|



--------------------------|-------------------------|--------------------------|
-----------------3--2--0--|-----------------2--3----|-----------------3--2--0--|
--------2-----2-----------|--------2-----2----------|--------2-----2-----------|
--0--0-----0--------------|--0--0-----0-------------|--0--0-----0--------------|



---------------------------|--------------------------|
---------------------------|-----------------3--2--0--|
---------------0-----------|--------2-----2-----------|
--3--3-3-3--3-----3--2--1--|--0--0-----0--------------|



-------------------------|--------------------------|
-----------------2--3----|-----------------3--2--0--|
--------2-----2----------|--------2-----2-----------|
--0--0-----0-------------|--0--0-----0--------------|



---------------------------|--------------------------|
---------------------------|--------------------------|
---------------0-----------|--------------------------|
--3--3-3-3--3-----3--2--1--|--0--0--0--0--0--0--4/-3--|



--------------------------|--------------------------|
--------------------------|--------------------------|
--------------------------|--------------------------|
--0--0--0--0--0--0--2/-1--|--0--0--0--0--0--0--7/-6--|



--------------------------|--------------------------|
--------------------------|--------------------------|
--------------------------|--------------------------|
--0--0--4/-3--0--0--6/-7--|--0--0--0--0--0--0--4/-3--|



--------------------------|--------------------------|
--------------------------|--------------------------|
--------------------------|--------------------------|
--0--0--0--0--0--0--2/-1--|--0--0--0--0--0--0--7/-6--|



--------------------------|------------9----7----|-----------------------|
--------------------------|---------9------------|--10--9----------------|
--------------------------|----------------------|-----------------------|
--0--0--4/-3--0--0--6/-7--|--0-------------------|-----------0--1--------|



------------9----7----|---------------------------|------------9----7----|
---------9------------|--10--9--------6-----------|---------9------------|
----------------------|---------7--8-----8--7--8--|----------------------|
--0-------------------|---------------------------|--0-------------------|



------10--------10--------|------------9----7----|
--10--------10------------|---------9------------|
--------------------------|----------------------|
--------------------------|--0-------------------|



------------------------------------|-------------------------|
--10--9-----------------------------|-------------------------|
---------------0--------------------|-------------------------|

---------1--2-----3--2--3--1--0--2--|--0--0--0--0--0--1----1--|



--------------1-----------|-------------------------|--------------------------|
--------2--3-----3--2--3--|-------------------------|--------------------------|
--------------------------|-------------------------|--------------1-----------|
--0--0--------------------|--0--0--0--0--0--1----1--|--0--3--2--3-----3--2--3--|



-------------------------|--------------1-----------|-------------------------|
-------------------------|--------2--3-----3--2--3--|-------------------------|
-------------------------|--------------------------|-------------------------|
--0--0--0--0--0--1----1--|--0--0--------------------|--0--0--0--0--0--1----1--|



--------------------------|----------------------------------------------|
--------------------------|----------------------------------------------|
--------------1-----------|--1--1-1-1-1-1--1-1-1-1-1--1-1-1-1-1--1-1-1-1-|
--0--3--2--3-----3--2--3--|----------------------------------------------|



------------------------------------------------|
------------------------------------------------|
--3--3-3-3-3-3--3-3-3-3-4-4-4-4-4-4-4-4-4-4-4-4-|
------------------------------------------------|



-------------------------------------------|
-------------------------------------------|
--5--5-5-5-5-5--5-5-5-5-5--5-5-5-5-5---3---|
-------------------------------------------|



----------------------------------------------|
----------------------------------------------|
--1--1-1-1-1-1--1-1-1-1-1--1-1-1-1-1--1-1-1-1-|
----------------------------------------------|



----------------------------------------------|
----------------------------------------------|
--3--3-3-3-3-3--3-3-3-3-4--4-4-4-4-4--4-4-4-4-|
----------------------------------------------|



----------------------------------------------|
----------------------------------------------|
--5--5-5-5-5-5--5-5-5-5-5--5-5-5-5-5--5-5-5-5-|
----------------------------------------------|



-------------------------------------------|
-------------------------------------------|
--5--5-5-5-5-5--5-5-5-5-5--5-5-5-5-5---3---|
-------------------------------------------|



----------------------------------------------|
----------------------------------------------|
--1--1-1-1-1-1--1-1-1-1-1--1-1-1-1-1--1-1-1-1-|
----------------------------------------------|



----------------------------------------------|
----------------------------------------------|
--3--3-3-3-3-3--3-3-3-3-4--4-4-4-4-4--4-4-4-4-|
----------------------------------------------|



----------------------------------------------|
----------------------------------------------|
--5--5-5-5-5-5--5-5-5-5-5--5-5-5-5-5--5-5-5-5-|
----------------------------------------------|



-------------------------------------------|
-------------------------------------------|
--5--5-5-5-5-5--5-5-5-5-5--5-5-5-5-5---3---|
-------------------------------------------|



----------------------------------------------|
----------------------------------------------|
--1--1-1-1-1-1--1-1-1-1-1--1-1-1-1-1--1-1-1-1-|
----------------------------------------------|



----------------------------------------------|
----------------------------------------------|
--3--3-3-3-3-3--3-3-3-3-4--4-4-4-4-4--4-4-4-4-|
----------------------------------------------|



----------------------------------------------|
----------------------------------------------|
--5--5-5-5-5-5--5-5-5-5-5--5-5-5-5-5--5-5-5-5-|
----------------------------------------------|



-------------------------------------------|
-------------------------------------------|
--5--5-5-5-5-5--5-5-5-5-5--5-5-5-5-5---3---|
-------------------------------------------|



----------------------------------------------|
----------------------------------------------|
--1--1-1-1-1-1--1-1-1-1-1--1-1-1-1-1--1-1-1-1-|
----------------------------------------------|



----------------------------------------------|
----------------------------------------------|
--3--3-3-3-3-3--3-3-3-3-4--4-4-4-4-4--4-4-4-4-|
----------------------------------------------|



---------------------------------------------|-----------------------------|
---------------------------------------------|-----------------------------|
--5--5-5-5-5-5---5---5-5-5-5-5-5-5-5-5-5-5-5-|--5------------------5---3---|
---------------------------------------------|-----------------------------|



---------------------------|----------------------------|
---------------------------|----------------------------|
--1------------------------|--3------------4------------|

---------------------------|----------------------------|



------------------------------|-------------------|------------------|
------------------------------|-------------------|------------------|
--5-------------1-------------|-------------------|------------------|
---------5-------------1------|--0----------------|------------------|



------------------|--------------------------|--------------------|
------------------|--------------------------|--------------------|
------------------|--------------0-----------|--------------------|
------------------|----3-3-3--3-----3--2--1--|--0--------------0--|



-------------------|-------------------|--------------------------|
-------------------|-------------------|--------------------------|
-------------------|-------------------|--------------0-----------|
--0----------------|--0----------------|----3-3-3--3-----3--2--1--|



--------------------------|-------------------------|--------------------------|
--------------------------|-------------------------|-----------------3--2--0--|
--1--1--1--1--1--1--1--1--|--1--1--1--1--1--1--1----|--------2-----2-----------|
--------------------------|-------------------------|--0--0-----0--------------|



-------------------------|--------------------------|
-----------------2--3----|-----------------3--2--0--|
--------2-----2----------|--------2-----2-----------|
--0--0-----0-------------|--0--0-----0--------------|



---------------------------|--------------------------|
---------------------------|-----------------3--2--0--|
---------------0-----------|--------2-----2-----------|
--3--3-3-3--3-----3--2--1--|--0--0-----0--------------|



-------------------------|--------------------------|
-----------------2--3----|-----------------3--2--0--|
--------2-----2----------|--------2-----2-----------|
--0--0-----0-------------|--0--0-----0--------------|



---------------------------|-------------------------|
---------------------------|-------------------------|
---------------0-----------|--------2----2--0--------|
--3--3-3-3--3-----3--2--1--|--0--0-------------0--0--|



--------------------------|-------------------------|--------------------------|
-----------------3--2--0--|-------------------------|--------------------------|
-----2-----0--2-----------|--------2----2--0--------|--------------0-----------|
--0-----0-----------------|--0--0-------------0--0--|----3-3-3--3-----3--2--1--|



-------------------------|--------------------------|-------------------------|
-------------------------|-----------------3--2--0--|-------------------------|
--------2----2--0--------|-----2-----0--2-----------|--------2----2--0--------|
--0--0-------------0--0--|--0-----0-----------------|--0--0-------------0--0--|



--------------------------|-----------------------|--------------------------|
--------------------------|--------0----2----3----|--3--2--------3--2--------|
--------------0-----------|-----------------------|--------3--2--------------|
----3-3-3--3-----3--2--1--|--0--0-----------------|--------------------0--0--|



-----------------------|--------------------------|-----------------------|
--------0----2----3----|--6--5--3--2-----------0--|--------0----2----3----|
-----------------------|--------------------------|-----------------------|
--0--0-----------------|--------------3--1--0-----|--0--0-----------------|



--------------------------|-----------------------|-------------------|
--3--2--------3--2--------|--------0----2----3----|--3----------------|
--------3--2--------------|-----------------------|-------------------|
--------------------0--0--|--0--0-----------------|-------------------|



-------------------|-------------------|--------------------------|
--2----------------|--0----------------|--------------------------|
-------------------|-------------------|--------------0-----------|
-------------------|-------------------|----3-3-3--3-----3--2--1--|



-------------------|------------------|------------------|------------------|
-------------------|------------------|------------------|------------------|
-------------------|------------------|------------------|------------------|
--0----------------|------------------|------------------|------------------|



------------------|------------------|------------------|------------------|
------------------|------------------|------------------|------------------|
------------------|------------------|------------------|------------------|
------------------|------------------|------------------|------------------|



------------------|------------------|------------------||
------------------|------------------|------------------||
------------------|------------------|------------------||
------------------|------------------|------------------||


Tabbed by Taz Mckell
comments
We did not receive enough feedback on this tab! Please rate:
print report bad tab
1 2 3 4 5
I want to post or [tab]
guest
You may want to rate the tab now too:
select rating
Please do not post tabs as comments. Select "correction" instead!