Oops, an error
Loading. Please wait.

Troubled Dreams Tab

ver1
ver1

Whole song

Interactive

More versions @911Tabs.com
671 views 6 this week
no commentswrite comment
1 2 3 4 5
excellent!
x 2
Autoscroll
+/-
esc
set tempo
stop
Contributor
Tuning
D# G# C# F# A# D#
WARNING: You are trying to view
                                    content from Ultimate-Guitar.com
                                    in an unauthorized application,
                                    which is prohibited.

                                    Please use an official Ultimate
                                    Guitar Tabs application for iPhone,
                                    iPad or Android to access legitimate
                                    chords, guitar, bass, and drum tabs
                                    from Ultimate-Guitar.com database.

                                    Type "ultimate guitar tabs" in Apple
                                    App Store's or Android Market's
                                    search to find the application.
#----------------------------------PLEASE NOTE---------------------------------#
#This file is the author's own work and represents their interpretation of the #
#song. You may only use this file for private study, scholarship, or research. #
#------------------------------------------------------------------------------#

TROUBLED DREAMS
As recorded by Testament
(From the 1992 Album RITUAL)

Transcribed by S. Fly Buss
        

Music by Eric Peterson and Alex Skolnick

Gtr I (Eb Ab Db Gb Bb Eb) - 'Untitled'
Gtr II (Eb Ab Db Gb Bb Eb) - 'Untitled'
Gtr III (Eb Ab Db Gb Bb Eb) - 'Untitled'

 Intro
  A5      (G)       E5               A5      (G)            E5
 4/4
  Gtr III
          ~         ~                        ~~~            ~~
   Q  E E Q   E E   W                 Q  E E Q       E  E   W
|-----------------|----------------|----------------------|---------------|
|-----------------|----------------|----------------------|---------------|
|-----------------|----------------|-----------------7----|-9-------------|
|-10--9-7-9-----7-|----------------|-10--9-7-9------------|---------------|
|------------10---|-7--------------|-------------------10-|---------------|
|-----------------|----------------|----------------------|---------------|
|
| Gtrs I, II
|         ~   PM|      PM    PM--|                   PM|
|  Q  E E Q   E E   Q  E E E E E E    Q  E E E.  +S  E  E   H.        Q
|-----------------|------0---------|----------------------|---------------|
|-----------------|------0---------|----------------------|---------------|
|--2--------------|------9---------|--2-------------------|---------------|
|--2--------------|-2----9---------|--2-------------------|-2-------------|
|--0--2-3---------|-2----7---7-7---|--0--2-3--------------|-2-------------|
|---------3---3-1-|-0--0-----0-0-0-|---------3b5-(3)-3--1-|-0-------/15\--|


  E5              A5A#5     (F5)E5              C5      A#5
    ~~~~~~~~~~~~~~~~~~~~~~~~~~~~~~~~~~
   +W                            +W
|-----------------------------|---------------------------|
|-----------------------------|---------------------------|
|-([9])-----------------------|-([9])---------------------|
|-----------------------------|---------------------------|
|-----------------------------|---------------------------|
|-----------------------------|---------------------------|
|
|                     |-3-|
|   E   S S E S S E E S S S E     E   S S E S S E S S E E
|-----------------------------|---------------------------|
|-----------------------------|---------------------------|
|---9---x-x-9-x-x-------------|---9---x-x-9-x-x-5-------3-|
|---9---x-x-9-x-x-2-3---------|---9---x-x-9-x-x-5-------3-|
|---7---x-x-7-x-x-0-1-0h2p0---|---7---x-x-7-x-x-3-2-0---1-|
|---0---x-x-0-x-x-----------1-|---0---x-x-0-x-x-------3---|


  E5          A5A#B5  (F5)C5B5  G5B5A#5 (FA5F5
  Gtrs I, II
                      PM        PM      PM
  E S S E S S E E S S E   E S S E E S S E E E
|-----------------------|---------------------|
|-----------------------|---------------------|
|-9-x-x-9-x-x-----------|---------------------|
|-9-x-x-9-x-x-2-3-4-----|-5-4-----4-3-----2---|
|-7-x-x-7-x-x-0-1-2p0---|-3-2p0-5-2-1p0---0-3-|
|-0-x-x-0-x-x---------1-|-------3-------2---1-|


    $
    E5    E5    A5A#B5  F5  E5    E5    C5B5  G5A#5
      PM|   PM|               PM|   PM|
    E S S E S S E E S S E   E S S E S S E S S E E
||------------------------|-----------------------|
||o-----------------------|-----------------------|
||--------------2-3-4-----|-------------5-4-----3-|
||--2-----2-----2-3-4---3-|-2-----2-----5-4---5-3-|
||o-2-----2-----0-1-2p0-3-|-2-----2-----3-2p0-5-1-|
||--0-0-0-0-0-0---------1-|-0-0-0-0-0-0-------3---|


  1.
  E5    E5    A5A#B5  F5  C5B5  G5B5A#5 (FA5F5
    PM|   PM|                   PM      PM
  E S S E S S E E S S E   E S S E E S S E E E
|-----------------------|----------------------||
|-----------------------|---------------------o||
|-------------2-3-4-----|-5-4-----4-3-----2----||
|-2-----2-----2-3-4---3-|-5-4-----4-3-----2-3--||
|-2-----2-----0-1-2p0-3-|-3-2p0-5-2-1p0---0-3-o||
|-0-0-0-0-0-0---------1-|-------3-------2---1--||


  2.
  E5    E5    A5A#B5  F5  C5      (GB5    (FA5F5
    PM|   PM|                     PM      PM  PM
                            |-3-|
  E S S E S S E E S S E   E S S S E E S S E E E
|-----------------------|-----------------------|
|-----------------------|-----------------------|
|-------------2-3-4-----|-5---------4-------2---|
|-2-----2-----2-3-4---3-|-5---------4-------2---|
|-2-----2-----0-1-2p0-3-|-3-2h3p2---2-1p0---0-3-|
|-0-0-0-0-0-0---------1-|---------3-------2---1-|


  E5
            7/8
  W          +H     +E  S S S S
|----------|--------------------|
|----------|--------------------|
|----------|--------------------|
|-2--------|-(2)----(2)-2p0-----|
|-2--------|-(2)----(2)-----2p0-|
|-0--------|-(0)----(0)---------|
|
| Gtr II
| W          +H     +E  S S S S
|----------|--------------------|
|----------|--------------------|
|----------|--------------------|
|-2--------|-(2)----(2)-2p0-----|
|-2--------|-(2)----(2)-----2p0-|
|-0--------|-(0)----(0)---------|


  E5              N.C.
 4/4
                                       PM--|
  W                E.  S  +E  E +S  E. S S S S
|---------------|-12--10-(10)-6-(6)-5----------||
|---------------|------------------------------||
|---------------|--9---7--(7)-3-(3)-2----------||
|-2-------------|------------------------------||
|-2-------------|------------------------------||
|-0-------------|----------------------3-3-5-5-||
|
|                                      PM----|
| H.      +E. S   +E.  S  +E  E +S  E. S S S S
|---------------|------------------------------||
|---------------|------------------------------||
|---------------|------------------------------||
|-2-------(2)---|------------------------------||
|-2-------(2)-7-|-(7)--5--(5)------------------||
|-0-------(0)---|-------------6-(6)-5--3-3-5-5-||


   Verses I,II & III
    E5                          E5          C5B5  G5A#5
      PM--------------------|     PM------|
    E S S E S S E S S S S S S   E S S E S S E S S E E
||----------------------------|-----------------------|
||o---------------------------|-----------------------|
||----------------------------|-------------5-4-----3-|
||--2-------------------------|-2-----------5-4---5-3-|
||o-2-----2-----2-----2-1-----|-2-----2-----3-2p0-5-1-|
||--0-0-0-0-0-0-0-0-0-----3p0-|-0-0-0-0-0-0-------3---|


  E5                          E5
    PM--------------------|     PM----------------------|
  E S S E S S E S S S S S S   E S S E S S S S S S S S S S
|---------------------------|------------------------------|
|---------------------------|------------------------------|
|---------------------------|------------------------------|
|-2-------------------------|-2----------------------------|
|-2-----2-----2-----2-1-----|-2-----2----------------------|
|-0-0-0-0-0-0-0-0-0-----3p0-|-0-0-0-0-0-0-3-3-3-2-2-2-3-3--|


  E5                          E5          C5B5  G5Bb5
    PM--------------------|     PM------|
  E S S E S S E S S S S S S   E S S E S S E S S E E
|---------------------------|-----------------------|
|---------------------------|-----------------------|
|---------------------------|-------------5-4-----3-|
|-2-------------------------|-2-----------5-4---5-3-|
|-2-----2-----2-----2-1-----|-2-----2-----3-2p0-5-1-|
|-0-0-0-0-0-0-0-0-0-----3p0-|-0-0-0-0-0-0-------3---|


  E5                          E5
    PM--------------------|     PM------|
  E S S E S S E S S S S S S   E S S E E E E   Q
|---------------------------|---------------------||
|---------------------------|---------------------||
|---------------------------|---------------------||
|-2-------------------------|-2-------------------||
|-2-----2-----2-----2-1-----|-2-----2-2-2---------||
|-0-0-0-0-0-0-0-0-0-----3p0-|-0-0-0-0-0-0---/15\--||


 Chorus
  E5  F#F5E5F5F#E5    B5      A#5   F5  A#5
  Gtrs I, II
    PM    PM|   PM|
  E E E E E E E S S   E.S S S E +E  S S E S S
|-------------------|-------------------------|
|-------------------|-------------------------|
|-------------------|-4-------3-(3)-----3---3-|
|-------------------|-4-------3-(3)-----3---3-|
|-2---4s3-2-3-4-2-2-|-2p0-----1-(1)-3-3-1---1-|
|-0-1-2s1-0-1-2-0-0-|-----2p0-------1-1---1---|


  E5  F#F5E5F5F#E5    B5 D5A#5
  Gtr I
    PM    PM|   PM|              PM---------|
  E E E E E E E S S   Q  E E +E  S S S  S S  S
|-------------------|--------------------------|
|-------------------|----3---------------------|
|-------------------|-4--2-3-(3)---------------|
|-------------------|-4--0-3-(3)---------------|
|-2---4s3-2-3-4-2-2-|-2----1-(1)-1-2p1---------|
|-0-1-2s1-0-1-2-0-0-|-------------------3-2h=3-|
|
| Gtr II
|   PM    PM|   PM|              PM---------|
| E E E E E E E S S   Q  E E +E  S S S  S S  S
|-------------------|--------------------------|
|-------------------|--------------------------|
|-------------------|-4--7---------------------|
|-------------------|-4--7-8-(8)-8-9p8---------|
|-2---4s3-2-3-4-2-2-|-2--5-8-(8)-------10-9h10-|
|-0-1-2s1-0-1-2-0-0-|------6-(6)---------------|


  E5  F#F5E5F5F#E5    B5      A#5   F5  A#5
  Gtrs I, II
    PM    PM|   PM|
  E E E E E E E S S   E.S S S E +E  S S E S S
|-------------------|-------------------------|
|-------------------|-------------------------|
|-------------------|-4-------3-(3)-----3---3-|
|-------------------|-4-------3-(3)-----3---3-|
|-2---4s3-2-3-4-2-2-|-2p0-----1-(1)-3-3-1---1-|
|-0-1-2s1-0-1-2-0-0-|-----2p0-------1-1---1---|


                               To Coda
  E5  F#5 E5F5F#E5    B5  E5D         A/C#
  Gtr I
    PM    PM|   PM|
  E E E E E E E S S   E.S E E +E  E   Q
|-------------------|--------------------||
|-------------------|-------7-(7)-----5--||
|-------------------|-4-----7-(7)-----6--||
|-------------------|-4-----7-(7)-----7--||
|-2---4s3-2-3-4-2-2-|-2p0-2-5-(5)-4---4--||
|-0-1-2s1-0-1-2-0-0-|-----0--------------||
|
| Gtr II
|   PM    PM|   PM|
| E E E E E E E S S   E.S E E +E  S S Q
|-------------------|--------------------||
|-------------------|-------7-(7)-x-x-2--||
|-------------------|-4-----7-(7)-x-x-2--||
|-------------------|-4-----7-(7)-x-x-2--||
|-2---4s3-2-3-4-2-2-|-2p0-2-5-(5)-----4--||
|-0-1-2s1-0-1-2-0-0-|-----0--------------||


  1.
  E5          A5A#5   F5  E5          C5B5  G5A#5
  Gtrs I, II
    PM|   PM|               PM|   PM|
  E S S E S S E E S S E   E S S E S S E S S E E
|-----------------------|-----------------------|
|-----------------------|-----------------------|
|-------------2-3-4-----|-------------5-4-----3-|
|-2-----2-----2-3-4---3-|-2-----2-----5-4---5-3-|
|-2-----2-----0-1-2p0-3-|-2-----2-----3-2p0-5-1-|
|-0-0-0-0-0-0---------1-|-0-0-0-0-0-0-------3---|


  E5          A5A#B5  F5  C5B5  G5B5A#5   A5F5
    PM|   PM|                   PM      PM
  E S S E S S E E S S E   E S S E E S S E E E
|-----------------------|----------------------||
|-----------------------|---------------------o||
|-------------2-3-4-----|-5-4-----4-3-----2----||
|-2-----2-----2-3-4---3-|-5-4-----4-3-----2-3--||
|-2-----2-----0-1-2p0-3-|-3-2p0-5-2-1p0---0-3-o||
|-0-0-0-0-0-0---------1-|-------3-------2---1--||


 Bridge
  2.
  $$
          E5    F#5G5 F#5  F5             E5           G5
  Gtr III
    H            Q.          E    +Q.        E   +H
|------------------------------|------------------------------------|
|-/12-----------11----------10-|-(10)--------8---(8)----------------|
|------------------------------|------------------------------------|
|--/7------------8-----------7-|--(7)--------5---(5)----------------|
|------------------------------|------------------------------------|
|------------------------------|------------------------------------|
|
| Gtrs I, II
|   PM--|   PM|          PM           PM|         PM---|
|   E S S E S S  S  S  E E   E    +E  S S E +E    S  S  E  S S S  S
|------------------------------|------------------------------------|
|------------------------------|------------------------------------|
|---------9-----11s12s11---/10-|-(10)-----9-(9)\-------12\----------|
|---------9-----11s12s11---/10-|-(10)-----9-(9)\-------12\-7h8p7----|
|---7-----7------9s10s=9----/8-|--(8)-----7-(7)\-------10\-------10-|
|---0-0-0-0-0-0----------0-----|------0-0---------0--0--------------|


          E5    F#5G5 F#5  F5             E5       A#5  A5
    H            Q.          E    +W
|------------------------------|---------------------------|
|-/12-----------11----------10-|-(10)----------------------|
|------------------------------|---------------------------|
|--/7------------8-----------7-|--(7)----------------------|
|------------------------------|---------------------------|
|------------------------------|---------------------------|
|
|   PM--|   PM|          PM           PM|
|   E S S E S S  S  S  E E   E    +E  S S E +E   S E. S E.
|------------------------------|---------------------------|
|------------------------------|---------------------------|
|---------9-----11s12s11---/10-|-(10)-----9-(9)\-----------|
|---------9-----11s12s11---/10-|-(10)-----9-(9)\---8----7--|
|---7-----7------9s10s=9----/8-|--(8)-----7-(7)\---8----7--|
|---0-0-0-0-0-0----------0-----|------0-0--------0-6--0-5--|


                                               D.S. al Coda
          E5    F#5G5 F#5  F5             E5
    H            Q.          E    +Q.        E   +H
|------------------------------|---------------------------------|
|-/12-----------11----------10-|-(10)--------8---(8)-------------|
|------------------------------|---------------------------------|
|--/7------------8-----------7-|--(7)--------5---(5)-------------|
|------------------------------|---------------------------------|
|------------------------------|---------------------------------|
|
|   PM--|   PM|          PM           PM|         PM-|
|   E S S E S S  S  S  E E   E    +E  S S E +E    S  S E S S S S
|------------------------------|---------------------------------|
|------------------------------|---------------------------------|
|---------9-----11s12s11---/10-|-(10)-----9-(9)\-----------------|
|---------9-----11s12s11---/10-|-(10)-----9-(9)\-------5-7h8p7p5-|
|---7-----7------9s10s=9----/8-|--(8)-----7-(7)\-----------------|
|---0-0-0-0-0-0----------0-----|------0-0---------0--0-----------|


          E5    F#5G5 F#5  A5           (G)
    H            E     E E E    +W
|----------------------------||---------------------|
|-/12-----------11s===10-8-8-||-(8)-----------------|
|----------------------------||---------------------|
|--/7------------8s====7-5-5-||-(5)-----------------|
|----------------------------||---------------------|
|----------------------------||---------------------|
|
|   PM--|   PM|                         ~
|   E S S E S S  S  S  E E E    +E  E E E +E  E E E
|----------------------------||---------------------|
|----------------------------||---------------------|
|---------9-----11s12s11---2-||-(2)-----------------|
|---------9-----11s12s11---2-||-(2)-----------------|
|---7-----7------9s10s=9---0-||-(0)-2-3-------------|
|---0-0-0-0-0-0--------------||---------3-(3)-3-2-0-|


        E5        A5          (G)   G5F#E5
   W                   W
|-------------------|----------------------|
|-------------------|----------------------|
|-------------------|----------------------|
|-------------------|----------------------|
|-------------------|----------------------|
|-------------------|----------------------|
|
|                             ~
| +E  E E E E E E E   +E  E E E +E  E E E
|-------------------|----------------------|
|-------------------|----------------------|
|-------9---------2-|-(2)------------------|
|-------9---------2-|-(2)-----------5-4-2--|
|-------7---------0-|-(0)-2-3-------5-4-2--|
|-(0)-0---0-0-0-3---|---------3-(3)-3-2-0--|


                  A5          (G)   G5F5E5
  Gtrs I, II
                              ~~~~~~
  +E  E E E E E E E   +E  E E E +E  E E E
|-------------------|-------------------0-|
|-------------------|-------------------0-|
|-----------------2-|-(2)---------------9-|
|-(2)-------------2-|-(2)---------------9-|
|-(2)-------------0-|-(0)-2-3-------5-3-7-|
|-(0)-0-0-0-0-0-0---|---------3-(3)-3-1-0-|


                                To Dbl. Coda
                      A5          (G)   G5F5E5
                                  ~~~~~~
  +E  E E E E E E     E   +E  E E E +E  E E E
|-(0)-------------------|---------------------||
|-(0)-------------------|---------------------||
|-(9)-----------------2-|-(2)-----------------||
|-(9)-----------------2-|-(2)---------------2-||
|-(7)-----------------0-|-(0)-2-3-------5-3-2-||
|-(0)-0-0-0-0-0-3b3.5---|---------3-(3)-3-1-0-||


          E5    A5A#B5  F5  E5          C5B5  G5A#5
      PM|   PM|               PM|   PM|
  +E  S S E S S E E S S E   E S S E S S E S S E E
|-------------------------|-----------------------|
|-------------------------|-----------------------|
|---------------2-3-4-----|-------------5-4-----3-|
|-(2)-----2-----2-3-4---3-|-2-----2-----5-4---5-3-|
|-(2)-----2-----0-1-2p0-3-|-2-----2-----3-2p0-5-1-|
|-(0)-0-0-0-0-0---------1-|-0-0-0-0-0-0-------3---|


  E5          A5A#B5  F5  C5B5  G5B5A#5   A5F5
    PM|   PM|                   PM      PM
  E S S E S S E E S S E   E S S E E S S E E E
|-----------------------|---------------------|
|-----------------------|---------------------|
|-------------2-3-4-----|-5-4-----4-3-----2---|
|-2-----2-----2-3-4---3-|-5-4-----4-3-----2-3-|
|-2-----2-----0-1-2p0-3-|-3-2p0-5-2-1p0---0-3-|
|-0-0-0-0-0-0---------1-|-------3-------2---1-|


  E5          A5A#B5  F5  E5          C5B5  G5A#5
    PM|   PM|               PM|   PM|
  E S S E S S E E S S E   E S S E S S E S S E E
|-----------------------|-----------------------|
|-----------------------|-----------------------|
|-------------2-3-4-----|-------------5-4-----3-|
|-2-----2-----2-3-4---3-|-2-----2-----5-4---5-3-|
|-2-----2-----0-1-2p0-3-|-2-----2-----3-2p0-5-1-|
|-0-0-0-0-0-0---------1-|-0-0-0-0-0-0-------3---|


  E5          A5A#B5  F5
  W
|-----------------------|
|-----------------------|
|-----------------------|
|-----------------------|
|-----------------------|
|-----------------------|
|
| Gtrs I, II
|   PM|   PM|
| E S S E S S E E S S E
|-----------------------|
|-----------------------|
|-------------2-3-4-----|
|-2-----2-----2-3-4---3-|
|-2-----2-----0-1-2p0-3-|
|-0-0-0-0-0-0---------1-|


  C5       B5         G5       B5       A#5                 A5       F5
   |--3--|  |---3---|  |--3--|  |--3--|  |---3---|  |--3--|  |--3--|  |--3--|
   S  S  S  S  S    S  S  S  S  S  S  S  S  S    S  S  S  S  S  S  S  S  S  S
|------------------------------------------------------------------------------||
|--------------------------------------------------------------12-14-15-14-12--||
|---------------------------11-12-11------------------11-12-14-----------------||
|---------------------12-14----------14-12-11---12-14--------------------------||
|----------12-14---15----------------------------------------------------------||
|-12-14-15---------------------------------------------------------------------||
|
|                      PM                           PM
|  E        S    S     E        E        S    S     E        E        E
|------------------------------------------------------------------------------||
|------------------------------------------------------------------------------||
|--5--------4-------------------4--------3-------------------2-----------------||
|--5--------4-------------------4--------3-------------------2--------3--------||
|--3--------2p===0-----5--------2--------1p===0--------------0--------3--------||
|----------------------3----------------------------2-----------------1--------||


 Guitar Solo
  E5
                        ~~~~~~~~~
   S     +E.      S  S  E    +E   S  S  S     +E.
|-----------------------------------------------------|
|-15b17-(15)-----15p12-15---(15)-12-12-14b15-(14)-----|
|-----------------------------------------------------|
|-----------------------------------------------------|
|-----------------------------------------------------|
|-----------------------------------------------------|
|
|            PM-------------------------------------|
|  E         S S  E     S S   E   S  S  S      S  S S
|-----------------------------------------------------|
|-----------------------------------------------------|
|-----------------------------------------------------|
|--2--------------------------------------------------|
|--2--------------2-----------2---------2------1------|
|--0---------0-0--0-----0-0---0---0--0------------3p0-|


  E5                                C5   B5  G5A#5
                                      ~~~~
   S     +S   S  S     +S   S  S  S   Q.         +E
|-----------------------------------------------------|
|-14b15r(14)p12---------------------------------------|
|---------------14b15r(14)p12----14-[12]-------([12])-|
|-----------------------------14----------------------|
|-----------------------------------------------------|
|-----------------------------------------------------|
|
|             PM-----------------|
|  E          S  S      E      S  S   E  S S E    E
|-----------------------------------------------------|
|-----------------------------------------------------|
|-------------------------------------5--4--------3---|
|--2----------------------------------5--4---5----3---|
|--2--------------------2-------------3--2p0-5----1---|
|--0----------0--0------0------0--0----------3--------|


  E5
                       \1/                   \1/
   |--3--|  |---3---|  |---3---|  |---3---|  |---3---|  |---3---|
   S  S  S  S  S    S  S    S  S  S  S    S  S    S  S  S  S    S  S     +S   S  S
|----------------------------------------------------------------------------------|
|-11s12h15p12h15p==12h15p==12h15p12h15p==12h15p==12h15p12h15p==12------------------|
|-----------------------------------------------------------------14b16r(14)p12----|
|-------------------------------------------------------------------------------14-|
|----------------------------------------------------------------------------------|
|----------------------------------------------------------------------------------|
|
|           PM------------------------------------------------------------------|
|  E        S    S     E          S    S     E          S    S     S      S   S  S
|----------------------------------------------------------------------------------|
|----------------------------------------------------------------------------------|
|----------------------------------------------------------------------------------|
|--2-------------------------------------------------------------------------------|
|--2-------------------2---------------------2---------------------2------1--------|
|--0--------0----0-----0----------0----0-----0----------0----0----------------3p=0-|


  E5
                       ~~~~~~~~~
   S  S  S   S   S  S  E    +E.      +S   E    S     S
|--------------------------------------------------------|
|---------------------------------------------------12---|
|-14p12----[12]-------------------------------14b16------|
|-------14------14p12-14---(14)-----(14)\----------------|
|--------------------------------------------------------|
|--------------------------------------------------------|
|
|        PM-----------------------------------------|
|  E     S   S   E     S S   S  S S   S   S S  S     S
|--------------------------------------------------------|
|--------------------------------------------------------|
|--------------------------------------------------------|
|--2-----------------------------------------------------|
|--2-------------2---------------------------------------|
|--0-----0---0---0-----0-0---3--3-3---2---2-2--3-----3---|


  E5
                                                           ~~~~~~~~~
   S  S  S      +S   +E.       +S   S     +S   S  S  S  S  E
|-12----15b17==(15)-(15)b19---(15)-15b18r(15)-12-------12----------|
|----12-15b17==(15)-(15)b19---(15)---------------12-15----15b17====|
|------------------------------------------------------------------|
|------------------------------------------------------------------|
|------------------------------------------------------------------|
|------------------------------------------------------------------|
|
|        PM------------------------------------------------------|
|  E     S       S    E     S   S   E          S  S  S  S  S     S
|------------------------------------------------------------------|
|------------------------------------------------------------------|
|------------------------------------------------------------------|
|--2---------------------------------------------------------------|
|--2------------------2-------------2----------------2--1----------|
|--0-----0-------0----0-----0---0---0----------0--0--------3p====0-|


  E5                           C5     B5  G5   A#5
 ~~~~~~~
         |---3---|
   +E    S  S    S  S  S  S  S  S  E.      +E   T  T  T  T
|-------12----------------------------------------------12--|
|-(15)r----15p==12-----------------------------------12-----|
|------------------15p14p12----14-12------(12)----12--------|
|---------------------------14-14-12------(12)-14-----------|
|-----------------------------------------------------------|
|-----------------------------------------------------------|
|
|        PM-----------------|
|   E    S    S     E     S  S  E     S S   E   E
|-----------------------------------------------------------|
|-----------------------------------------------------------|
|-------------------------------5-----4---------3-----------|
|---2---------------------------5-----4-----5---3-----------|
|---2---------------2-----------3-----2p0---5---1-----------|
|---0----0----0-----0-----0--0--------------3---------------|


  E5
                                                     |---3---|
   E  T  T  T  T  E  T  T  T  T  E  T  T  T  T  E    S  S    S
|-17-15----------15-12----------12-------------10--------------|
|-------17p15----------15p12-------15p12------------12p10------|
|-------------16-------------15----------14p12--------------12-|
|--------------------------------------------------------------|
|--------------------------------------------------------------|
|--------------------------------------------------------------|
|
|     PM--------------------------------------------------|
|  E  S     S     E  S     S     E  S     S     S S  S    S
|--------------------------------------------------------------|
|--------------------------------------------------------------|
|--------------------------------------------------------------|
|--2-----------------------------------------------------------|
|--2--------------2--------------2--------------2-1------------|
|--0--0-----0-----0--0-----0-----0--0-----0----------3p===0----|


  E5
                                  |-3-|
   S  S  S  S  S  S  S  S  E  E E S S S
|-------------------------------------x-|
|-12--------------------------------x---|
|----15p14p12----------12---------x-----|
|-------------14p12-------14\-----------|
|-------------------14------------------|
|---------------------------------------|
|
|        PM---------------|
|  E     S  S  E     E     E  E Q
|---------------------------------------|
|---------------------------------------|
|---------------------------------------|
|--2------------------------------------|
|--2-----------2-----2-----2------------|
|--0-----0--0--0-----0-----0------------|


             E5        F#5   G5 F#5  F5
                                       \1/
   ~~~~~~~~~~~~~~~~
   Q          +Q        Q.             E
|-17b19======(17)r-----17b18----------17---|
|------------------------------------------|
|------------------------------------------|
|------------------------------------------|
|------------------------------------------|
|------------------------------------------|
|
|  PM------|       PM|             PM
|  E     S S   E   S S  S     S  E E   E
|------------------------------------------|
|------------------------------------------|
|--------------9-------11s===12s11---/10---|
|--------------9-------11s===12s11---/10---|
|--7-----------7--------9s===10s=9----/8---|
|--0-----0-0---0---0-0-------------0-------|


              E5                    G5
                                     |--3---|  |---3---|  |---3----|
   +Q          +S   +S   E    +E     S   S  S  S  S    S  S  S     S
|-(17)b19-----(17)-(17)-15---(15)---------------------------15h===17-|
|-----------------------------------17p=15-17p15------15h17----------|
|------------------------------------------------16------------------|
|--------------------------------------------------------------------|
|--------------------------------------------------------------------|
|--------------------------------------------------------------------|
|
|         PM|                  PM---|
|  +E     S S   E       +E     S  S  E         S    S     S     S
|--------------------------------------------------------------------|
|--------------------------------------------------------------------|
|-(10)----------9-------(9)\--------12\------------------------------|
|-(10)----------9-------(9)\--------12\--------7h===8p====7----------|
|--(8)----------7-------(7)\--------10\------------------------10----|
|---------0-0------------------0--0----------------------------------|


             E5        F#5   G5 F#5  F5
                        ~~~~~
   Q          +Q        Q.             E
|-17b19======(17)r-----17b18----------17-|
|----------------------------------------|
|----------------------------------------|
|----------------------------------------|
|----------------------------------------|
|----------------------------------------|
|
|  PM------|       PM|             PM
|  E     S S   E   S S  S     S  E E   E
|----------------------------------------|
|----------------------------------------|
|--------------9-------11s===12s11---/10-|
|--------------9-------11s===12s11---/10-|
|--7-----------7--------9s===10s=9----/8-|
|--0-----0-0---0---0-0-------------0-----|


                  E5               A#5          A5
        |---3---|
   +E   S  S    S  S  S  S    S  S  S   S  S  S  S   S  S
|-(17)-15h17p==15s14--------------------------------------|
|--------------------17-15---14---------------------------|
|-------------------------------16-14--12-----------12h14-|
|-----------------------------------------14-12h14--------|
|---------------------------------------------------------|
|---------------------------------------------------------|
|
|       PM---|
|  +E   S    S     E    +E       S  E.        S  E.
|---------------------------------------------------------|
|---------------------------------------------------------|
|-(10)-------------9----(9)\------------------------------|
|-(10)-------------9----(9)\--------8------------7--------|
|--(8)-------------7----(7)\--------8------------7--------|
|-------0----0-------------------0--6---------0--5--------|


             E5        F#5   G5 F#5  F5
   Q          +Q        Q.             E
|--------------------------------------------|
|-12---------(12)------11-------------10-----|
|-14b16======(14)r-----13b15----------12b14==|
|--------------------------------------------|
|--------------------------------------------|
|--------------------------------------------|
|
|  PM------|       PM|             PM
|  E     S S   E   S S  S     S  E E   E
|--------------------------------------------|
|--------------------------------------------|
|--------------9-------11s===12s11---/10-----|
|--------------9-------11s===12s11---/10-----|
|--7-----------7--------9s===10s=9----/8-----|
|--0-----0-0---0---0-0-------------0---------|


           E5
                                  |--3--|  |--3--|  |---3---|  |---3---|
   +Q       +S       +S     E    +E     S  S  S  S  S  S    S  S  S    S
|-------------------------------------------------------------------------|
|-(10)-----(10)-----(10)---------------12-15p13p12--------------------12--|
|-(12)-----(12)b16==(12)r-[12]--(12)---------------14p12------12h14-------|
|----------------------------------------------------------14-------------|
|-------------------------------------------------------------------------|
|-------------------------------------------------------------------------|
|
|      PM|                        PM-|
|  +E  S S   E             +E     S  S     E        S    S     S    S
|-------------------------------------------------------------------------|
|-------------------------------------------------------------------------|
|-(10)-------9-------------(9)\-------------------------------------------|
|-(10)-------9-------------(9)\------------5--------7h===8p====7p===5-----|
|--(8)-------7-------------(7)\-------------------------------------------|
|------0-0------------------------0--0------------------------------------|


             E5         F#5   G5 F#5   A5              (G)
                                                        ~~~~~~~
   Q          +E.     S  E        E  E  E    +E   E  E  E  +E   E  E  E
|-----------------------------------------|-----------------------------|
|--------------------15-------------------|------12-13------------------|
|-14b16======(14)r------14b16----14-12-14-|-(14)-------12-(12)-12-10----|
|-----------------------------------------|--------------------------14-|
|-----------------------------------------|-----------------------------|
|-----------------------------------------|-----------------------------|
|
|  PM------|       PM|                                  ~~
|  E     S S   E   S  S  S     S  E  E  E    +E   E  E  E  +E   E  E  E
|-----------------------------------------|-----------------------------|
|-----------------------------------------|-----------------------------|
|--------------9--------11s===12s11-----2-|--(2)------------------------|
|--------------9--------11s===12s11-----2-|--(2)------------------------|
|--7-----------7---------9s===10s=9-----0-|--(0)--2--3------------------|
|--0-----0-0---0---0--0-------------------|-------------3--(3)--3--2--0-|


             E5                            A5              (G)       G5   F#E5
                                                             ~~~~~~~~       ~
   +E   S  S  S  S  S  S  S  S  S  S  S  S  E    +E   E  E   E   +E    E  E E
|---------------------------------------------|-------------------------------|
|---------------------------------------------|-------------------------------|
|---------------------------------------------|-------------------------------|
|-(14)-14-12----------------------------------|-------------------------------|
|------------14p13-12----12h13p12----------12-|-(12)-14-15-[10]-(10)-[10]-8-7-|
|---------------------15----------15-12h15----|-------------------------------|
|
|                                                            ~~~~
|  +E   E     E     E     E     E     E     E    +E   E  E   E   +E    E  E E
|---------------------------------------------|-------------------------------|
|---------------------------------------------|-------------------------------|
|-------------9-----------------------------2-|--(2)--------------------------|
|-------------9-----------------------------2-|--(2)-------------------5--4-2-|
|-------------7-----------------------------0-|--(0)--2--3-------------5--4-2-|
|--(0)--0-----------0-----0-----0-----3-------|--------------3---(3)---3--2-0-|


  E5                                        A5              (G)     G5 F5E5
                                                             ~~~~~~~     ~
      |-3--| |3| |--3--| |3|  |--3--|
  +E  S S  S E S S  S  S E S  S  S  S  S  S   E     +E  E E  E  +E   E E E
|------------------------------------------------|-------------------------|
|------------------------------------------------|-------------------------|
|------------------------------------------------|-------------------------|
|------------7-----------9------------10-12-[10]-|-(10)-9-7-[9]-(9)--------|
|-(7)-7h9h10---7s9h10h12---9s10h12h14------------|------------------10-8-7-|
|------------------------------------------------|-------------------------|
|
|                                                            ~~~~~~~
|  E  E      E   E       E    E        E      E     +E  E E  E  +E   E E E
|------------------------------------------------|-----------------------0-|
|------------------------------------------------|-----------------------0-|
|---------------------------------------------2--|--(2)------------------9-|
|--2------------------------------------------2--|--(2)------------------9-|
|--2------------------------------------------0--|--(0)-2-3----------5-3-7-|
|--0--0------0---0-------0----0--------0---------|-----------3--(3)--3-1-0-|


                                 A5            (G)   G5F5E5
                                  ~~~~~~~~~    ~~~~~~    ~
  +E   E   E   E   E   E   E      E    +E  E E E +E  E E E
|-----------------------------------|----------------------|
|-----------------------------------|------------------8---|
|-----------------------------------|----------------7---9-|
|--------------------------------10-|-(10)-9-7-9-(9)-------|
|-(7)-[7]-[7]-[7]-[7]-[7]-[7]-------|----------------------|
|-----------------------------------|----------------------|
|
|                                              ~~~~~~
| +E   E   E   E   E   E   E      E    +E  E E E +E  E E E
|-(0)-------------------------------|----------------------|
|-(0)-------------------------------|----------------------|
|-(9)-----------------------------2-|--(2)-----------------|
|-(9)-----------------------------2-|--(2)---------------2-|
|-(7)-----------------------------0-|--(0)-2-3-------5-3-2-|
|-(0)--0---0---0---0---0---3b3.5----|----------3-(3)-3-1-0-|


  E5
              7/8
   ~~~
  +W           +H     +Q.
|------------|--------------------|
|------------|--------------------|
|-(9)--------|-(9)----(9)---------|
|------------|--------------------|
|------------|--------------------|
|------------|--------------------|
|
|  W           +H     +E  S S S S
|------------|--------------------|
|------------|--------------------|
|------------|--------------------|
|--2---------|-(2)----(2)-2p0-----|
|--2---------|-(2)----(2)-----2p0-|
|--0---------|-(0)----(0)---------|


  E5               N.C.
 4/4
                                        PM--|
  +W                E.  S  +E  E +S  E. S S S S
|----------------|-12--10-(10)-6-(6)-5----------||
|----------------|------------------------------||
|-(9)------------|--9---7--(7)-3-(3)-2----------||
|----------------|------------------------------||
|----------------|------------------------------||
|----------------|----------------------3-3-5-5-||
|
|                                       PM----|
|  H.      +E. S   +E.  S  +E  E +S  E. S S S S
|----------------|------------------------------||
|----------------|------------------------------||
|----------------|------------------------------||
|--2-------(2)---|------------------------------||
|--2-------(2)-7-|-(7)--5--(5)------------------||
|--0-------(0)---|-------------6-(6)-5--3-3-5-5-||


  &
        E5    F#5G5 F#5  F5             E5         G5
  PM--|   PM|          PM           PM|        PM--|
  E S S E S S  S  S  E E   E    +E  S S E +E   S S  E  S S S  S
|----------------------------|----------------------------------|
|----------------------------|----------------------------------|
|-------9-----11s12s11---/10-|-(10)-----9-(9)\-----12\----------|
|-------9-----11s12s11---/10-|-(10)-----9-(9)\-----12\-7h8p7----|
|-7-----7------9s10s=9----/8-|--(8)-----7-(7)\-----10\-------10-|
|-0-0-0-0-0-0----------0-----|------0-0--------0-0--------------|


        E5    F#5G5 F#5  F5
  PM--|   PM|          PM
  E S S E S S  S  S  E E   E
|----------------------------|
|----------------------------|
|-------9-----11s12s11---/10-|
|-------9-----11s12s11---/10-|
|-7-----7------9s10s=9----/8-|
|-0-0-0-0-0-0----------0-----|


          D.S.S. al Dbl. Coda     &&
           E5       A#5           E5
       PM|        PM   PM----|
   +E  S S E +E   S E. S S S S    E E E E E E E E
|------------------------------||------------------*|
|------------------------------||------------------*|
|-(10)-----9-(9)\--------------||------------------*|
|-(10)-----9-(9)\---8----------||-2----------------*|
|--(8)-----7-(7)\---8----------||-2----------------*|
|------0-0--------0-6--0-0-0-0-||-0-0-0-0-0-0-0-0--*|



Duration Legend
---------------
W - whole; H - half; Q - quarter; E - 8th; S - 16th; T - 32nd; X - 64th; a - acciaccatura
+ - note tied to previous; . - note dotted; .. - note double dotted
Uncapitalized letters represent notes that are staccato (1/2 duration)
Irregular groupings are notated above the duration line
Duration letters will always appear directly above the note/fret number it represents the
duration for.  Duration letters with no fret number below them represent rests.  Multi-
bar rests are notated in the form Wxn, where n is the number of bars to rest for.  Low
melody durations appear below the staff

Tablature Legend
----------------
 h   - hammer-on
 p   - pull-off
 b   - bend
 pb  - pre-bend
 r   - bend release (if no number after the r, then release immediately)
 /\  - slide into or out of (from/to "nowhere")
 s   - legato slide
 S   - shift slide
<n> - natural harmonic
[n]  - artificial harmonic
n(n) - tapped harmonic
 ~   - vibrato
 tr  - trill
 T   - tap
 TP  - trem. picking
 PM  - palm muting
\n/  - tremolo bar dip; n = amount to dip
 \n  - tremolo bar down
 n/  - tremolo bar up
/n\  - tremolo bar inverted dip
 =   - hold bend; also acts as connecting device for hammers/pulls
 <> - volume swell (louder/softer)
 x   - on rhythm slash represents muted slash
 o   - on rhythm slash represents single note slash

Misc Legend
-----------
 |  - bar
||  - double bar
||o - repeat start
o|| - repeat end
*|  - double bar (ending)
 :  - bar (freetime)
 $  - Segno
 &  - Coda
Tempo markers - <E/E./Q/Q./H/H.> = BPM(8/16=s8/s16), where s8 = swing 8ths, s16 = swing 16ths

comments
We did not receive enough feedback on this tab! Please rate:
print report bad tab
1 2 3 4 5
I want to post or [tab]
guest
You may want to rate the tab now too:
select rating
Please do not post tabs as comments. Select "correction" instead!