Oops, an error
Loading. Please wait.

Urotsukidoji Tab

ver1
ver1

Whole song

Interactive

More versions @911Tabs.com
529 views 1 this week
no commentswrite comment
1 2 3 4 5
excellent!
x 1
add to favorites launch autoscroll
font size
0
reset
Autoscroll
+/-
esc
set tempo
stop
Contributor
Tuning
D G C F A D
WARNING: You are trying to view
                                    content from Ultimate-Guitar.com
                                    in an unauthorized application,
                                    which is prohibited.

                                    Please use an official Ultimate
                                    Guitar Tabs application for iPhone,
                                    iPad or Android to access legitimate
                                    chords, guitar, bass, and drum tabs
                                    from Ultimate-Guitar.com database.

                                    Type "ultimate guitar tabs" in Apple
                                    App Store's or Android Market's
                                    search to find the application.
#----------------------------------PLEASE NOTE---------------------------------#
#This file is the author's own work and represents their interpretation of the #
#song. You may only use this file for private study, scholarship, or research. #
#------------------------------------------------------------------------------#

UROTSUKIDOJI
As recorded by Testament
(From the 1994 Album LOW)

Transcribed by Kenn Chipken, Alex Houton, Matt Scharfglass
        

Music by Eric Peterson, Greg Christian

Gtr I (D G C F A D) - 'Rhythm Guitar 1'
Gtr II (D G C F A D) - 'Rhythm Guitar 2'
Gtr III (D G C F A D) - 'Lead Guitar 1'
Gtr IV (D G C F A D) - 'Lead Guitar 2'

 Intro
  Moderately Fast Q=152
  N.C.(Em)     E5
 4/4
               Gtrs I, II
               PM-|           PM-|         PM-------|
  Wx4          E. S Q  H      E. S Q  Q  E S S   E. S Q  H
|------------|--------------|------------------|--------------||
|------------|--------------|------------------|--------------||
|------------|--------------|------------------|--------------||
|------------|--------------|------------------|--------------||
|------------|-2--2---------|-2--2---------2-2-|-2--2---------||
|------------|-0--0---------|-0--0---------0-0-|-0--0---------||


                Faster Q=166
    F#G5A5B5D5  E7+9
    PM------|
  |-3-| |-3-|
  Q Q Q Q Q Q   W          +W           +W
|-------------|----------|------------|--------|
|-------------|-8--------|-(8)--------|-(8)----|
|-------------|-7--------|-(7)--------|-(7)----|
|-------2-4-7-|-6--------|-(6)--------|-(6)----|
|-2-4-5-0-2-5-|-7--------|-(7)--------|-(7)----|
|-0-2-3-------|----------|------------|--------|


                                                  N.C.(Em)
  +W           Q   Q  E E S S S S   E E Q  H      Wx6
|------------|--------------------|-------------|--------|
|-(8)--------|-8\-----------------|-------------|--------|
|-(7)--------|-7\---------x-x-x-x-|-x-----------|--------|
|-(6)--------|-6\---------x-x-x-x-|-x-----------|--------|
|-(7)--------|-7\-------x-x-x-x-x-|-x-----------|--------|
|------------|----------x-x-x-x-x-|-x-----------|--------|


   <
   W            +W             +W             +W
|------------|--------------|--------------|----------||
|-<5>--------|-(<5>)--------|-(<5>)--------|-(<5>)----||
|-<5>--------|-(<5>)--------|-(<5>)--------|-(<5>)----||
|------------|--------------|--------------|----------||
|------------|--------------|--------------|----------||
|------------|--------------|--------------|----------||


 Riffage
  Slower Q.=148
  F5                        E5   N.C.                F5
 12/8
        PM--|       PM--|        PM--------------|         PM--|       PM--|
   Q.   E E E  Q.   E E E   Q.   E E E E E E E E E    Q.   E E E  Q.   E E E
|-------------------------|------------------------|---------------------------|
|-------------------------|------------------------|---------------------------|
|-10----------10----------|-9----------------------|-10----------10------------|
|-10----------10----------|-9----------------------|-10----------10------------|
|--8-----------8----------|-7----8-7-5-7-5-7-5-----|--8-----------8------------|
|-------0-0-0-------0-0-0-|--------------------6-5-|-------0-0-0-------0-0-0---|


                             Faster Q=166
  E5 F#5   G5 A5 B5    D5    Em
                            4/4
  Q  E +E  Q  Q  E +E  Q     W          +W           +W
|-------------------------||----------|------------|--------|
|-------------------------||-8--------|-(8)--------|-(8)----|
|-------------------------||-9--------|-(9)--------|-(9)----|
|-------------2--4-(4)-7--||-9--------|-(9)--------|-(9)----|
|-2--4-(4)-5--0--2-(2)-5--||-7--------|-(7)--------|-(7)----|
|-0--2-(2)-3--------------||----------|------------|--------|


                                  N.C.(Em)
  Gtr I
                                                        <
  +H.      +E. S   E  E Q  H      Wx6          H    Q   Q
|----------------|--------------|------------|--------------|
|-(8)------(8)-8-|-8\-----------|------------|--------------|
|-(9)------(9)-9-|-9\-----------|------------|---------<5>--|
|-(9)------(9)-9-|-9\-----------|------------|--------------|
|-(7)------(7)-7-|-7\-----------|------------|--------------|
|----------------|--------------|------------|--------------|
|
| Gtr II
| +H.      +E. S   E  E Q  H      Wx6          W
|----------------|--------------|------------|--------------|
|-(8)------(8)-8-|-8\-----------|------------|--------------|
|-(9)------(9)-9-|-9\-----------|------------|--------------|
|-(9)------(9)-9-|-9\-----------|------------|--------------|
|-(7)------(7)-7-|-7\-----------|------------|--------------|
|----------------|--------------|------------|--------------|


                                       ~~~~~~~~~~~~~~~~~~~~
   +W             +W                  +W              +W
|--------------|------------------|---------------|-----------||
|--------------|------------------|---------------|-----------||
|-(<5>)--------|-(<5>)------------|--(<5>)--------|--(<5>)----||
|--------------|------------------|---------------|-----------||
|--------------|------------------|---------------|-----------||
|--------------|------------------|---------------|-----------||
|
|                         <
|   W              Q      H.          +W              +W
|--------------|------------------|---------------|-----------||
|--------------|--------<12>------|-(<12>)--------|-(<12>)----||
|--------------|--------<12>------|-(<12>)--------|-(<12>)----||
|--------------|------------------|---------------|-----------||
|--------------|------------------|---------------|-----------||
|--------------|------------------|---------------|-----------||


  Slower Q.=148
  F5    N.C.  F5    N.C.    E5   N.C.                F5    N.C.  F5    N.C.
 12/8
  Gtrs I, II
        PM--|       PM--|        PM--------------|         PM--|       PM--|
   Q.   E E E  Q.   E E E   Q.   E E E E E E E E E    Q.   E E E  Q.   E E E
|-------------------------|------------------------|---------------------------|
|-------------------------|------------------------|---------------------------|
|-10----------10----------|-9----------------------|-10----------10------------|
|-10----------10----------|-9----------------------|-10----------10------------|
|--8-----------8----------|-7----8-7-5-7-5-7-5-----|--8-----------8------------|
|-------0-0-0-------0-0-0-|--------------------6-5-|-------0-0-0-------0-0-0---|


  E5   N.C.                 F5    N.C.  F5    N.C.    E5   N.C.
  Gtr I
        PM--------------|         PM--|       PM--|         PM--------------|
  Q.    E E E E E E E E E    Q.   E E E  Q.   E E E   Q.    E E E E E E E E E
|-------------------------|-------------------------|--------------------------|
|-------------------------|-------------------------|--------------------------|
|-9-----------------------|-10----------10----------|-9----10-9-7-9-7-9-7------|
|-9----10-9-7-9-7---7-----|-10----------10----------|-9-------------------8-7--|
|-7---------------9---8-7-|--8-----------8----------|-7------------------------|
|-------------------------|-------0-0-0-------0-0-0-|--------------------------|
|
| Gtr II
|       PM--------------|         PM--|       PM--|         PM--------------|
| Q.    E E E E E E E E E    Q.   E E E  Q.   E E E   Q.    E E E E E E E E E
|-------------------------|-------------------------|--------------------------|
|-------------------------|-------------------------|--------------------------|
|-9-----------------------|-10----------10----------|-9------------------------|
|-9-----------------------|-10----------10----------|-9------------------------|
|-7-----8-7-5-7-5---5-----|--8-----------8----------|-7-----8-7-5-7-5-7-5------|
|-----------------7---6-5-|-------0-0-0-------0-0-0-|---------------------6-5--|


  F5    N.C.  F5    N.C.    E5 F#5   G5 A5 B5    D5   E5  N.C.    E5  N.C.
        PM--|       PM--|      PM-------------------------------------------|
   Q.   E E E  Q.   E E E   Q  E +E  Q  Q  E +E  Q    E E E E E E E E E E E E
|-------------------------|-------------------------|--------------------------|
|-------------------------|-------------------------|--------------------------|
|-10----------10----------|-------------------------|--------------------------|
|-10----------10----------|-------------2--4-(4)-7--|-9---5-5---------5-5-4-4--|
|--8-----------8----------|-2--4-(4)-5--0--2-(2)-5--|-7-------7-7-2------------|
|-------0-0-0-------0-0-0-|-0--2-(2)-3--------------|-------------0------------|
|
|       PM--|       PM--|      PM-------------------------------------------|
|  Q.   E E E  Q.   E E E   Q  E +E  Q  Q  E +E  Q    E E E E E E E E E E E E
|-------------------------|-------------------------|--------------------------|
|-------------------------|-------------------------|--------------------------|
|-10----------10----------|-------------------------|--------------------------|
|-10----------10----------|-------------2--4-(4)-7--|-9------------------------|
|--8-----------8----------|-2--4-(4)-5--0--2-(2)-5--|-7---7-6-----2---7-6------|
|-------0-0-0-------0-0-0-|-0--2-(2)-3--------------|---------7-7-0-------7-7--|


  E5  N.C.    G5              E5  N.C.    E5  N.C.
  PM---------------------------------------------------
  E E E E E E E S S E E E E   E E E E E E E E E E E E
|---------------------------|-------------------------|
|---------------------------|-------------------------|
|---------------------------|-------------------------|
|-----5-5-------------------|-----5-5---------5-5-----|
|-2-------6-6-5-5-5-5-5-5-5-|-2-------6-6-2-------6-6-|
|-0-----------3-3-3-3-3-3-3-|-0-----------0-----------|
|
| PM---------------------------------------------------
| E E E E E E E S S E E E E   E E E E E E E E E E E E
|---------------------------|-------------------------|
|---------------------------|-------------------------|
|---------------------------|-------------------------|
|---------------------------|-------------------------|
|-2---7-5-----5-5-5-5-5-5-5-|-2---7-6-----2---7-6-----|
|-0-------7-5-3-3-3-3-3-3-3-|-0-------7-7-0-------7-7-|


  E5  N.C.    G5
 -------------------------|
  E E E E E E E S S E E E E
|----------------------------|
|----------------------------|
|----------------------------|
|-----5-5-5------------------|
|-2---------6-5-5-5-5-5-5-5--|
|-0-----------3-3-3-3-3-3-3--|
|
|---|         PM----------|
| E E E E E E E S S E E E E
|----------------------------|
|----------------------------|
|----------------------------|
|----------------------------|
|-2---7-6-----5-5-5-5-5-5-5--|
|-0-------7-5-3-3-3-3-3-3-3--|


      B Bb         B Bb
  PM           PM
  E E E Q.     E E E Q.
|---------------------------|
|---------------------------|
|-----4s3----------4s3------|
|-----6s5----------6s5------|
|---------------------------|
|-0------------0------------|
|
| PM       PM--|        PM---
| E E E E  E E E E E E  E E
|---------------------------|
|---------------------------|
|---------------------------|
|---------------------------|
|-----7s6----------7s6------|
|-0--------7-7-0--------7-7-|


      B Bb     G5                  B Bb         B Bb
  PM           PM--------------|            PM
  E E E Q.     E S S E E E E   E E E Q.     E E E Q.
|----------------------------|---------------------------|
|----------------------------|---------------------------|
|-----4s3--------------------|-----4s3----------4s3------|
|-----6s5--------------------|-----6s5----------6s5------|
|--------------5-5-5-5-5-5-5-|---------------------------|
|-0------------3-3-3-3-3-3-3-|-0------------0------------|
|
|-|            PM--------------|        PM--|        PM|
| E E E E  E E E S S E E E E   E E E E  E E E E E E  E E
|----------------------------|---------------------------|
|----------------------------|---------------------------|
|----------------------------|---------------------------|
|----------------------------|---------------------------|
|-----7s6------5-5-5-5-5-5-5-|-----7s6----------7s6------|
|-0--------8-x-3-3-3-3-3-3-3-|-0--------7-7-0--------7-7-|


      B Bb     G5
  PM           PM----------|
  E E E Q.     E S S E E E E
|----------------------------||
|----------------------------||
|-----4s3--------------------||
|-----6s5--------------------||
|--------------5-5-5-5-5-5-5-||
|-0------------3-3-3-3-3-3-3-||
|
| PM           PM--------------
| E E E E  E E E S S E E E E
|----------------------------||
|----------------------------||
|----------------------------||
|----------------------------||
|-----7s6------5-5-5-5-5-5-5-||
|-0--------8-x-3-3-3-3-3-3-3-||


 Bridge
  E5     N.C.
  Q.     Q.     H.             W
|----------------------------|--------------------------|
|----------------------------|--------------------------|
|----------------------------|--------------------------|
|----------------------------|--------------------------|
|-2--------------------------|--------------------------|
|-0--------------------------|--------------------------|
|
|------|    PM-------|   PM--------|   PM------|   PM|
| E  E E E  E E E  E E E E E   E E E E E E E E E E E E
|----------------------------|--------------------------|
|----------------------------|--------------------------|
|----------------------------|--------------------------|
|----------------------------|--------------------------|
|----8-7-6---------8-7-6-----|---8-7-6-------8-7-6------|
|-5---------7-7-5--------7-7-|-5-------7-7-5-------7-7--|


  PM--|   PM------|   PM--------|   PM------|   PM---
  E E E E E E E E E E E E   E E E E E E E E E E E E
|-------------------------|-------------------------|
|-------------------------|-------------------------|
|-------------------------|-------------------------|
|---7-6-5-------7-6-5-----|---7-6-5-------7-6-5-----|
|-4-------6-6-4-------6-6-|-4-------6-6-4-------6-6-|
|-------------------------|-------------------------|
|
| PM--|   PM------|   PM--------|   PM------|   PM---
| E E E E E E E E E E E E   E E E E E E E E E E E E
|-------------------------|-------------------------|
|-------------------------|-------------------------|
|-------------------------|-------------------------|
|-------------------------|-------------------------|
|---8-7-6-------8-7-6-----|---8-7-6-------8-7-6-----|
|-5-------7-7-5-------7-7-|-5-------7-7-5-------7-7-|


    N.C.
 -------------------------|
    E E E E E E E E E E E E
||---------------------------|
||o--------------------------|
||---------------------------|
||----7-6-5-------7-6-5------|
||o-4-------6-6-4-------6-6--|
||---------------------------|
|
|-------------------------|
|   E E E E E E E E E E E E
||---------------------------|
||o--------------------------|
||---------------------------|
||---------------------------|
||o---8-7-6-------8-7-6------|
||--5-------7-7-5-------7-7--|


              D    Eb     N.C.
  PM------|               PM--------------|
  E E E E E E Q.   Q.     E E E E E E E E E E E E
|-----------------------|-------------------------|
|-------------7----8----|-------------------------|
|-------------7----8----|-------------------------|
|---7-6-5-----7----8----|---7-6-5-------7-6-5-----|
|-4-------6-6-5----6----|-4-------6-6-4-------6-6-|
|-----------------------|-------------------------|
|
| PM------|               PM--------------|
| E E E E E E Q.   Q.     E E E E E E E E E E E E
|-----------------------|-------------------------|
|-------------7----8----|-------------------------|
|-------------7----8----|-------------------------|
|-------------7----8----|-------------------------|
|---8-7-6-----5----6----|---8-7-6-------8-7-6-----|
|-5-------7-7-----------|-5-------7-7-5-------7-7-|


  PM------|
  E E E E E  E  E E  E E E E
|------------------------------||
|-----------------------------o||
|------------------------------||
|---7-6-5----9-10p8----8p6-----||
|-4-------6---------10-----8--o||
|------------------------------||
|
| PM------|
| E E E E E  E  E E  E E E E
|------------------------------||
|-----------------------------o||
|------------------------------||
|------------------------------||
|---8-7-6---10-11p9----9p7----o||
|-5-------7---------11-----9---||


  PM--|   PM----|     PM---
  E E E E E E E E E E E E
|-------------------------|
|-------------------------|
|-------------------------|
|---7-6-5-------7-6-5-----|
|-4-------6-6-4-------6-6-|
|-------------------------|
|
| PM--|   PM----|     PM---
| E E E E E E E E E E E E
|-------------------------|
|-------------------------|
|-------------------------|
|-------------------------|
|---8-7-6-------8-7-6-----|
|-5-------7-7-5-------7-7-|


 -----------|        PM    PM------------------|
  E E E E E  E  E E  E E E E   E E E E E E E E E E E E
|----------------------------|--------------------------|
|----------------------------|--------------------------|
|----------------------------|--------------------------|
|---7-6-5----9-10p8----8p6---|--------------------------|
|-4-------6---------10-----8-|-----7-6---------7-6------|
|----------------------------|-5-8-----7-7-5-8-----7-7--|
|
|-----------|        PM    PM------------------|
| E E E E E  E  E E  E E E E   E E E E E E E E E E E E
|----------------------------|--------------------------|
|----------------------------|--------------------------|
|----------------------------|--------------------------|
|----------------------------|--------------------------|
|---8-7-6---10-11p9----9p7---|-----7-6---------7-6------|
|-5-------7---------11-----9-|-5-8-----7-7-5-8-----7-7--|


                          Guitar Solo 1 (Eric)
              H.=H         Slowly Q=65
              D5   C#5
                          3/4
  Gtrs I, II
  PM----|
  E E E E E E Q.   Q.      H.
|-----------------------||-------||
|-----------------------||-------||
|-------------7----6----||-6-----||
|---------0-0-7----6----||-6-----||
|---8-7-5-0-0-5----4----||-4-----||
|-5---------------------||-------||


                              N.C.
 4/4
  Gtr IV
      |-3-|       |-3-|               |-3-|
  S S T T T S S S T T T S S S S S S S T T T S
|-4-5-4h5p4---4-5-4h5p4---4-5-7-5-4-5-4h5p4---|
|-----------5-----------5-------------------5-|
|---------------------------------------------|
|---------------------------------------------|
|---------------------------------------------|
|---------------------------------------------|
|
| Gtr III
|     |-3-|       |-3-|               |-3-|
| S S T T T S S S T T T S S S S S S S T T T S
|---------------------------------------------|
|---------------------------------------------|
|-6-7-6h7p6---6-7-6h7p6---6-7-9-7-6-7-6h7p6---|
|-----------9-----------9-------------------9-|
|---------------------------------------------|
|---------------------------------------------|
|
| Gtrs I, II
|   PM------|   PM|       PM|
| S S S     S S S S     S S S S S S S S     S
|---------------------------------------------|
|---------------------------------------------|
|-----------------------------9-6-7-6-4-----6-|
|-6-6-6-----6-6-6-6-----6-6-6-----------------|
|-4-4-4-----4-4-4-4-----4-4-4-7-4-5-4-2-----4-|
|-4-4-4-----4-4-4-4-----4-4-4-----------------|


  C#5                        N.C.
                                    ~~~~~
                       |-3-|
  S S S S S S  S S S S T T T  S S S E
|-4-5-7-5-7-8-10-8-7-8-7h8p7----7-8-7---|
|----------------------------10---------|
|---------------------------------------|
|---------------------------------------|
|---------------------------------------|
|---------------------------------------|
|
|                                   ~~~~~
|                      |-3-|
| S S S S S S  S S S S T T T  S S S E
|---------------------------------------|
|-----------6--8-6-5-6-5h6p5----5-6-5---|
|-6-7-9-7-9-------------------7---------|
|---------------------------------------|
|---------------------------------------|
|---------------------------------------|
|
|   PM--|   PM|    PM|
| S S S S S S  S S S S S      S S S S S
|---------------------------------------|
|---------------------------------------|
|-6--------------------6------7-9-7-6-4-|
|---6-6-6-6-6--6-6-6-6------------------|
|-4-4-4-4-4-4--4-4-4-4-4------5-7-5-4-2-|
|---4-4-4-4-4--4-4-4-4------------------|


  C#5                                       D5 C#D5   C#5   B5 C#5
 ~~~~~       ~~~~~~~~~       ~~~~~~~~~       ~~~~~~~~~       ~~
  +S   T  T  E    +S   T  T  E    +S   T  T  E    +S   T  T  E
|-(7)-10-10-10---(10)-13-13-13---(13)-16-16-16---(16)-13-13-13----|
|-----------------------------------------------------------------|
|-----------------------------------------------------------------|
|-----------------------------------------------------------------|
|-----------------------------------------------------------------|
|-----------------------------------------------------------------|
|
|~~~~~       ~~~~~~~~~       ~~~~~~~~~       ~~~~~~~~~       ~~
| +S   T  T  E    +S   T  T  E    +S   T  T  E    +S   T  T  E
|-----------------------------------------------------------------|
|-(5)--8--8--8----(8)-11-11-11---(11)-14-14-14---(14)-11-11-11----|
|-----------------------------------------------------------------|
|-----------------------------------------------------------------|
|-----------------------------------------------------------------|
|-----------------------------------------------------------------|
|
|      PM------|       PM---|
|  S   S     S S   S   S     S S   S   S     S S   S   S     S S
|-----------------------------------------------------------------|
|-----------------------------------------------------------------|
|--6-----------------------------------------7-6---7---6-----4-6--|
|--6---6-----6-6---6---6-----6-6---6---6-----7-6---7---6-----4-6--|
|--4---4-----4-4---4---4-----4-4---4---4-----5-4---5---4-----2-4--|
|--4---4-----4-4---4---4-----4-4---4---4--------------------------|


                                N.C.
    ~~~~
   +S   T  T  S  T  T  S  E.           H
|-(13)-16-16-16-19-19-19----------------------------------------------------------|
|---------------------------------------------------------------------------------|
|---------------------------------------------------------------------------------|
|---------------------------------------------------------------------------------|
|---------------------------------------------------------------------------------|
|---------------------------------------------------------------------------------|
|
|   ~~~~
|                                      |--------6---------|  |--------6---------|
|  +S   T  T  S  T  T  S  T   T  S  S  S  S    S  S  S    S  S  S    S  S  S    S
|---------------12-12-12-14--14-14-15-15-14---12-14-12------12--------------------|
|-(11)-14-14-14------------------------------------------15----15---14-15-14---12-|
|---------------------------------------------------------------------------------|
|---------------------------------------------------------------------------------|
|---------------------------------------------------------------------------------|
|---------------------------------------------------------------------------------|
|
|       PM       PM------|
|   S   S     S  S     S  S      S  S  S    S     S    S     S    S     S    S
|---------------------------------------------------------------------------------|
|---------------------------------------------------------------------------------|
|---------------------------------------------------------------------------------|
|---6---6-----6--6-----6--6---------2--0------------------------------------------|
|---4---4-----4--4-----4--4------4----------4-----2----4-----2----0---------------|
|---4---4-----4--4-----4--4---------------------------------------------3----2----|


  G5
          ~~    ~~~~~~~~~~~~~~
   E   E  E  E  E.    +S   Q
|--------------------------------------|
|-13--12----12-------------------------|
|--------14----14b16r(14)-14-----------|
|--------------------------------------|
|--------------------------------------|
|--------------------------------------|
|
|         ~~    ~~~~~~~~~~~~~~
|  E   E  E  E  E.    +S   Q
|--------------------------------------|
|--------------------------------------|
|-10---9-----9-------------------------|
|--------12----12b14r(12)-12-----------|
|--------------------------------------|
|--------------------------------------|
|
|  H.                     +E  T T T T
|--------------------------------------|
|--------------------------------------|
|--------------------------------------|
|--------------------------------------|
|--5----------------------(5)-5-5-5-5--|
|--3----------------------(3)-3-3-3-3--|


                             ~~
   a  E  E  E   a  E         E     E    E  E
|--------------------------------/15---14----|
|-----------------------------------------16-|
|-14S19-17-16--16h17--------16---------------|
|--------------------------------------------|
|--------------------------------------------|
|--------------------------------------------|
|
|                            ~~
|  a  E  E  E   a  E         E     E    E  E
|--------------------------------------------|
|--------------------------------/17---16----|
|-----------------------------------------16-|
|-12S17-15-14--14h15--------14---------------|
|--------------------------------------------|
|--------------------------------------------|
|
|     Q    +E     +T  T T T  S S   S S  Q
|--------------------------------------------|
|--------------------------------------------|
|--------------------------------------------|
|--------------------------------------------|
|-----5----(5)----(5)-5-5-5--5-5---5-5--5----|
|-----3----(3)----(3)-3-3-3--3-3---3-3-------|


  C#5                  N.C.
   ~~~~~~~~~~~~~~~~~~~~~~~~~~~~~~
   Q        Q        Q         Q
|--------------------------------------|
|----------------------------/18-------|
|-15-------12-------15-----------------|
|--------------------------------------|
|--------------------------------------|
|--------------------------------------|
|
|  ~~~~~~~~~~~~~~~~~~~~~~~~~~~~~~
|  Q        Q        Q         Q
|--------------------------------------|
|----------------------------/18-------|
|-15-------12-------15-----------------|
|--------------------------------------|
|--------------------------------------|
|--------------------------------------|
|
|    PM--|    PM|    PM--|
|  S S S S  S S S S  S S S S   S S S S
|--------------------------------------|
|--------------------------------------|
|--------------------------------------|
|--6-6-6-6--6-6-6-6--6-3---------------|
|--4-4-4-4--4-4-4-4--4---5-4---5-4-2-4-|
|--4-4-4-4--4-4-4-4--4-----------------|


  C#5                       N.C.
                                         ~~~~~
   E    E        +E     +E     E    E    E       E
|-----------------------------------------------------|
|-15---17b18====(17)r==(17)---15---17---17b18---17\---|
|-----------------------------------------------------|
|-----------------------------------------------------|
|-----------------------------------------------------|
|-----------------------------------------------------|
|
|                                        ~~~~~
|  E    E        +E     +E     E    E    E       E
|-----------------------------------------------------|
|-----------------------------------------------------|
|-----------------------------------------------------|
|-----------------------------------------------------|
|--5----7b8======(7)r===(7)----5----7----7b8-----7\---|
|-----------------------------------------------------|
|
|    PM-------|      PM|
|  S S  S     S   S  S   S  S  S S  S S  S    S  S  S
|-----------------------------------------------------|
|-----------------------------------------------------|
|--6-6--6-----6---6--6---6----------------------------|
|--6-6--6-----6---6--6---6--2--0----------------------|
|--4-4--4-----4---4--4---4-------4--2-4--2----0-------|
|------------------------------------------------3--2-|


  Gm
  ~                                   ~
          |---3---|   |----3----|
  Q       E   E   E   E     E   E     Q
|---------------------------------------------|
|---------------------5b6---5---3-----5-------|
|-3-------0---2---3---------------------------|
|---------------------------------------------|
|---------------------------------------------|
|---------------------------------------------|
|
| ~                                   ~
|         |---3---|   |----3----|
| Q       E   E   E   E     E   E   a Q
|---------------------------------------------|
|---------------------------------------------|
|---------------------------------------------|
|---------------------------------------------|
|---------------------7b8---7---5---5s7-------|
|-3-------3---5---6---------------------------|
|
| S S S S S S   S   S S   S   S   S   S S S S
|---------------------------------------------|
|---------------------------------------------|
|---------------------------------------------|
|-5-5-5-5-5-5---5---5-5---5---5---5---5-5-5-5-|
|-5-5-5-5-5-5---5---5-5---5---5---5---5-5-5-5-|
|-3-3-3-3-3-3---3---3-3---3---3---3---3-3-3-3-|


                                                E5 D5
  ~~~~~~~~~~~~                                      ~~~
           |----3----|           |----3-----|
  Q       +E    E    E    a     +E     E    E    S  E.
|----------------------------------------------------------|
|------------------------12b13-(12)---12---10---12-10------|
|-7-------(7)---9---10-------------------------------------|
|----------------------------------------------------------|
|----------------------------------------------------------|
|----------------------------------------------------------|
|
| ~~~~~~~~~~~~                                      ~~~
|          |----3----|           |----3-----|
| Q       +E    E    E    a     +E     E    E    S  E.
|----------------------------------------------------------|
|----------------------------------------------------------|
|-------------------------9b10--(9)----9----7----9--7------|
|-5-------(5)---7----8-------------------------------------|
|----------------------------------------------------------|
|----------------------------------------------------------|
|
| S S S S  S  S   S    S         S  S    S    S  S  S  S S
|----------------------------------------------------------|
|----------------------------------------------------------|
|----------------------------------------------------------|
|-5-5-5-5--5--5---5----5---------5--5----5----5--9--7--7-7-|
|-5-5-5-5--5--5---5----5---------5--5----5----5--7--5--5-5-|
|-3-3-3-3--3--3---3----3---------3--3----3----3------------|


  C#5                                D5 C#5D5C#5B5     C#5
       |-3--|         |-3--|                    |-3--|
  S  S T  T T  S S  S T  T T  S S  S  S  S S  S T  T T  S
|-9----------------------------------------9---------------|
|---10-9h10p9----9-10-9h10p9----9-10-12-10---10-9h10p9-----|
|-------------11-------------11------------------------11--|
|----------------------------------------------------------|
|----------------------------------------------------------|
|----------------------------------------------------------|
|
|      |-3--|         |-3--|                    |-3--|
| S  S T  T T  S S  S T  T T  S S  S  S  S S  S T  T T  S
|----------------------------------------------------------|
|-7--------------------------------------------------------|
|----7-6h=7p6----6--7-6h=7p6----6--7--9--7-6--7-6h=7p6-----|
|--------------9--------------9-------------------------9--|
|----------------------------------------------------------|
|----------------------------------------------------------|
|
|    PM-------|     PM|         PM|
| S  S S       S S  S S       S S  S  S  S S  S S       S
|----------------------------------------------------------|
|----------------------------------------------------------|
|-6--6-6-------6-6--6-6-------6-6--6--7--6-7--6-4-------6--|
|-6--6-6-------6-6--6-6-------6-6--6--7--6-7--6-4-------6--|
|-4--4-4-------4-4--4-4-------4-4--4--5--4-5--4-2-------4--|
|-4--4-4-------4-4--4-4-------4-4--4-----------------------|


                                N.C.
                                                   ~~~~~
                                 |--3--|
   S  S  S  S  S  S  S  S  S  S  T  T  T  S  S  S  E
|-------------------10---------------------------------|
|----10-12-10-12-13----13-12-13-12h13p12-10-12-10------|
|-12----------------------------------------------12---|
|------------------------------------------------------|
|------------------------------------------------------|
|------------------------------------------------------|
|
|                                                  ~~~~~
|                                |--3--|
|  S  S  S  S  S  S  S  S  S  S  T  T  T  S  S  S  E
|------------------------------------------------------|
|------------------------------------------------------|
|--6--7--9--7--9-10-12-10--9-10--9h10p=9-----9---------|
|----------------------------------------12----12-10---|
|------------------------------------------------------|
|------------------------------------------------------|
|
|     PM---|      PM|      PM|
|  S  S  S  S  S  S  S  S  S  S  S        S  S  S  S S
|------------------------------------------------------|
|------------------------------------------------------|
|--------------------------------6--------7--9--7--6-4-|
|--6--6--6--6--6--6--6--6--6--6------------------------|
|--4--4--4--4--4--4--4--4--4--4--4--------5--7--5--4-2-|
|--4--4--4--4--4--4--4--4--4--4------------------------|


  C#5                                        D5 C#D5   C#5   B5 C#5
 ~~~~~~       ~~~~~~~~~       ~~~~~~~~~       ~~~~~~~~~       ~~
   +S   T  T  E    +S   T  T  E    +S   T  T  E    +S   T  T  E
|--------------------------------------12-12-12---(12)-------------|
|------14-14-14---(14)-11-11-11---(11)-----------------14-14-14----|
|-(12)-------------------------------------------------------------|
|------------------------------------------------------------------|
|------------------------------------------------------------------|
|------------------------------------------------------------------|
|
|~~~~~~       ~~~~~~~~~       ~~~~~~~~~       ~~~~~~~~~       ~~
|  +S   T  T  E    +S   T  T  E    +S   T  T  E    +S   T  T  E
|------------------------------------------------------------------|
|--------------------------------------14-14-14---(14)-------------|
|------15-15-15---(15)-12-12-12---(12)-----------------15-15-15----|
|-(10)-------------------------------------------------------------|
|------------------------------------------------------------------|
|------------------------------------------------------------------|
|
|       PM------|       PM---|      PM-|
|   S   S     S S   S   S     S S   S   S     S S   S   S     S S
|------------------------------------------------------------------|
|------------------------------------------------------------------|
|---6---6-----6-6---6---6-----6-6---6---6-----7-6---7---6-----4-6--|
|---6---6-----6-6---6---6-----6-6---6---6-----7-6---7---6-----4-6--|
|---4---4-----4-4---4---4-----4-4---4---4-----5-4---5---4-----2-4--|
|---4---4-----4-4---4---4-----4-4---4---4--------------------------|


                                                                                   Fa
  C#°                 C#m
   +Q                  Q               H
|----------------------------------------------------------------------------------||
|-(14)-----------------------------------------------------------------------------||
|----------------------------------------------------------------------------------||
|----------------------------------------------------------------------------------||
|----------------------------------------------------------------------------------||
|----------------------------------------------------------------------------------||
|
|                                      |--------6---------|  |---3---|
|  +S   T  T  S  T  T  S  T  T  S  S   S  S    S  S  S    S  S  S    S  T  T  T  T
|------------------18-----------------17-19---15-17-15---14-15-14------14----------||
|------14-14-14-17----17-19-19-19-20/-------------------------------17----17-17-17-||
|-(15)-----------------------------------------------------------------------------||
|----------------------------------------------------------------------------------||
|----------------------------------------------------------------------------------||
|----------------------------------------------------------------------------------||
|
|       PM---------------------|
|   S   S     S  S     S  S     S  S   S    S     S    S     S    S     S     S
|----------------------------------------------------------------------------------||
|----------------------------------------------------------------------------------||
|---6------------------6-----------------------------------------------------------||
|---6------------------6-----------2---0-------------------------------------------||
|---4------------4-----4--------4-----------4-----2----4-----2----0----------------||
|---4---0-----3--------3--4---------------------------------------------3-----1----||


 Guitar Solo 2 (James)
 ster Q=133
  E5
   H             Q  E.  S
|----------------------12h==|
|---------------------------|
|---------------------------|
|---------------------------|
|---------------------------|
|---------------------------|
|
|  S     +E.  Q  Q  E.  S
|-----------------------9h==|
|-17b19-(17)\---------------|
|---------------------------|
|---------------------------|
|---------------------------|
|---------------------------|
|
|  Q          Q  H
|---------------------------|
|---------------------------|
|---------------------------|
|---------------------------|
|--2------------------------|
|--0------------------------|


  N.C.
         |---3---|        |---3---|        |--3---|            |--3--|
   S  S  S  S    S  S  S  S  S    S  S  S  S  S   S  S     S   S  S  S
|-15p12h15p12s==11h14p11h14p11s==10h13p10h13p10s==9h12p====9h=12p=9s10-|
|----------------------------------------------------------------------|
|----------------------------------------------------------------------|
|----------------------------------------------------------------------|
|----------------------------------------------------------------------|
|----------------------------------------------------------------------|
|
|        |---3---|        |---3---|        |--3---|            |--3--|
|  S  S  S  S    S  S  S  S  S    S  S  S  S  S   S  S     S   S  S  S
|-12p=9h12p=9s===8h11p=8h11p=8s===7h10p=7h10p=7s==6h=9p====6h==9p=6s=7-|
|----------------------------------------------------------------------|
|----------------------------------------------------------------------|
|----------------------------------------------------------------------|
|----------------------------------------------------------------------|
|----------------------------------------------------------------------|
|
|  PM-------------------------------------------|
|  S  S  S    S     S  S  S    S     S  S  S    S    S    +S  +E
|----------------------------------------------------------------------|
|----------------------------------------------------------------------|
|----------------------------------------------------------------------|
|----------------------------------------------------------------------|
|----------------------------------------------------------------------|
|--0--0--0----0-----2--0--0----0-----0--0--0----0----3b4==(3)r(3)------|


   |--------6---------|  |--------6---------|  |----------6-----------|
   S  S    S  S  S    S  S  S    S  S  S    S  S    S      S  S  S    S  Q
|-13p11p==10h11p10h==11-14p12p==11h12p11h==12-15p==13p====12h13p12h==13-15\--------|
|----------------------------------------------------------------------------------|
|----------------------------------------------------------------------------------|
|----------------------------------------------------------------------------------|
|----------------------------------------------------------------------------------|
|----------------------------------------------------------------------------------|
|
|  |--------6---------|  |--------6---------|  |----------6-----------|
|  S  S    S  S  S    S  S  S    S  S  S    S  S    S      S  S  S    S  Q
|-10p=8p===7h=8p=7h===8-11p=9p===8h=9p=8h===9-12p==10p=====9h10p=9h==10-12\--------|
|----------------------------------------------------------------------------------|
|----------------------------------------------------------------------------------|
|----------------------------------------------------------------------------------|
|----------------------------------------------------------------------------------|
|----------------------------------------------------------------------------------|
|
|  PM--------------|
|  S    S     S    S     S    S     S    S     S      +S      S    S     S S S S
|----------------------------------------------------------------------------------|
|----------------------------------------------------------------------------------|
|----------------------------------------------------------------------------------|
|----------------------------------------------------------------------------------|
|----------------------------------------------------------------------------------|
|--0----0-----0----0-----1----0-----0----0-----5b6----(5)-----2h===3-----2h3-2h3---|


  Gtr III
    ~~~~~~~~~~~~~~~~~~~~~~~~~~~~~~~~
    H.                        +E         E
|-------------------------------------------|
|-------------------------------------------|
|-/15------------------------(15)-------15--|
|-------------------------------------------|
|-------------------------------------------|
|-------------------------------------------|
|
| Gtrs I, II
|   PM---------------------|
|   S  S S S S S S S S S S S   S    +S  +E
|-------------------------------------------|
|-------------------------------------------|
|-------------------------------------------|
|-------------------------------------------|
|-------------------------------------------|
|---0--0-0-0-2-0-0-0-0-0-0-0---3b4==(3)r(3)-|


   E.      S  +E     E    H
|------------------------18\-------------------|
|-17----------------17---17\-------------------|
|-15------15-(15)---15---15\-------------------|
|----------------------------------------------|
|----------------------------------------------|
|----------------------------------------------|
|
|  PM-----|
|  S  S S  S   S  S  S S  S   +S  S S S S S S
|----------------------------------------------|
|----------------------------------------------|
|----------------------------------------------|
|----------------------------------------------|
|----------------------------------------------|
|--0--0-0--0---1--0--0-0--5b6-(5)-2h3-2h3-2h3--|


                                       ~~~~~
   S  S  S  S  S  S  S  S  S  S  S  S  Q
|----------15-18p15----------------15-18------------|
|-------17----------17----------17------------------|
|-15h18----------------18-15h18---------------------|
|---------------------------------------------------|
|---------------------------------------------------|
|---------------------------------------------------|
|
|  PM------------------------------|
|  S  S  S  S  S  S  S  S  S  S  S  S  S    +S  +E
|---------------------------------------------------|
|---------------------------------------------------|
|---------------------------------------------------|
|---------------------------------------------------|
|---------------------------------------------------|
|--0--0--0--0--2--0--0--0--0--0--0--0--3b4==(3)r(3)-|


                                          ~~~
   S  S  S  S  S  S  S  S  S    S   S  S  Q
|----------18-21p18-------------------18-21--------|
|-------20----------20-------------20--------------|
|-18h21----------------21-18h==21------------------|
|--------------------------------------------------|
|--------------------------------------------------|
|--------------------------------------------------|
|
|  PM------|
|  S  S  S  S  S  S  S  S  S   +S   S  S  S S S S
|--------------------------------------------------|
|--------------------------------------------------|
|--------------------------------------------------|
|--------------------------------------------------|
|--------------------------------------------------|
|--0--0--0--0--1--0--0--0--5b6-(5)--2h=3--2h3-2h3--|


                                                            B5  C5
  Gtr IV
   ~~~~~~~~~~~~~~~~~~~~~~~~~~~~~~~~~~~~~~~~~~                    ~~~
   Q        Q        Q        Q            Q        Q        Q   Q
|-18------------------------------------|-----------------------------|
|----------20---------------------------|-----------------------------|
|-------------------21-------18---------|-----------------------------|
|---------------------------------------|-20-------17-----------------|
|---------------------------------------|-------------------19--16\---|
|---------------------------------------|-----------------------------|
|
| Gtr III
|  ~~~~~~~~~~~~~~~~~~~~~~~~~~~~~~~~~~~~~~~~~~                    ~~~
|  Q        Q        Q        Q            Q        Q        Q   Q
|-15------------------------------------|-----------------------------|
|----------17---------------------------|-----------------------------|
|-------------------18-------15---------|-----------------------------|
|---------------------------------------|-17-------14-----------------|
|---------------------------------------|-------------------16--13\---|
|---------------------------------------|-----------------------------|
|
| Gtrs I, II
|  PM----------------------|               PM-------------|
|  S S S S  S S S S  S S S S  S   +S  E    S S S S  S S S S  Q   Q
|---------------------------------------|-----------------------------|
|---------------------------------------|-----------------------------|
|---------------------------------------|--------------------4---5----|
|---------------------------------------|--------------------4---5----|
|---------------------------------------|--------------------2---3----|
|--0-0-0-0--3-0-0-0--0-0-0-0--3b4-(3)-0-|--0-0-0-0--0-0-0-0-----------|


  B5        Bb5
  Gtr IV
    ~~~~      ~~~~~~~~~~
    Q     E   E    +E    E  Q
|-----------------------------------|
|--------------------------12b12.5--|
|-/16-------[15]-([15])----12b12.5--|
|--------14-------------14----------|
|-----------------------------------|
|-----------------------------------|
|
| Gtrs I, II
|      PM|
|   E. S  E   E    +Q       Q
|-----------------------------------|
|-----------------------------------|
|---4--x--x---3----(3)--------------|
|---4--x--x---3----(3)--------------|
|---2--x--x---1----(1)--------------|
|---------------------------3b3.5---|


  (E5)                                          B5        Bb5        A5
                                                  ~~~~     ~~~~~~~
  S S S  S S S  S      +S   +S   S  S  S  Q       Q     E  E  +E   E  Q
|-x-x-x----x-x--------------------------------|--------------------------------|
|-x-x-x-14-x-x-14b15==(14)r(14)p12------------|----------------------12b12.5---|
|-x-x-x-14-x-x-14b16==(14)r(14)p12------------|-/16-------15-(15)----12b12.5---|
|-x-x-x----x-x---------------------14-12-14\--|--------14---------14-----------|
|---------------------------------------------|--------------------------------|
|---------------------------------------------|--------------------------------|
|
| PM----|       PM--------------------|              PM|           PM
| S S S  S S S  S       S    S   S  S  S  Q       E. S  E  E  +E   E  Q
|---------------------------------------------|--------------------------------|
|---------------------------------------------|--------------------------------|
|---------------------------------------------|---4--------3--(3)-----2--------|
|---------------------------------------------|---4--------3--(3)-----2--------|
|----------6p5----------------------------7---|---2--------1--(1)-----0--------|
|-0-0-0--0------0-------0----0---0--0--0------|------0--0----------0-----------|


  E7+9
  Gtr IV
                                             ~~~~~~~~
   S  S S  S S S  S      +S   S   S  E    S  E.
|-15-15-x-12-x-x------------------------------------|
|-15-15-x-12-x-x-14b15==(14)r14p=12------11s12------|
|----------------14b16==(14)r14p=12------12s13------|
|-----------------------------------14--------------|
|---------------------------------------------------|
|---------------------------------------------------|
|
| Gtr II
|  E    E    S E          S  +S   E    S  S  S  S S
|---------------------------------------------------|
|--8----8----8-8----------8--(8)--8----8--8--8--8-8-|
|--7----7----7-7----------7--(7)--7----7--7--7--7-7-|
|--6----6----6-6----------6--(6)--6----6--6--6--6-6-|
|--7----7----7-7----------7--(7)--7----7--7--7--7-7-|
|---------------------------------------------------|
|
| Gtr I
|  E    E    S E          S  +S   E    S  S  S  S S
|---------------------------------------------------|
|--8----8----8-8----------8--(8)--8----8--8--8--8-8-|
|--7----7----7-7----------7--(7)--7----7--7--7--7-7-|
|--6----6----6-6----------6--(6)--6----6--6--6--6-6-|
|--7----7----7-7----------7--(7)--7----7--7--7--7-7-|
|---------------------------------------------------|


  B5      C5             B/D#       N.C.(Em)
 ~~~~~      ~~~~~~~~~~               PM------------------------------|
    Q   E   E    +E    E  Q          S  S  S  S  S  S  S  S  S  S  S  S  Q
|---------------------------------|-----------------------------------------------|
|------------------------12b12.5--|-------------------------------------12b12.5---|
|-/16-----[15]-([15])----12b12.5--|----------12-------12----12----------12b12.5---|
|------14-------------14----------|-14-14-14----14-14----14----14-14-14-----------|
|---------------------------------|-----------------------------------------------|
|---------------------------------|-----------------------------------------------|
|
|       PM             PM            PM------|         PM------------|
|   Q   E   E    +E    E  Q          S  S  S  S  S  S  S  S  S  S  S  S  Q
|---------------------------------|-----------------------------------------------|
|---------------------------------|-----------------------------------------------|
|---4-------5----(5)--------------|-----------------------------------------------|
|---4-------5----(5)------9-------|-----------------------------------------------|
|---2-------3----(3)------6-------|-------------10p=9-------------------10--------|
|-------0--------------0----------|--0--0--0--0--------0--0--0--0--0--0-----------|
|
|       PM             PM            PM------|         PM------------|
|   Q   E   E    +E    E  Q          S  S  S  S  S  S  S  S  S  S  S  S  Q
|---------------------------------|-----------------------------------------------|
|---------------------------------|-----------------------------------------------|
|---4-------5----(5)--------------|-----------------------------------------------|
|---4-------5----(5)------9-------|-----------------------------------------------|
|---2-------3----(3)------6-------|--------------7p=6--------------------7--------|
|-------0--------------0----------|--0--0--0--0--------0--0--0--0--0--0-----------|


                            Outro
  B5      Bb5        G5      N.C.(E5)
  Gtr IV
                             \7_________________________________
    ~~~    ~~~~~~~
    Q   E  E  +E   E  Q      W
|-------------------------||-----------------------------------|
|-------------------------||-----------------------------------|
|-/16-----15-(15)----15\--||-----------------------------------|
|------14---------14------||-----------------------------------|
|-------------------------||-----------------------------------|
|-------------------------||-0---------------------------------|
|
| Gtrs I, II
|       PM                   PM------|     PM--------|     PM---
|   Q   E  E  +E   E  Q      S   S S S S S S S S S S S S S S S
|-------------------------||-----------------------------------|
|-------------------------||-----------------------------------|
|---4------3--(3)---------||-----------------------------------|
|---4------3--(3)-----5---||-----------------------------------|
|---2------1--(1)-----5---||-----------------------------------|
|-------0----------0--3---||-0---0-0-0-2h3-0-0-0-0-0-0-3h5-0-0-|


  +W
|-------------------------------------|
|-------------------------------------|
|-------------------------------------|
|-------------------------------------|
|-------------------------------------|
|-(0)---------------------------------|
|
|---------|     PM    PM
|  S  S S S S S S S S S S S S S S S
|-------------------------------------|
|-------------------------------------|
|-------------------------------------|
|-------------------------------------|
|-------------------------------------|
|--0--0-0-0-2h3-0-3h5-0-2h3-2h3-2h3---|


  +W                                  W
|-----------------------------------|---------------------------------|
|-----------------------------------|---------------------------------|
|-----------------------------------|---------------------------------|
|-----------------------------------|---------------------------------|
|-----------------------------------|---------------------------------|
|-(0)-------------------------------|---------------------------------|
|
|  PM-----|     PM--------|     PM----------|     PM    PM
|  S  S S S S S S S S S S S S S S S   S S S S S S S S S S S S S S S S
|-----------------------------------|---------------------------------|
|-----------------------------------|---------------------------------|
|-----------------------------------|---------------------------------|
|-----------------------------------|---------------------------------|
|-----------------------------------|---------------------------------|
|--0--0-0-0-2h3-0-0-0-0-0-0-3h5-0-0-|-0-0-0-0-2h3-0-3h5-0-2h3-2h3-2h3-|


  Gtrs I, II
  PM----|     PM--------|     PM----------|     PM    PM
  S S S S S S S S S S S S S S S S   S S S S S S S S S S S S S S S S
|---------------------------------|---------------------------------|
|---------------------------------|---------------------------------|
|---------------------------------|---------------------------------|
|---------------------------------|---------------------------------|
|---------------------------------|---------------------------------|
|-0-0-0-0-2h3-0-0-0-0-0-0-3h5-0-0-|-0-0-0-0-2h3-0-3h5-0-2h3-2h3-2h3-|


  PM----|     PM--------|     PM----------|       PM
  S S S S S S S S S S S S S S S S   S S S S S S S S  S S  S  S S S S S
|---------------------------------|------------------------------------*|
|---------------------------------|------------------------------------*|
|---------------------------------|------------------------------------*|
|---------6p5-------------6p5-----|---------6p5-----10p9-------8p7-----*|
|-------------6---------------6---|-------------6--------10--------8---*|
|-0-0-0-0-------7-0-0-0-0-------7-|-0-0-0-0-------7---------11-------9-*|



Duration Legend
---------------
W - whole; H - half; Q - quarter; E - 8th; S - 16th; T - 32nd; X - 64th; a - acciaccatura
+ - note tied to previous; . - note dotted; .. - note double dotted
Uncapitalized letters represent notes that are staccato (1/2 duration)
Irregular groupings are notated above the duration line
Duration letters will always appear directly above the note/fret number it represents the
duration for.  Duration letters with no fret number below them represent rests.  Multi-
bar rests are notated in the form Wxn, where n is the number of bars to rest for.  Low
melody durations appear below the staff

Tablature Legend
----------------
 h   - hammer-on
 p   - pull-off
 b   - bend
 pb  - pre-bend
 r   - bend release (if no number after the r, then release immediately)
 /\  - slide into or out of (from/to "nowhere")
 s   - legato slide
 S   - shift slide
<n> - natural harmonic
[n]  - artificial harmonic
n(n) - tapped harmonic
 ~   - vibrato
 tr  - trill
 T   - tap
 TP  - trem. picking
 PM  - palm muting
\n/  - tremolo bar dip; n = amount to dip
 \n  - tremolo bar down
 n/  - tremolo bar up
/n\  - tremolo bar inverted dip
 =   - hold bend; also acts as connecting device for hammers/pulls
 <> - volume swell (louder/softer)
 x   - on rhythm slash represents muted slash
 o   - on rhythm slash represents single note slash

Misc Legend
-----------
 |  - bar
||  - double bar
||o - repeat start
o|| - repeat end
*|  - double bar (ending)
 :  - bar (freetime)
 $  - Segno
 &  - Coda
Tempo markers - <E/E./Q/Q./H/H.> = BPM(8/16=s8/s16), where s8 = swing 8ths, s16 = swing 16ths

comments
We did not receive enough feedback on this tab! Please rate:
print report bad tab
1 2 3 4 5
I want to post or [tab]
guest
You may want to rate the tab now too:
select rating
Please do not post tabs as comments. Select "correction" instead!