Oops, an error
Loading. Please wait.

Blue Sky Bass Tab

8,928 views 30 this week
no commentswrite comment
1 2 3 4 5
excellent!
x 2
add to favorites launch autoscroll
font size
0
reset
Autoscroll
+/-
esc
set tempo
stop
Difficulty
advanced
WARNING: You are trying to view
                                    content from Ultimate-Guitar.com
                                    in an unauthorized application,
                                    which is prohibited.

                                    Please use an official Ultimate
                                    Guitar Tabs application for iPhone,
                                    iPad or Android to access legitimate
                                    chords, guitar, bass, and drum tabs
                                    from Ultimate-Guitar.com database.

                                    Type "ultimate guitar tabs" in Apple
                                    App Store's or Android Market's
                                    search to find the application.
Gtr I (E A D G) - 'Bass'

 Intro
  Moderate Rock Q=92
  E    A         E A E               A         E A E
 4/4
  Gtr I
  H    H       E E E E +H       H    H       E E E E +E  S S E E
|-----------|-/6-4------------|-----------|-/6-4-----------------|
|-----------|------7-6-(6)----|-----------|------7-6-(6)---------|
|-7---------|-----------------|-7---------|--------------7-7-7-7-|
|------5----|-----------------|------5----|----------------------|


  E      Dsus2        A          E
                     6/4
  Q  E E Q.   +S  S   Q.   +S  S W
|-------------------|---------------------||
|-6--4--------------|---------------------||
|------7-5----(5)-7-|------------7--------||
|-------------------|-5----(5)-5----------||


 1st Verse
           B              A         E
 4/4
  E. S E E E E E +S   S   E. S E. S E. S E E
|------6-----4----------|---------------------|
|----x---6-----6-(6)\---|---------------------|
|-7---------------------|------9--9-7---------|
|----------7----------7-|-5--5---------x-9p7--|


                        A
  E E E E e S +S  E E   e E E +S   S Q  E E   E E E E E E Q
|---------------------|---------------------|----------------|
|---2---------------4-|---7-----------------|-----------7-7--|
|-----4-0-2-2-(2)S6---|-----9-(9)\--------4-|-4-7-9-7-9------|
|-0-------------------|-5----------0-5--5---|----------------|


                                               2nd Verse
  E                    A                        E        B
  E S S Q  S S E E E   E. S S S E +E  E S E.    E. S E E e E E E
|--------------------|-----------------------||------------------|
|--------------------|------------------7-7--||----------------4-|
|---7----------4-7-4-|----------------9------||------4---2-2S6---|
|-0---7p4--x-7-------|-5--5-7h9-5-(5)--------||-0--0---5---------|


  A                  E                       A
  Q  E. S E. S E E   E s S S S S S e E E E   E E S S S +S   E E E E
|------------------|-----------------------|-------------------------|
|----4----2--------|---2-----------------4-|-------------------------|
|-------0----2-4-2-|-----x-4-4-----2-2-6---|-----9-7--------------4--|
|-5----------------|-0---------5-5---------|-5-5-----9-(9)\-5-5-5----|


                         E                      A
  E E E E E e E S +S     E. S E S E S S S E E   E. S E E. S E E E
|----------------------|----------------------|-------------------||
|-----------7-7--------|------------------2---|-----------------7-||
|-4-7-9-7-9-----9-(9)\-|----7---------2h4---4-|------4----7-9-9---||
|----------------------|-0----4-----4---------|-5--5---5----------||


 Chorus
  B          A         E       A         B         A          E
  E. S  E. S Q  E. S   E. S Q  E E E E   e S S E E e E S +S   S S
|--------------------|-----------------|--------------------------|
|-9------------------|-----------------|-------------7------------|
|----9-11--9----9--9-|-7-----------4---|-------6-9-----9-(9)\-----|
|------------5-------|----7-9--5-5---5-|-7-7-7-----5----------0-0-|


                                           Guitar Solo I
           A                                E
                       6/4                 4/4
  E. S E E E S S E. S   E E E E W           E. S E S E S E S S E
|---------------------|------------------||----------------------|
|---------------------|------------------||----------------------|
|----2-4--------------|-----4---9--------||----7---------------7-|
|--------4-5-5-5-5--x-|-5-5---5----------||-0----4-----4-7-7h9---|


  A                     E                      A
  E. S E E. s e S S E   E. S e S E S e S S E   E. S E E. s e E E
|---------------------|----------------------|-------------------|
|--------7----------7-|----------------------|--------7----------|
|------4----7-7-7h9---|----7---------------7-|------4----7-7-7h9-|
|-5--5----------------|-0----4-----4-7-7h9---|-5--5--------------|


  E                      A                    E
  E. S e S E S e S S E   E S S E E. S E E E   E S S e S E S e S S E
|----------------------|--------------------|-----------------------|
|----------------------|---------7----------|-----------------------|
|----7---------------7-|-------4----7-7-7-9-|---7-7---------------7-|
|-0----4-----4-7-7h9---|-5-5-5--------------|-0-----4-----4-7-7h9---|


  A                  E                   A
  E. S E E E E E E   E E E S S E E E E   E E S S E E E E E
|------------------|-------------------|-------------------|
|------------------|-------------------|-------------2-4-2-|
|------4-4-7-7-9p7-|---7-4-x-----2-4-2-|---------4-4-------|
|-5--5-------------|-0-------0h4-------|-5-5-x-5-----------|


  E                   A                      E
  E E E S S E E E E   E E E. +S  E S S E E   E S S E. S E E E E
|-------------------|----------------------|--------------------|
|-------------------|------------2-4-2-4---|---x-2-2------------|
|---7-4-2-----2-4-2-|-----4--(4)---------2-|----------2S4-4-2-2-|
|-0-------0-4-------|-5-5------------------|-0------------------|


  A                   E                   A
  E S S E E E E E E   E S S E E E E E E   S +S  Q  E E E E S +S
|-------------------|-----------1h4-4h6-|-6-(6)s4--------4--------|
|-----------2-2-4-2-|---2-2-2-----------|-7-(7)s6--7-6-7---4-(4)\-|
|---4---4-----------|-------------------|-------------------------|
|-5---5-------------|-0-----------------|-------------------------|


  E                     A                   E
  S E. +Q   E S S E E   E. S E. S E E E E   E S S E S S E E E  E
|---------------------|-------------------|----------------------|
|-----------6-6-6-4---|------7------------|---------6-6-6-9-9-11-|
|-------------------7-|---------7S9-7-4---|----------------------|
|-0-0--(0)------------|-5--5------------7-|-0-0-0----------------|


  A                        E                      A
  S S  S E S E a  Q   Q    S E. +E  E e S S E E   E. S Q  E E  E  S  +S
|-9-9-11-----6-9s11------|----------------------|--------------------------|
|--------7-7---------11--|------------6-6-6-4---|------7--9-9-11-----------|
|------------------------|--------------------7-|----------------11-(11)\--|
|------------------------|-0-0--(0)-------------|-5--5---------------------|


  E                         A                     E
  S S E S E. E E E S +S     E. S E. S S S E E E   E S S E. S E E E E
|-------------------------|---------------------|--------------------|
|------------6-6-9--------|---------------------|--------------------|
|------------------9-(9)\-|------9----7---4-4---|-------7------2-4-2-|
|-x-0-0-0-0---------------|-5--5----5---5-----5-|-0-0-0----0-4-------|


  A                           E                     A
  S S S S Q  S S E E S +S     S S E S S e E E E E   S S S S E. S S S E E E
|---------------------------|---------------------|-------------------------|
|---------7--------7--------|---------------------|------------------7-7----|
|------------7-9-----9-(9)\-|-------------4---4-7-|---------4--4-7h9-----9--|
|-5-5---5-------------------|-x-0-0---4-7---7-----|-5-5---5-----------------|


  E                     A                   E
  S S E. S E  E E E E   S E. E. S E E E E   Q  E S S E E E E
|------------/6-------|-------------------|------------------|
|--------6-9----9-9-6-|------7--9-6-6-----|------------------|
|---------------------|---------------9-7-|----4-2-----2-4-2-|
|-x-0-0---------------|-5-5---------------|-0------x-4-------|


  A                    E                        A
  E E E S S e E   Q    S S E Q  E. S E S +S     E E E. S E. S E E
|--------------------|------------------------|-------------------|
|-----7---------/11--|-------9--6-------------|-----7-------------|
|---4---7-7-9--------|-------------9-7--------|--------7-9--7-4---|
|-5------------------|-0-0-0-----------9-(9)\-|-5-5-------------7-|


                                              Guitar Solo II
  E                        A                   E
  S S E Q  E. S E S +S     E E E. S E E E E    E. S E E. S E S S E
|------------------------|------------------||---------------------|
|-------9--6-------------|-----7----x-7-----||---------------------|
|-------------9-7--------|--------9-----9-7-||----7---7--7-------7-|
|-0-0-0-----------9-(9)\-|-5-5--------------||-0----4------7-7h9---|


  A                     E                          A
  E. S E E. S E S S E   E. S E Q  E S +S  S +S     Q  E Q  E S S E
|---------------------|--------------------------|-----------------|
|--------7----------7-|--------------------------|------7----------|
|------4----4-7-7h9---|----7---7-----------------|----4----7-7-7-9-|
|-5--5----------------|-0----4----7-7-(7)s9-(9)\-|-5---------------|


  E                      A                             E
  E S S E E. S E S S E   S S S S E E. S e S S S +S     S S E E E E E E E
|----------------------|-----------------------------|--------------------|
|----------------------|-----------7--x--------------|--------------------|
|---------7--7-------7-|---------4------7-7-7-9-(9)\-|---------7---4-7----|
|-0-0-0-4------7-7h9---|-5-5-5-5---------------------|-0-0-0-4---7-----9--|


  A                                   E                      A
  E E S S S   S S  S S S E  S  +S     S S E S S e E  E e E   S E S E e E E E E
|--------------------9---9----------|----------------------|-------------------|
|---9-9-7---/11---11-------11-(11)\-|-----------9---11-9-9-|-7-7-7-7-9-6-6-----|
|-0-------9-------------------------|----------------------|---------------9-7-|
|-----------------------------------|-x-0-0-0-0------------|-------------------|


  E               A                                   E
  Q  q  E E E E   S S S S S S E S S E S  S  S  +S     E  e  S S  E E e  E E
|---------------|-----------------------------------|---11-11p9----9-9-------|
|-----------4-5-|-7-7---7-----7-9p7-9---11-11-(11)\-|-----------11-----11-9--|
|----4--4-7-----|-----9---7h9-----------------------|------------------------|
|---------------|-----------------------------------|------------------------|


  A                          E
  e e e e S S S S E S +S     S S E E E  S S  E E  E
|--------------------------|-------------------9----|
|-7-7-6-6-7-7-7-7-9--------|-----------11p9-11---11-|
|-------------------9-(9)\-|------------------------|
|--------------------------|-0-0-0-0----------------|


  A
  E  S S  S S  S S  e  e  E  S  +S
|---11p9-11p9-11p9-13-13-14-13-(13)\--|
|-------------------------------------|
|-------------------------------------|
|-5-----------------------------------|


  E
  E  e  S S  S S S S  S  S E  S  S
|---11-11-9----9-------------------|
|-----------11-----9-11-11-9-------|
|----------------------------11-11-|
|-0--------------------------------|


  A                                             E
   T  +T   S S S S  S e  S S  S  S E  S  +S     S E.  S  S  E  E. S E E
|----------------------------------9----------|--------------------------|
|--------------9------9-11p9-11-11---11-(11)\-|------11-11-11-11----6-7--|
|-11-(11)s12-------12-------------------------|-------------------9------|
|---------------------------------------------|-0-0----------------------|


  A
  S S E S S E a  S  S  E E  E
|-------------9s11-11-11-9----|
|-----7-9p7-9--------------11-|
|-7h9-------------------------|
|-----------------------------|


  E                          A
  Q  E E S T +T  E S +S  E   E E S S E S S E S S E
|--------------------------|-----------------------|
|--------------------------|-----7---6-6-4---------|
|--------------------------|---------------7-7-----|
|-0--7---7-7-(7)s9-9-(9)s7-|-5-5---5-----------9-7-|


  E                      A                                  E
  E. S E E S S S S E E   S S S S S S S S  S S  S  S  E  E   S S S S Q  E E e E
|----------------------|----------------------------11----|--------------------|
|----------------------|-7---7-7-----7-7-11-9-11-11----11-|------------9---6---|
|------4-7-4p2-4-4-7-9-|---9-----7h9----------------------|-7-7-7-7------7---9-|
|-0--7-----------------|----------------------------------|---------0----------|


  A                         E                  A
  S S S S e E E S S  E  E   E S S Q  E E E E   e E E. S  S S  E  E  S  +S
|---------------9-9-11----|------------------|--------9-11p9h11-13----------|
|----------------------11-|----------9-6-7-9-|-7-7-----------------13-(13)\-|
|-----------9-7-----------|------------------|------------------------------|
|-5-5-5-5-5---------------|-0-0-0-0----------|-----5------------------------|


  E                      A                            E
  E S S  q   E  E E  E   S S e E E E  E  E  S  +S     S S Q  S S  E  E Q
|-------11--/9---------|----------------------------|----------------------|
|--------------11-9-11-|-----7-7-9-9-11-11----------|--------9-9-11-11-9---|
|----------------------|-x-9---------------11-(11)\-|----------------------|
|-0-0-0----------------|----------------------------|-0-0-0----------------|


  A                         E                  A
  S S S S E S S S S E E E   Q  S S E E E E E   E S S E E. S E E E
|-------------------------|------------------|--------------------|
|-7-9---7-9---6---6-------|------------------|----------------7---|
|-----------9-------9-7---|----------4---4-7-|-------4----7-9---9-|
|-----------------------9-|-0--4-4-7---7-----|-5-5-5---5----------|


  E                  A                   E          B  C#mA
  Q  E E S S E E E   E. S E E. S E E E   W          E. E. E +H
|------------------|-------------------|----------|----------------||
|------------------|---------------7---|----------|----------------||
|--------------4---|------4----7-9---9-|-7--------|-2--4-----------||
|-0--4-7-4-4-7---7-|-5--5---5----------|----------|-------5-(5)----||


 3rd Verse
  E        B         A        E        E       B
  E. S E E E E E E   E E E. S Q  E E   E E E E E E E E
|------------------|-----------------|-----------------|
|-2--------------4-|-----4-----------|---2-----------4-|
|----2-4-0-2-2S6---|-------------4p2-|-----4-0-2-2S6---|
|------------------|-5-5----5-0------|-0---------------|


  A                                                E
  E E S S S +S   E E E E   E E E S S E S S E S S   E. S E E. E S E E
|------------------------|-----------------------|--------------------|
|------------------------|-------------7-7-7-----|--------------------|
|-----9-7--------------4-|-4-7-9-7-7-9-----------|-----------2-2-4-2--|
|-5-5-----9-(9)\-5-5-5---|-------------------0-0-|-0--0---0-----------|


                        2nd Chorus
  A                      B         A           E       A
  E. S E E. S E E S S    E. S  E E S S E E E   Q  E. S E E E E
|---------------------||---------------------|-----------------|
|---------------7-7-7-||-9-------------------|-----------------|
|------4----7-9-------||----9-11-9-------9---|----4--------4---|
|-5--5---5------------||-----------5-5-5---0-|-0-----0-5-5---5-|


  B       A               E        A
  E E E E S S E S +S  E   E. S E E E S S Q    S S E E E H      +W
|-----------------------|-------------------|----------------|--------||
|-------4---------------|-------------------|----------------|--------||
|-2-2S6---------9-(9)s7-|------4------------|-------4---9----|-(9)----||
|---------5-5-5---------|-0--7---4-5-5-5-5--|-5-5-7---5------|--------||


 Outro
  E    A        E A E               A        E A E
  H    H      E e e E +H       H    H      E E E E +E  S S E E
|-----------|-6-4------------|-----------|-6-4-----------------|
|-----------|-----7-6-(6)----|-----------|-----7-6-(6)---------|
|-7---------|----------------|-7---------|-------------7-7-----|
|------5----|----------------|------5----|-----------------0-0-|


  E      Dsus2     A            E
  Q  E E Q..   S   Q  E. S Q.   S S   E E +H.        +W
|----------------|------------------|--------------|--------*|
|-6--4-----------|---------7--------|--------------|--------*|
|------7-5-----7-|----4--4------7-7-|-7------------|--------*|
|----------------|-5----------------|---0-(0)------|-(0)----*|


comments
We did not receive enough feedback on this tab! Please rate:
1 2 3 4 5
I want to post or [tab]
guest
You may want to rate the tab now too:
select rating
Please do not post tabs as comments. Select "correction" instead!