Oops, an error
Loading. Please wait.

Danny Blue Tab

843 views 6 this week
no commentswrite comment
1 2 3 4 5
excellent!
x 1
Autoscroll
+/-
esc
set tempo
stop
Contributor
Hey! There's an official Ultimate Guitar app which is ideal
for learning songs when you're away from computer. Get the app
WARNING: You are trying to view
                                    content from Ultimate-Guitar.com
                                    in an unauthorized application,
                                    which is prohibited.

                                    Please use an official Ultimate
                                    Guitar Tabs application for iPhone,
                                    iPad or Android to access legitimate
                                    chords, guitar, bass, and drum tabs
                                    from Ultimate-Guitar.com database.

                                    Type "ultimate guitar tabs" in Apple
                                    App Store's or Android Market's
                                    search to find the application.
I apologize first for all the misspelling in this tab (I'm French)

After a lot of research, I think I've captured a proper tab, It's the closest I can make
and it's my first tab (so be indulgent!)

CAPO 1 (In the video, they play it on capo 0 but the tuning might be D#G#C#F#A#D#, 
in my opinion...)
So let's play it on standard tuning CAPO 1
For the riffs look at the bottom of the page to see the tabs and try by yourself to
incorporate them into the song (A little practice and you're good!)

This is important to catch the rhythm in this song, like that (example on C and G
chords) :

E ------0---0---------0---0-------3---3---------3---3---|
B ------1---1---------1---1-------0---0---------0---0---|
G ------0---0---------0---0-------0---0---------0---0---|
D ------2---2---0H2---2---2-------0---0---------0---0---|
A ---3------------------------------------0H2-----------|
E ---3------------------------3-------------------------|

H : Hammer-on
/ : Slide

INTRO

E ---------------------------------------------------------------------|
B ---------------------------------------------------------------------|
G ---------0-------0-------------0-------0-------------0-------0-------|
D ---3/5-------5-------5---3/5-------5-------5---3/5-------5-------5---|
A ---------------------------------------------------------------------|
E ---------------------------------------------------------------------|

E -----------------------3---|
B ---0-------------------0---|
G -------0---------------0---|
D -----------2---0-------0---|
A -----------------------2---|
E -------------------3---3---|


VERSE 1

          D                    C
Well he stood on a sunny boy shoe-shine box
         G                    C
With a Stella guitar that he didn't play much
          D                      C                           G
And he's tellin' all the ladies gossip 'bout his friends in Nashville.
        Am                C
Said I just flew in from Hollywood
        RIFF1
With a long legged wouldn't do the boogie woogie
     F                      C                G
All night in the arms of a man named Danny Blue.

        Am                           C
Said I never heard your name on the radio
             G                      C
He said you must'a had some better ways
          Am                          C
Said, "I never seen your name in the flashin' lights,"
               RIFF1
he said, "The lights they musta been busted that night."
    F                           C
He run his fingers through his long blond hair and said,
  G
"Hey , who's runnin this show?"
 D                 C                        G
Looked around and said, "it must be Danny Blue."


CHORUS

RIFF2     C    G      D                  G
  Danny Blue, boy, we all know you're a fool boy
 C                       D                        G
big time losers are the only one's who know your name

RIFF3     C    G     D               G
  Danny Blue, boy, play us one more tune boy
 C                         D                   RIFF4
Hey crazy Danny won't you keep us from goin insane.


VERSE 2

      D                C                     G                C
Then Danny Blue hit a tuneful chord and he played a Tennesse Waltz,
    D                C                     G
We danced like only beggars, hookers and thieves can
Am                      C          G                      C
Out of the alley verse Myron James, he was famous in the neighbourhood
        D                  C             G
He had six gold watches on every arm and leg

           Am              C                G                       C
He said, "Danny Blue, you singin' fool, you ain't never gonna be a star
    D                     C                  G
You ain't never been to prison like Cash or Haggard or Coe
      RIFF1                                    C                 G
Then hup and a up jump bee-hive willy and she pushed ol' Myron aside
        Am                       D             G
Said, "Leave him alone he's the king of all of us"


CHORUS


BREAK

      Em
Well sing on crazy Danny, sing on
                D                Dsus4 D
Don't let them naysayers get to you.
       Em
Gonna show 'em crazy Danny,
                        D                 Dsus4        D
Gonna roll 'em up and spit them out like tobacco chew
       G         C       G       (C)
Gonna ride your rags to riches,
       G     C         D   Dsus4   D
Gonna go on with the show.


FINISH WITH THE CHORUS WITHOUT LYRICS

RIFF1
E -----------------------------------|
B -----------------------------------|
G -------------------------------0---|
D -----------------------0---2-------|
A -------0---1---2---3---------------|
E ---3-------------------------------|

RIFF2
E -----------------------|
B -----------------------|
G -----------------------|
D -----------------------|
A -------0---1---2---3---|
E ---3-------------------|

RIFF3
E -----------------------|
B -----------------------|
G -----------------------|
D ---3---2---0-----------|
A ---------------2---3---|
E -----------------------|

RIFF4
E -------------------------------------------------------------------------|
B -------------------------------------------------------------------------|
G ---------0-------0-------------0-------0-------------0-------0-----------|
D ---3/5-------5-------5---3/5-------5-------5---3/5-------5-------5---5---|
A -------------------------------------------------------------------------|
E -------------------------------------------------------------------------|

Enjoy !
comments
We did not receive enough feedback on this tab! Please rate:
print report bad tab
1 2 3 4 5
I want to post or [tab]
guest
You may want to rate the tab now too:
select rating
Please do not post tabs as comments. Select "correction" instead!