Oops, an error
Loading. Please wait.

Im Gonna Move To The Outskirts Of Town Tab

2,364 views 15 this week
no commentswrite comment
1 2 3 4 5
excellent!
x 1
add to favorites launch autoscroll
font size
0
reset
Autoscroll
+/-
esc
set tempo
stop
Contributor
WARNING: You are trying to view
                                    content from Ultimate-Guitar.com
                                    in an unauthorized application,
                                    which is prohibited.

                                    Please use an official Ultimate
                                    Guitar Tabs application for iPhone,
                                    iPad or Android to access legitimate
                                    chords, guitar, bass, and drum tabs
                                    from Ultimate-Guitar.com database.

                                    Type "ultimate guitar tabs" in Apple
                                    App Store's or Android Market's
                                    search to find the application.
-------------------------------------------------------------------------------
       I'm Gonna Move To The Outskirts Of Town - The Allman Brothers Band
-------------------------------------------------------------------------------
Tabbed by: cflat
Email: cflat@earthlink.net

Tempo: 70-76
Tuning: e,a,d,g,b,e -- Live at Ludlow Garage is about 1/2 step flat --

I couldn't find a tab of this anywhere, hope this does the song justice.


  1     2     3     4     5     6      1     2     3     4     5     6

    Intro - Turn Around

    Gtr. 1 (Duane Allman)
 C                                     Eb
1
  1     2     3     4     5     6      1     2     3     4     5     6
e|5x----5x----5x----5x----5x----5x----|8x----8x----8x----8x----8x----8x----|
B|5x----5x----5x----5x----5x----5x----|8x----8x----8x----8x----8x----8x----|
G|5x----5x----5x----5x----5x----5x----|8x----8x----8x----8x----8x----8x----|
D|------------------------------------|------------------------------------|
A|------------------------------------|------------------------------------|
E|------------------------------------|------------------------------------|
 |                                                                         |
 |  Gtr. 2 (Dickey Betts)                                                  |
e|------------------------------------|------------------------------------|
B|5-----5-----5-----5-----5-----5-----|8-----8-----8-----8-----8-----8-----|
G|5-----5-----5-----5-----5-----5-----|8-----8-----8-----8-----8-----8-----|
D|5-----5-----5-----5-----5-----5-----|8-----8-----8-----8-----8-----8-----|
A|3-----3-----3-----3-----3-----3-----|6-----6-----6-----6-----6-----6-----|
E|------------------------------------|------------------------------------|

 Ab                                     Db
3
e|4x----4x----4x----4x----4x----4x----|9x----9x----9x----9x----9x----------|
B|4x----4x----4x----4x----4x----4x----|9x----9x----9x----9x----9x----------|
G|5x----5x----5x----5x----5x----5x----|10x---10x---10x---10x---10x---------|
D|------------------------------------|------------------------------------|
A|------------------------------------|------------------------------------|
E|------------------------------------|------------------------------------|
 |                                                                         |
e|------------------------------------|------------------------------------|
B|------------------------------------|6-----6-----6-----6-----6-----6-----|
G|5-----5-----5-----5-----5-----5-----|6-----6-----6-----6-----6-----6-----|
D|6-----6-----6-----6-----6-----6-----|6-----6-----6-----6-----6-----6-----|
A|6-----6-----6-----6-----6-----6-----|4-----4-----4-----4-----4-----4-----|
E|4-----4-----4-----4-----4-----4-----|------------------------------------|


    Intro Verse

 C7
5
e|------------------------------------|------------------------------------|
B|---------------------------------13-|15^17-------------------------------|
G|-----------------------------/14----|------------------------------------|
D|------------------------------------|------------------------------------|
A|------------------------------------|------------------------------------|
E|------------------------------------|------------------------------------|
 |                                                                         |
e|------------------------------------|------------------------------------|
B|------------------------------------|------------------------------------|
G|------8-----7-----7-----7-----7-----|7-----------------------------------|
D|------8-----8-----8-----8-----8-----|8-----------------------------------|
A|------------------------------------|7-----------------------------------|
E|------------------------------------|------------------------------------|


 F7
7
e|------------------------------------|------------------------------------|
B|-------16^18------------15^17--13---|13\11\------------------------------|
G|------------------------------------|------------------------------------|
D|------------------------------------|------------------------------------|
A|------------------------------------|------------------------------------|
E|------------------------------------|------------------------------------|
 |                                                                         |
e|------------------------------------|------------------------------------|
B|8-----------------------------------|8-----------------------------------|
G|8-----------------------------------|8-----------------------------------|
D|7-----------------------------------|7-----------------------------------|
A|8-----------------------------------|8-----------------------------------|
E|------------------------------------|------------------------------------|

  C7
9
e|------------------------------------|------------------------------------|
B|-----------13---15^17-----(17)^15---|--------------13-13h15--------------|
G|-----/14----------------------------|----------/14----------14-----------|
D|------------------------------------|------------------------------------|
A|------------------------------------|------------------------------------|
E|------------------------------------|------------------------------------|
 |                                                                         |
e|------------------------------------|------------------------------------|
B|------------------------------------|------------------------------------|
G|7-----------------------------------|7----------------------------7------|
D|8-----------------------------------|8----------------------------8------|
A|7-----------------------------------|7----------------------------7------|
E|------------------------------------|------------------------------------|

 C7
11
e|------------------8~----------------|(8)\--------------------------------|
B|------------------------------------|---------13-15-15^17^15p13----------|
G|--------10\--8^9--------------------|------/14-----------------15^17-----|
D|------------------------------------|------------------------------------|
A|------------------------------------|------------------------------------|
E|------------------------------------|------------------------------------|
 |                                                                         |
e|------------------------------------|------------------------------------|
B|------------------------------------|------------------------------------|
G|7------------------7----------------|7------------------7----------------|
D|8------------------8----------------|8------------------8----------------|
A|7------------------7----------------|7------------------7----------------|
E|------------------------------------|------------------------------------|

 F7
13
e|------------------------------------|-------------------------------8-11-|
B|------------------------------------|-----------------------------8------|
G|(17)^15^17-15^17-------15^17--------|13\10-10-12--8^---10--8-10^12-------|
D|------------------------------------|----13---------10-------------------|
A|------------------------------------|------------------------------------|
E|------------------------------------|------------------------------------|
 |                                                                         |
e|------------------------------------|------------------------------------|
B|8------------------8-----8----------|8------------------8-----8----------|
G|8------------------8-----8----------|8------------------8-----8----------|
D|7------------------7-----7----------|7------------------7-----7----------|
A|8------------------8-----8----------|8------------------8-----8----------|
E|------------------------------------|------------------------------------|

 F7
15
e|8~----------8-----8--11^13----11--8-|------------------------------------|
B|---------------11-------------------|11^13~----------(13)\--------13-----|
G|------------------------------------|-------------------------/14----14--|
D|------------------------------------|------------------------------------|
A|------------------------------------|------------------------------------|
E|------------------------------------|------------------------------------|
 |                                                                         |
e|------------------------------------|------------------------------------|
B|8-----------------------------------|8------------------8----------------|
G|8-----------------------------------|8------------------8----------------|
D|7-----------------------------------|7------------------7----------------|
A|8-----------------------------------|8------------------8----------------|
E|------------------------------------|------------------------------------|

 C7                                    B7
17
e|-----15-----------------------------|-----15-----------------------------|
B|15^17--15^17~------------------13-13|15^18--15^17^15\----------------13--|
G|------------------------------------|------------------------------------|
D|------------------------------------|------------------------------------|
A|------------------------------------|------------------------------------|
E|------------------------------------|------------------------------------|
 |                                                                         |
e|------------------------------------|------------------------------------|
B|8----------------8------8-----8-----|7-----------------------7-----7-----|
G|9-----------------9-----9-----9-----|8-----------------------8-----8-----|
D|8------------------8----8-----8-----|7-----------------------7-----7-----|
A|10------------------10--10----10----|9-----------------------9-----9-----|
E|8--------------------8--8-----8-----|7-----------------------7-----7-----|

 Bb7                                    A7
19
e|-----15-----------------------------|-----------------------15^17--15----|
B|15^18--15^17^15\--------15^18--13---|15^17-------------------------------|
G|------------------------------------|------------------------------------|
D|------------------------------------|------------------------------------|
A|------------------------------------|------------------------------------|
E|------------------------------------|------------------------------------|
 |                                                                         |
e|------------------------------------|------------------------------------|
B|6-----------6-----------6-----6-----|5------------------5-----5-----5----|
G|7-----------7-----------7-----7-----|6------------------6-----6-----6----|
D|6-----------6-----------6-----6-----|5------------------5-----5-----5----|
A|8-----------8-----------8-----8-----|7------------------7-----7-----7----|
E|6-----------6-----------6-----6-----|5------------------5-----5-----5----|

 Dm7
21
e|15^17-------15----------------15----|------------------------------------|
B|------------------------15^17-------|15^18-15^17-13~---------------------|
G|------------------------------------|------------------14\---------------|
D|------------------------------------|------------------------------------|
A|------------------------------------|------------------------------------|
E|------------------------------------|------------------------------------|
 |                                                                         |
e|------------------------------------|------------------------------------|
B|6----------------6------------------|6-----------------------------------|
G|5----------------5------------------|5-----------------5h7p5-------------|
D|7----------------7------------------|7----------------------5h7p5--5h7~--|
A|5----------------5------------------|5-----------------------------------|
E|------------------------------------|------------------------------------|

 G7
23
e|------------------------------------|------15^17-15----------------------|
B|----13--15-15----15^17^15p13-13~\---|---13-----------15^17--13--15^17^15p|
G|/13---14-----14---------------------|/14---------------------------------|
D|------------------------------------|------------------------------------|
A|------------------------------------|------------------------------------|
E|------------------------------------|------------------------------------|
 |                                                                         |
e|3-------------3--3------------------|3-----------3----3---------------3--|
B|3-------------3--3------------------|3-----------3----3---------------3--|
G|4-------------4--4------------------|4-----------4----4---------------4--|
D|3-------------3--3------------------|3-----------3----3---------------3--|
A|5-------------5--5------------------|5-----------5----5---------------5--|
E|3-------------3--3------------------|3-----------3----3---------------3--|

 C                                     Eb
25
e|------------------------------------|------------------------------------|
B|13-13~----------------15^18-15^17^15|13~--------13---13-----15^18-15^17--|
G|------------------------------------|------------------------------------|
D|------------------------------------|------------------------------------|
A|------------------------------------|------------------------------------|
E|------------------------------------|------------------------------------|
 |                                                                         |
e|------------------------------------|------------------------------------|
B|5----------------5------------------|8-----------8----8-------------8----|
G|5-------------------5---------------|8-----------8----8-------------8----|
D|5----------------------5------------|8-----------8----8-------------8----|
A|3-----------------------------------|6-----------6----6-------------6----|
E|------------------------------------|------------------------------------|

 Ab                                     Db
27
e|------------------------------------|------------------------------8-----|
B|(17)^15----13----13h15--------13----|11-^-12-----------------------------|
G|------------------------14----------|-----------10-----------8-^-9-------|
D|------------------------------------|------------------------------------|
A|------------------------------------|------------------------------------|
E|------------------------------------|------------------------------------|
 |                                                                         |
e|------------------------------------|------------------------------------|
B|------------------------------------|6-----------6-----6-----------6-----|
G|5-----------5-----5-----------5-----|6-----------6-----6-----------6-----|
D|6-----------6-----6-----------6-----|6-----------6-----6-----------6-----|
A|6-----------6-----6-----------6-----|4-----------4-----4-----------4-----|
E|4-----------4-----4-----------4-----|------------------------------------|

  1     2     3     4     5     6      1     2     3     4     5     6

    Verse 1

 C7
29      * start volume knob closed and bring up the volume

e|---------------------------------8--|------------------------------------|
B|*11--^--12--^--13----------11^13----|------------------------------------|
G|------------------------------------|--/10-------------------------------|
D|------------------------------------|10---10~----------------------------|
A|------------------------------------|------------------------------10--8-|
E|------------------------------------|------------------------------------|
 |                                                                         |
e|------------------------------------|------------------------------------|
B|------------------8-----------------|(8)---------------------------------|
G|---7-----7----7---7-----------------|(7)---------------------------------|
D|---8-----8----8---8-----------------|(8)---------------------------------|
A|---7-----7----7---7-----------------|(7)---------------------------------|
E|------------------------------------|------------------------------------|

                                       Well  I'm  gonna  move      baby

 F7
31
e|------------------------------------|------------------------------------|
B|------------------------------------|------------------------------------|
G|------------------------------------|------------------------------------|
D|------------------------------------|------------------------------------|
A|7-----------------------------------|------------------------------------|
E|------------------------------------|------------------------------------|
 |                                                                         |
e|8-----------------------------------|8-----------------------------------|
B|8-----------------------------------|8-----------------------------------|
G|8-----------------------------------|8-----------------------------------|
D|7-----------------------------------|7-----------------------------------|
A|------------------------------------|------------------------------------|
E|------------------------------------|------------------------------------|


  C7
33
e|------------------------------------|------------------------------------|
B|------------------------------------|------------------------------------|
G|------------------------------------|------------------------------------|
D|------------------------------------|------------------------------------|
A|------------------------------------|------------------------------------|
E|------------------------------------|------------------------------------|
 |                                                                         |
e|------------------------------------|------------------------------------|
B|8-----------------------------------|8-----------------------------------|
G|7-----------------------------------|7-----------------------------------|
D|8-----------------------------------|8-----------------------------------|
A|7-----------------------------------|7-----------------------------------|
E|------------------------------------|------------------------------------|

                                 way                              on  the

 C7
35
e|------------------------------------|------------------------------------|
B|-------------------------------11---|------------------------------------|
G|----------------------10^12---------|10^12~------------------------10--8-|
D|------------------------------------|------------------------------------|
A|------------------------------------|------------------------------------|
E|------------------------------------|------------------------------------|
 |                                                                         |
e|------------------------------------|------------------------------------|
B|8x----------------------------------|8-----------------8-----------------|
G|7x----------------------------------|7-----------------7-----------------|
D|8x----------------------------------|8-----------------8-----------------|
A|7x----------------------------------|7-----------------7-----------------|
E|------------------------------------|------------------------------------|

   outskirts  of  town


 F7
37
  1     2     3     4     5     6      1     2     3     4     5     6
e|------------------------------------|------------------------------------|
B|---8--------------------------------|------------------------------------|
G|10----8`----------8x----------------|------------------------------------|
D|----------10~-----------------------|------------------------------------|
A|------------------------------------|------------------------------------|
E|------------------------------------|------------------------------------|
 |                                                                         |
e|8-----------------------------------|------------------8-----8-----8-----|
B|8-----------------------------------|------------------8-----8-----8-----|
G|8-----------------------------------|------------------8-----8-----8-----|
D|7-----------------------------------|------------------7-----7-----7-----|
A|------------------------------------|------------------------------------|
E|------------------------------------|------------------------------------|

                                        well  I'm  gonna  move

 F7
39
e|------------------------------------|------------------------------------|
B|------------------------------13-15-|15^16-13-15----13~------------13-13-|
G|---------------------------14-------|------------14----------------------|
D|------------------------15----------|------------------------------------|
A|------------------------------------|------------------------------------|
E|------------------------------------|------------------------------------|
 |                                                                         |
e|8-----------------------------------|8-----------------------------------|
B|8-----------------------------------|8-----------------------------------|
G|8-----------------------------------|8-----------------------------------|
D|7-----------------------------------|7-----------------------------------|
A|------------------------------------|------------------------------------|
E|------------------------------------|------------------------------------|

  baby                            yeah


 C7                                    B7
41
e|------15----------------------------|------------------------------------|
B|15^17-------------------------------|15----------------------------------|
G|------------------------------------|----14--14--------------------------|
D|------------------------------------|------------------------------------|
A|------------------------------------|------------------------------------|
E|------------------------------------|------------------------------------|
 |                                                                         |
e|------------------------------------|------------------------------------|
B|8-----------------------------8-----|7-----------------7-----------------|
G|7-----------------------------7-----|6-----------6-----------6-----------|
D|8-----------------------------8-----|7--------7--------------------7-----|
A|7-----------------------------7-----|6-----6-----------------------------|
E|------------------------------------|------------------------------------|

                          way    back   down

 Bb7                                    A7
43
  1     2     3     4     5     6      1     2     3     4     5     6
e|------------------------------------|------------------------------------|
B|------------------------------------|------------------------------------|
G|------------------------------------|------------------------------------|
D|------------------------------------|------------------------------------|
A|------------------------------------|------------------------------------|
E|------------------------------------|------------------------------------|
 |                                                                         |
e|------------------------------------|------------------------------------|
B|------------------6-----------------|------------------6-----------------|
G|------------5-----------5-----------|------------5-----------5-----------|
D|------6-----------------------6-----|------6-----------------------6-----|
A|5-----------------------------------|4-----------------------------------|
E|------------------------------------|------------------------------------|

   oh  on  the  outskirts  of  town               yeah   yeah


 Dm7
45
e|------------------------------------|------------------------------------|
B|------------------------------------|------------10h13p10----------------|
G|------------------------------------|--------------------10h12p10--------|
D|12----------------12----------------|----------------------------10------|
A|------------------------------------|------------------------------------|
E|------------------------------------|------------------------------------|
 |                                                                         |
e|------------------------------------|------------------------------------|
B|6x----------------6-----------------|6-----------------------------------|
G|5x----------------5-----------------|5-----------------------------------|
D|7x----------------7-----------------|7-----------------------------------|
A|5x----------------5-----------------|5-----------------------------------|
E|------------------------------------|------------------------------------|

                                       well  I  don't  need  nobody  else

 G7
47
  1     2     3     4     5     6      1     2     3     4     5     6
e|------------------------------------|------------------------------------|
B|10----10----10----10----10----10----|10----10----10----10----10----------|
G|10----10----10----10----10----10----|10----10----10----10----10----------|
D|------------------------------------|------------------------------------|
A|------------------------------------|------------------------------------|
E|------------------------------------|------------------------------------|
 |                                                                         |
e|3-----------------------------------|------------------------------------|
B|3-----------------------------------|------------------------------------|
G|4-----------------------------------|------------------------------------|
D|5-----------------------------------|------------------------------------|
A|5-----------------------------------|------------------------------------|
E|------------------------------------|------------------------------------|

          always   hanging   around                                 yeah


 C                                     Eb
49
  1     2     3     4     5     6      1     2     3     4     5     6
e|8-----8-----8-----8-----8-----8-----|11----11----11----11----11----11----|
B|8-----8-----8-----8-----8-----8-----|11----11----11----11----11----11----|
G|9-----9-----9-----9-----9-----9-----|12----12----12----12----12----12----|
D|------------------------------------|------------------------------------|
A|------------------------------------|------------------------------------|
E|------------------------------------|------------------------------------|
 |                                                                         |
e|------------------------------------|------------------------------------|
B|5-----------------5-----------------|8-----------------8-----------8-----|
G|5-----------------5-----------------|8-----------------8-----------8-----|
D|5-----------------5-----------------|8-----------------8-----------8-----|
A|3-----------------3-----------------|6-----------------6-----------6-----|
E|------------------------------------|------------------------------------|

   yeah  baby


 Ab                                    Db
51
e|4-----4-----4-----4-----4-----4-----|7-----7-----7-----7-----------3-----|
B|4-----4-----4-----4-----4-----4-----|6-----6-----6-----6------4h5--------|
G|5-----5-----5-----5-----5-----5-----|6-----6-----6-----6-----------------|
D|------------------------------------|------------------------------------|
A|------------------------------------|------------------------------------|
E|------------------------------------|------------------------------------|
 |                                                                         |
e|------------------------------------|------------------------------------|
B|------------------------------------|6-----------------6-----------------|
G|5-----------------5-----------------|6-----------------6-----------------|
D|6-----------------6-----------------|6-----------------6-----------------|
A|6-----------------6-----------------|4-----------------4-----------------|
E|4-----------------4-----------------|------------------------------------|

                                  oh   oh

  1     2     3     4     5     6      1     2     3     4     5     6

   Verse 2

 C7
53
e|------------------------------------|------------------------------------|
B|------------------------------------|------------------------------13-15-|
G|------------------------------------|----------------------------14x-----|
D|5-----------------------------------|--------------------------15x-------|
A|------------------------------------|------------------------------------|
E|------------------------------------|------------------------------------|
 |                                                                         |
e|------------------------------------|------------------------------------|
B|8-----------------8x----------------|8-----------------8x----------------|
G|7-----------------7x----------------|7-----------------7x----------------|
D|8-----------------8x----------------|8-----------------8x----------------|
A|7-----------------7x----------------|7-----------------7x----------------|
E|------------------------------------|------------------------------------|

                                well   let  me  tell  you  baby

 F7
55

e|------------------------------------|------------------13----15`---------|
B|^17^15p13---------------------------|13-h15------------------------16--^-|
G|----------15^17~--------------------|------------------------------------|
D|------------------------------------|--------15--------------------------|
A|------------------------------------|------------------------------------|
E|------------------------------------|------------------------------------|
 |                                                                         |
e|8-----------------8x----------------|8/10\8------------8x----------------|
B|8-----------------8x----------------|8/10\8------------8x----------------|
G|8-----------------8x----------------|8/10\8------------8x----------------|
D|7-----------------7x----------------|------------------7x----------------|
A|------------------------------------|------------------------------------|
E|------------------------------------|------------------------------------|

               we're  gonna  move  away  from  here


  C7
57
e|------------------------------------|------------------------------18-15-|
B|^17~--------------------------------|------------------------------------|
G|------------------------------------|------------------------------------|
D|------------------------------------|------------------------------------|
A|------------------------------------|------------------------------------|
E|------------------------------------|------------------------------------|
 |                                                                         |
e|------------------------------------|------------------------------------|
B|8-----------------------------------|------------------8x----------------|
G|7-----------------------------------|7/8\7-------------7x----------------|
D|8-----------------------------------|8/9\8-------------8x----------------|
A|7-----------------------------------|------------------7x----------------|
E|------------------------------------|------------------------------------|

                          well  I  don't  need  no  ice  man


 C7
59
e|------------------------------------|----------------------------------8-|
B|15^16`-^15\-------------------------|----------------------------11^13---|
G|------------------------------------|------------------------------------|
D|------------------------------------|------------------------------------|
A|------------------------------------|------------------------------------|
E|------------------------------------|------------------------------------|
 |                                                                         |
e|------------------------------------|--------------------8---------8-----|
B|8/9\8-------------8x----------------|---8----------------8---------8-----|
G|7/8\7-------------7x----------------|---7----------------7---------7-----|
D|8/9\8-------------8x----------------|---8--------------------------------|
A|------------------7x----------------|---7--------------------------------|
E|------------------------------------|------------------------------------|

       I'm  gonna buy                  lord I'm gonna buy you a frigidaire


 F7
61

e|------------------------------------|--------------------------------10--|
B|8-10--------------------------------|------------------------------------|
G|-----8~-----------------------------|---------------------------8/10-----|
D|------------------------------------|------------------------------------|
A|------------------------------------|------------------------------------|
E|------------------------------------|------------------------------------|
 |                                                                         |
e|8/9\8-------------8-----------------|------------------8-----------------|
B|8/9\8-------------8-----------------|------------8-----------------------|
G|8/9\8-------------8--------------8--|------8-----------------------------|
D|------------------7-----------8-----|7-----------------------------------|
A|------------------------------------|------------------------------------|
E|------------------------------------|------------------------------------|

                           ooo         oo oh

 F7
63
e|10\-8-------------------------------|-------------10-\-8-------------11--|
B|------------------------------------|------------------------------------|
G|10\-8-------------------------------|------8-/-10-----------------/11----|
D|------------------------------------|------------------------------------|
A|------------------------------------|------------------------------------|
E|------------------------------------|------------------------------------|
 |                                                                         |
e|8-----------------8-----------------|8-----------------8-----------------|
B|8-----------------8-----------------|8-----------------8-----------7-----|
G|8-----------------8-----------------|8-----------------8-----------6-----|
D|7-----------------7-----------------|7-----------------7-----------7-----|
A|------------------------------------|------------------------------6-----|
E|------------------------------------|------------------------------------|

   lord when we move


 C7                                    B7
65
e|/12---------------------------12----|11----------------------------11----|
B|------------------------------------|------------------------------------|
G|/12---------------------------12----|11----------------------11----------|
D|------------------------------------|------------------------------------|
A|------------------------------------|------------------------------------|
E|------------------------------------|------------------------------------|
 |                                                                         |
e|------------------------------------|------------------------------------|
B|8---8-------------------------------|------------------------------------|
G|7---7-------7--------7--------7-----|---6--------6--------6--------6-----|
D|8---8----------8--------8--------8--|------7--------7--------7--------7--|
A|7---7----7--------7--------7--------|6--------6--------6--------6--------|
E|------------------------------------|------------------------------------|

                             way  back  down


 Bb7                                    A7
67

e|10----------------------------10----|9-----------9-----------------------|
B|------------------------------------|------------------------------------|
G|10----------------------------10----|9-----------9-----------------------|
D|------------------------------------|------------------------------------|
A|------------------------------------|------------------------------------|
E|------------------------------------|------------------------------------|
 |                                                                         |
e|------------------------------------|------------------------------------|
B|------------------------------------|------------------5-----------------|
G|---5--------5----/7----\5-----------|---4--------4-----------------------|
D|------6--------6--------------6-----|------5--------5--------------------|
A|5--------5--------------------------|4--------4--------------------------|
E|------------------------------------|------------------------------------|

  Lord  on  the  outskirts  of  town                       yeah    yeah


 Dm7
69
e|------------------------------------|------------------------------------|
B|-----------------10-----------------|------------10h13p10----------------|
G|-----------------10-----------------|--------------------10h12p10--------|
D|-----------------10-----------------|----------------------------10------|
A|------------------------------------|------------------------------------|
E|------------------------------------|------------------------------------|
 |                                                                         |
e|------------------------------------|------------------------------------|
B|6x----------------6-----------------|6-----------------------------------|
G|5x----------------5-----------------|5-----------------------------------|
D|7x----------------7-----------------|7-----------------------------------|
A|5x----------------5-----------------|5-----------------------------------|
E|------------------------------------|------------------------------------|

  well  I  don't  need  nobody  yeah                                 al-


 G7
71
e|------------------------------------|------------------------------------|
B|10----10----10----10----10----10----|10----10----10----10----10----------|
G|10----10----10----10----10----10----|10----10----10----10----10----------|
D|------------------------------------|------------------------------------|
A|------------------------------------|------------------------------------|
E|------------------------------------|------------------------------------|
 |                                                                         |
e|------------------------------------|------------------------------------|
B|------------------0-----------------|---------------------0--------------|
G|-------------2----------------2-----|0-----------------2-----------------|
D|------0-----------------------------|------------------------------------|
A|------------------------------------|------------------------------------|
E|3-----------------------------------|------------------------------------|

            -ways  hanging  around


 C                                     Eb
73
  1     2     3     4     5     6      1     2     3     4     5     6
e|8-----8-----8-----8-----8-----8-----|11----11----11----11----11----11----|
B|8-----8-----8-----8-----8-----8-----|11----11----11----11----11----11----|
G|9-----9-----9-----9-----9-----9-----|12----12----12----12----12----12----|
D|------------------------------------|------------------------------------|
A|------------------------------------|------------------------------------|
E|------------------------------------|------------------------------------|
 |                                                                         |
e|------------------------------------|------------------------------------|
B|5-----------------5-----------------|8-----------------8-----------8-----|
G|5-----------------5-----------------|8-----------------8-----------8-----|
D|5-----------------5-----------------|8-----------------8-----------8-----|
A|3-----------------3-----------------|6-----------------6-----------6-----|
E|------------------------------------|------------------------------------|

                               ooo       oo                          oh


 Ab                                    Db
75
e|4-----4-----4-----4-----4-----4-----|7-----7-----7-----7-----------------|
B|4-----4-----4-----4-----4-----4-----|6-----6-----6-----6-----------------|
G|5-----5-----5-----5-----5-----5-----|6-----6-----6-----6-----------------|
D|------------------------------------|------------------------------------|
A|------------------------------------|------------------------------------|
E|------------------------------------|------------------------------------|
 |                                                                         |
e|------------------------------------|------------------------------------|
B|------------------------------------|6-----------------6-----------------|
G|5-----------------5-----------------|6-----------------6-----------------|
D|6-----------------6-----------------|6-----------------6-----------------|
A|6-----------------6-----------------|4-----------------4-----------------|
E|4-----------------4-----------------|------------------------------------|

                  gonna play you a little song                      yeah

  1     2     3     4     5     6      1     2     3     4     5     6

   Gtr. 1 Solo (Duane Allman)

 C7
77
e|------------------------------------|------------------------------------|
B|-------------------------13--15--13-|15^17-13--13~-----------------------|
G|------------------12--14------------|------------------------------------|
D|------------------------------------|------------------------------------|
A|------------------------------------|------------------------------------|
E|------------------------------------|------------------------------------|
 |                                                                         |
e|------------------------------------|------------------------------------|
B|8-----------------------------------|8x-----------------8----------------|
G|7-----------------------------------|7x-----------------7----------------|
D|8-----------------------------------|8x-----------------8----------------|
A|7-----------------------------------|7x-----------------7----------------|
E|------------------------------------|------------------------------------|

                                                               mmmmm

 F7
79
e|------------------------------------|------------------------------------|
B|------------------------------13-15-|13--15^18-15^17-13~-----------(13)\-|
G|------------------------12-14-------|------------------------------------|
D|------------------------------------|------------------------------------|
A|------------------------------------|------------------------------------|
E|------------------------------------|------------------------------------|
 |                                                                         |
e|------------------------------------|------------------------------------|
B|8-----------------8x----------------|8------------------8----------------|
G|8-----------------8x----------------|8------------------8----------------|
D|7-----------------7x----------------|7------------------7----------------|
A|8-----------------8x----------------|8------------------8----------------|
E|------------------------------------|------------------------------------|

  C7
81
e|------------------------------------|----------------11^12-12^13-11^12---|
B|----------12------15^17-------------|----------13------------------------|
G|----12-14----12---------------------|-------------12---------------------|
D|------------------------------------|------------------------------------|
A|------------------------------------|------------------------------------|
E|------------------------------------|------------------------------------|
 |                                                                         |
e|------------------------------------|------------------------------------|
B|8-----------------8x----------------|8x-----------------8----------------|
G|7-----------------7x----------------|7x-----------------7----------------|
D|8-----------------8x----------------|8x-----------------8----------------|
A|7-----------------7x----------------|7x-----------------7----------------|
E|------------------------------------|------------------------------------|

 C7
83
e|-------------------------13---------|------------------------------------|
B|13~---------------------------15^17-|(17)^15-13-------------------^20^16-|
G|-------------------12-12------------|------------------------------------|
D|------------------------------------|------------------------------------|
A|------------------------------------|------------------------------------|
E|------------------------------------|------------------------------------|
 |                                                                         |
e|------------------------------------|------------------------------------|
B|8x----------------------------------|------------------8x-----------8-/10|
G|7x----------------------7-----------|------7-----------7x----7x-----8-/10|
D|8x----------------------------8-----|------------8-----8x----8x----------|
A|7x----------------7-----------------|7-----------------------7x----------|
E|------------------------------------|------------------------------------|

 F7
85
e|------------------------------------|------------------------15----------|
B|(16)^20--13------(13)\--------------|13h15-----------------------16-^-^--|
G|---------------------------------14-|------------------------------------|
D|------------------------------------|------15----------------------------|
A|------------------------------------|------------------------------------|
E|------------------------------------|------------------------------------|
 |                                                                         |
e|------------------------------------|------------------------------------|
B|(10)\8------------8-----------------|8-----------------------7-/-8---10-\|
G|(10)\8------------8-----------------|8-----------------------7-/-8---10-\|
D|------------------------------------|------------------------------------|
A|------------------------------------|------------------------------------|
E|------------------------------------|------------------------------------|

 F7
87
e|------------------------------------|------15----17----15-----------15---|
B|20--13~---------------------13--13--|15^16------------------13-15^17--15^|
G|----------\14--------------14-------|14^15-------------------------------|
D|--------------------------15--------|------------------------------------|
A|------------------------------------|------------------------------------|
E|------------------------------------|------------------------------------|
 |                                                                         |
e|------------------------------------|7-----------------------8-----8p7---|
B|8-----------------------------------|8-----------------------------------|
G|8-----------------------------------|------------------------------------|
D|------------------------------------|------------------------------------|
A|------------------------------------|------------------------------------|
E|------------------------------------|------------------------------------|

 C7                                    B7
89
e|------------------------13----------|-------------------------------15---|
B|^17~---------------------------15^17|-13~----------------------15^17--15^|
G|------------------------------------|---------14\------------------------|
D|------------------------------------|------------------------------------|
A|------------------------------------|------------------------------------|
E|------------------------------------|------------------------------------|
 |                                                                         |
e|------------------------------------|------------------------------------|
B|------------------------------------|------------------7-----------------|
G|7-----------------------------7-----|------------6-----------6-----------|
D|8-----------------------8-----------|------7-----------------------7-----|
A|7-----------------7-----------------|6-----------------------------------|
E|------------------------------------|------------------------------------|

 Bb7                                    A7
91
e|(15)--------------------------------|-------------------------19----17---|
B|^17~------------------(17)^15--13---|15^17-15^17-------------------------|
G|------------------------------------|------------------------------------|
D|------------------------------------|------------------------------------|
A|------------------------------------|------------------------------------|
E|------------------------------------|------------------------------------|
 |                                                                         |
e|------------------------------------|------------------------------------|
B|------------------6-----------------|------------------5-----------------|
G|------------5-----------5-----------|------------4-----------4-----------|
D|------6-----------------------6-----|------5-----------------------5-----|
A|5-----------------------------------|4-----------------------------------|
E|------------------------------------|------------------------------------|

 Dm7
93
e|17^20--------17---------------15----|------------------------------------|
B|-------------------------15^17---15^|17^15p13-13------13h15--------------|
G|------------------------------------|--------------14-------14-----------|
D|------------------------------------|------------------------------------|
A|------------------------------------|------------------------------------|
E|------------------------------------|------------------------------------|
 |                                                                         |
e|------------------------------------|------------------------------------|
B|6x----------------6-----------(6)p5-|8-----------------6---6p5-----------|
G|5x----------------5-----------------|5-----------------------------5-----|
D|7x----------------7-----------------|7-----------------------------------|
A|------------------------------------|------------------------------------|
E|------------------------------------|------------------------------------|

 G7         * accidental open string
95
e|------------------------------------|------------------------------------|
B|---13-13-13-13-15-15^16^15p13-13\---|13----15---16----15--15^17--15^16^15|
G|/14--------*(0)------------------/14|---14----14---14--------------------|
D|------------------------------------|------------------------------------|
A|------------------------------------|------------------------------------|
E|------------------------------------|------------------------------------|
 |                                                                         |
e|------------------------------------|------------------------------------|
B|8-----------8------8----------------|------------------------------------|
G|7-----------7------7----------------|10----10----10x---9-----------7-----|
D|9-----------9------9----------------|10----10----10x---10----------10----|
A|------------------------------------|------------------------------------|
E|------------------------------------|------------------------------------|

 C                                     Eb
97
e|---------15^17----------------------|----------------------------15^17---|
B|13------------------15^17--15^16^15-|13~-------13----13h15---------------|
G|------------------------------------|-------------14-------14p0----------|
D|------------------------------------|------------------------------------|
A|------------------------------------|------------------------------------|
E|------------------------------------|------------------------------------|
 |                                                                         |
e|------------------------------------|------------------------------------|
B|------------------------------------|8-----------8------8----------8-----|
G|9-----------9------9----------9-----|8-----------8------8----------8-----|
D|10----------10-----10---------10----|8-----------8------8----------8-----|
A|10----------10-----10---------10----|6-----------6------6----------6-----|
E|8-----------8------8----------8-----|------------------------------------|

 Ab                                    Db
99
e|(17)-15----15^18--15^18-----(18)^15-|15-----(15)\------------------------|
B|------------------------------------|------------------------13----13----|
G|------------------------------------|-----------------/14----------------|
D|------------------------------------|------------------------------------|
A|------------------------------------|------------------------------------|
E|------------------------------------|------------------------------------|
 |                                                                         |
e|------------------------------------|------------------------------------|
B|------------------------------------|6------------------7----------------|
G|5-----------5------5----------5-----|6------------------6----------------|
D|6-----------6------6----------6-----|6------------------7----------------|
A|6-----------6------6----------6-----|------------------------------------|
E|4-----------4------4----------4-----|------------------------------------|


  1     2     3     4     5     6      1     2     3     4     5     6

   Round 2

 C7
101
e|15^17--12--15~----------------------|(15)--15----15--------------15------|
B|------------------------------------|------------------15^17--------15^17|
G|------------------------------------|------------------------------------|
D|------------------------------------|------------------------------------|
A|------------------------------------|------------------------------------|
E|------------------------------------|------------------------------------|
 |                                                                         |
e|------------------------------------|------------------------------------|
B|8-----------8-----8-----------10----|11-----------10----8----------8-----|
G|7-----------9-----9-----------10----|12-----------10----9----------7-----|
D|------------------------------------|------------------------------------|
A|------------------------------------|------------------------------------|
E|------------------------------------|------------------------------------|


 F7
103
e|------------------------------------|------------------------------------|
B|(17)^15---13~\----------------13----|13h15------------------13~13--13~13-|
G|--------14--------------/14---------|-----14----------/14----------------|
D|------------------------------------|------------------------------------|
A|------------------------------------|------------------------------------|
E|------------------------------------|------------------------------------|
 |                                                                         |
e|------------------------------------|------------------------------------|
B|------------8-----8-----------10----|11-----------10----8----------------|
G|------------7h8---7h8---------10----|12-----------10----8----------5-----|
D|------------------------------------|------------------------------------|
A|------------------------------------|------------------------------------|
E|------------------------------------|------------------------------------|

  C7                     * accidental honk note
105
e|15^17--12--15~---15---15^17---------|15~---------15-----------15---------|
B|------------------------------------|-----------------15^17--(17)---15^18|
G|-----------------------*(15)--------|------------------------------------|
D|------------------------------------|------------------------------------|
A|------------------------------------|------------------------------------|
E|------------------------------------|------------------------------------|
 |                                                                         |
e|------------------------------------|------------------------------------|
B|------------8-----8-----------10----|11-----------10----8----------------|
G|------------9-----9-----------10----|12-----------10----9----------5~----|
D|------------------------------------|------------------------------------|
A|------------------------------------|------------------------------------|
E|------------------------------------|------------------------------------|

 C7
107
e|------------------------------------|------------------------------------|
B|15-^-17-^-15---13~------13--13h15---|15^18-15^17-^-15--13~-----13-13-----|
G|------------------------------------|------------------------------------|
D|------------------------------------|------------------------------------|
A|------------------------------------|------------------------------------|
E|------------------------------------|------------------------------------|
 |                                                                         |
e|------------------------------------|------------------------------------|
B|------------8-----8-----------10----|11-----------10----8----------------|
G|------------8h9---8h9---------10----|12-----------10----9----------------|
D|------------------------------------|------------------------------------|
A|------------------------------------|------------------------------------|
E|------------------------------------|------------------------------------|

 F7
109
e|^18---15---15^18-------------15-----|------------------------------^17-15|
B|------------------------------------|15^17^15--13~-----------------------|
G|------------------------------------|------------------------------------|
D|------------------------------------|------------------------------------|
A|------------------------------------|------------------------------------|
E|------------------------------------|------------------------------------|
 |                                                                         |
e|------------------------------------|------------------------------------|
B|------------------1-----------3-----|4------------3-----1----------------|
G|------------1h2---2-----------3-----|5------------3-----2----------------|
D|------------------------------------|------------------------------------|
A|------------------------------------|------------------------------------|
E|------------------------------------|------------------------------------|

                                                         love  me  babe

 F7
111
e|15^17-15^18-----------(18)---(18)---|------------------------------------|
B|------------------------------------|15^17^15--13-13~\-------13----13----|
G|------------------------------------|-----------------/14----------------|
D|------------------------------------|------------------------------------|
A|------------------------------------|------------------------------------|
E|------------------------------------|------------------------------------|
 |                                                                         |
e|------------------------------------|------------------------------------|
B|------------7/8---7/8---------10----|11-----------10---/8\---------------|
G|------------7/8---7/8---------10----|12-----------10---/8\---------------|
D|------------------------------------|------------------------------------|
A|------------------------------------|------------------------------------|
E|------------------------------------|------------------------------------|

                                                         mmm  mm

 C7                                    B7
113
e|--------15--------------15----------|-----15--------------15-------------|
B|15^16--------15-^-^-16-------15--^--|-16-------15-^-^-16----------15--^--|
G|----- *16---------------------------|------------------------------------|
D|------------------------------------|------------------------------------|
A|------------------------------------|------------------------------------|
E|------------------------------------|------------------------------------|
 |                                                                         |
e|------------------------------------|------------------------------------|
B|------------8-----8-----------7-----|------------------7-----------------|
G|------------7-----7-----------8-----|------------6-----------6-----------|
D|------------8-----8-----------7-----|------7-----------------------7-----|
A|------------7-----7-----------8-----|6-----------------------------------|
E|------------------------------------|------------------------------------|

 Bb7                                    A7
115
e|-----15----15---------15------------|----------------------17^20--^20----|
B|^16--------15--^--16---------13-----|15-^-16^15--------------------------|
G|------------------------------------|------------------------------------|
D|------------------------------------|------------------------------------|
A|------------------------------------|------------------------------------|
E|------------------------------------|------------------------------------|
 |                                                                         |
e|------------------------------------|------------------------------------|
B|------------------6-----------------|5-----------------5-----------------|
G|------------5-----------5-----------|4-----------------4-----------------|
D|------6-----------------------6-----|5-----------------5-----------------|
A|5-----------------------------------|4-----------------4-----------------|
E|------------------------------------|------------------------------------|

                                                         come  on

 Dm7
117
e|17^20-20-20----17^20-----17^20------|------------------------------------|
B|------------------------------------|15^16^15p13-13~------13---15^17-----|
G|------------------------------------|-----------------14-----------------|
D|------------------------------------|------------------------------------|
A|------------------------------------|------------------------------------|
E|------------------------------------|------------------------------------|
 |                                                                         |
e|------------------------------------|------------------------------------|
B|6x----------------6-----------------|6-----------------------------------|
G|5x----------------5-----------------|5-----------------5h7p5-------------|
D|7x----------------7-----------------|7-----------------------7--5-----5--|
A|5x----------------5-----------------|5-----------------------------7-----|
E|------------------------------------|------------------------------------|

 G7
119
e|------15--------------------13------|----------13------------------------|
B|15^17----15^17^15--13--13-15--15^17-|13~--13-15--15^17^15p13-15^18-15^17^|
G|---------------------14-------------|---14-------------------------------|
D|------------------------------------|------------------------------------|
A|------------------------------------|------------------------------------|
E|------------------------------------|------------------------------------|
 |                                                                         |
e|------------------------------------|------------------------------------|
B|3-----3-----3-----3-----3-----3-----|3-----3-----3-----3-----3-----3-----|
G|4-----4-----4-----4-----4-----4-----|4-----4-----4-----4-----4-----4-----|
D|3-----3-----3-----3-----3-----3-----|3-----3-----3-----3-----3-----3-----|
A|5-----5-----5-----5-----5-----5-----|5-----5-----5-----5-----5-----5-----|
E|------------------------------------|--------------
comments
We did not receive enough feedback on this tab! Please rate:
1 2 3 4 5
I want to post or [tab]
guest
You may want to rate the tab now too:
select rating
Please do not post tabs as comments. Select "correction" instead!