Oops, an error
Loading. Please wait.

In Memory Of Elizabeth Reed Tab

ver1
ver1

Solo

Whole song

Interactive

More versions @911Tabs.com
11,084 views 18 this week
1 commentread comment
1 2 3 4 5
excellent!
x 6
Autoscroll
+/-
esc
set tempo
stop
Difficulty
advanced
Hey! There's an official Ultimate Guitar app which is ideal
for learning songs when you're away from computer. Get the app
WARNING: You are trying to view
                                    content from Ultimate-Guitar.com
                                    in an unauthorized application,
                                    which is prohibited.

                                    Please use an official Ultimate
                                    Guitar Tabs application for iPhone,
                                    iPad or Android to access legitimate
                                    chords, guitar, bass, and drum tabs
                                    from Ultimate-Guitar.com database.

                                    Type "ultimate guitar tabs" in Apple
                                    App Store's or Android Market's
                                    search to find the application.
okay so this is(attempting to be) Duane Allmans' solo in In memory of liz reed at 
east..enjoy hope it helps if people like it I will tab out somemore skydog but its tough so we 
see how it goes...
e|-------------------------------------------------------------10------------|
B|--8h10~-8-10-10brp8b----------------------10p8--8h10~8-10-10b---10rp8------|
G|--------------------9p7--5-7-7h8b-----/8-----------------------------------|
D|---------------------------------------------------------------------------|
A|---------------------------------------------------------------------------|
E|---------------------------------------------------------------------------|

e|-----------------------------------------------------------|
B|---8-8h10----------10brp8-8h10-10-10-10p8-8-8-8p7-7--------|
G|-9--------9-9-9~~~---------------------------------7~~7-7--|
D|-----------------------------------------------------------|
A|-----------------------------------------------------------|
E|-----------------------------------------------------------|

e|------------------------------------------------------------|
B|------8-8-8h10p8---8-7---------8h10-10-10-10p8-8-8-8p7-7-7--|
G|--7h9------------9-----7-7~~-7------------------------------|
D|------------------------------------------------------------|
A|------------------------------------------------------------|
E|------------------------------------------------------------|

e|-----------------------------------------------------------|
B|-----------------------------------------------------------|
G|-7-7b-7b-7b-7b-7br-5-7-5---5-5h7-7-7-7-7brp5--5-5p4-4-4----|
D|-------------------------7-------------------7---------5-5-|
A|-----------------------------------------------------------|
E|-----------------------------------------------------------|


e|------------------------------------------------------------|
B|---------------8--5----5p(0)--------------------------------|
G|-5h7-7-7-7-5--------7--------5h7-7-7-7p5---5h7-7-4----------|
D|-------------7---------------------------7---------5h7------|
A|------------------------------------------------------------|
E|------------------------------------------------------------|


e|------------------------------------------------------------|
B|-----------------------------5------------------------------|
G|--------------5-7p5---5-7-7b---7br-5-7~~-5-7p5-7p5---5------|
D|--5h7-5h7-5h7-------7------------------------------7--------|
A|------------------------------------------------------------|
E|------------------------------------------------------------|

e|-------------------------------------------|
B|------5------------------------------------|
G|--7br---7br(7)p5b------5-7-7brp5----5------|
D|------------------7--7------------7--------|
A|-------------------------------------------|
E|-------------------------------------------|

e|----------------------------------8p5-------8-10p8--------------------|
B|-----5------------------------8p5----5-8h10--------10-10br(10)-10brp8-|
G|--7b---7--5-7-5-7p5---5-7p5-7-----------------------------------------|
D|--------------------7-------------------------------------------------|
A|----------------------------------------------------------------------|
E|----------------------------------------------------------------------|

e|----------------------------------------------10b--10brp8-10p8----8h10-7~|
B|--10p8---8-8h10--7-------------------8-10p8-8------10b---------10--------|
G|-------9-----------7h9~~-9~~-9-9p6h9--------9----------------------------|
D|-------------------------------------------------------------------------|
A|-------------------------------------------------------------------------|
E|-------------------------------------------------------------------------|

e|-------------------------------------------------------------------|
B|-8-8-8h10-10-10-----------------8h10-10-10-10p8-8-8-8p6-5-5-5-5h8--|
G|----------------9p7-7-7-7h9-9-9------------------------------------|
D|-------------------------------------------------------------------|
A|-------------------------------------------------------------------|
E|-------------------------------------------------------------------|

e|-----------------------------------------------------------------|
B|-8-10-10-10-8-10-10brp8-----8---8h10-10-10-10p8-8-8p5-5-5----5---|
G|------------------------9-7-------------------------------7b-----|
D|-----------------------------------------------------------------|
A|-----------------------------------------------------------------|
E|-----------------------------------------------------------------|

e|-----------------------------------------------------------------------|
B|-5---------------------------------------------------------------------|
G|-7brp5--7p5---5---5-7br(7~)7b~~~--7brp5h7b---7~~-7br(7)p*-5p4-5-4-5-4*-|
D|------------7---7------------------------------------------------------|
A|-----------------------------------------------------------------------|
E|-----------------------------------------------------------------------|

e|------------------------------------------------------------------|
B|------------------------------------------------------------------|
G|--5-7-5-4-5-4-------------------0h7--7-5p(0)4---------------------|
D|---------------5-7----------------------------5-5-5h7-------------|
A|-------------------5-5h7-5h7-5------------------------5h7-5h7-----|
E|------------------------------------------------------------------|

e|-------------------------------------------------------------------------|
B|-------------------------------------------------------------------------|
G|-----------------------------------5-5-4---------------------------------|
D|-5---5-7-4-4-----4h5-4--------5-7--------5-----------5-7x-4x-4---5p4--0--|
A|---7---------5-5-------x5-7-x--------------7-0-5-7-0-----------5x----5---|
E|-------------------------------------------------------------------------|

e|------------------------------------------------------------|
B|------------------------------------------------------------|
G|--------x-4-5-7--5-4-5p4------------------------------------|
D|--4-5-7------------------5-x----------5-7-4--4---4-4h5-4-0--|
A|-----------------------------x-5-7-0-----------5------------|
E|------------------------------------------------------------|

e|---------------------------------------------------------|
B|---------------------------------------------------------|
G|-------------5-0-5-4-------5--5-4-------5-5-4-----5------|
D|--------5-7----------5-----7------7-----------7----------|
A|--7-7-0----------------7-7-0--------7-0---------7--------|
E|---------------------------------------------------------|

e|--------------------------------------------------------------|
B|--------------------------------------------------------------|
G|--5-4---------------------------------------------------------|
D|-------5-7-5h7~~-7--------------------------------------------|
A|-------------------7p6-7-7~~-5h7p5------7-7--7p5-8p5----------|
E|-----------------------------------7-8---------------7-8-8----|

e|------------------------------------------------------------|
B|------------------------------------------------------------|
G|------------------------------------------------------------|
D|------------------------------------------------------------|
A|--7-8-8h12br(12)-12-11-12p8-7p5-3-5h7--7-7~7~-7p5-7p5-----7-|
E|------------------------------------------------------7-8---|

e|------------------------------------------------------------|
B|------------------------------------------------------------|
G|------------------------------------------------------------|
D|------------------------------------------------------------|
A|-7-7-7~~5-7p5-------78h14-12-11--12p8-7-3-5-7-5-3-2-0-------|
E|--------------7-8-8-----------------------------------------|


e|------------------------------------------------------------|
B|------------------------------------------------------------|
G|-------5-7p5---5------------5-7p5-5--------5-7p5------------|
D|--5h7~-------7---7p5-7~~~~----------7-5-7~------7-5-5h7~~---|
A|------------------------------------------------------------|
E|------------------------------------------------------------|

e|-------------------------------------------8p5---5---------|
B|-------------------------------------8p5-------5---8h10----|
G|--5-7p5------7br(7)---5h7-7-7-7p5--------5-----------------|
D|--------5h7---------7-------------7------------------------|
A|----------0------------------------------------------------|
E|-----------------------------------------------------------|


e|-8-10-10br(10)p8-------------------------------------------|
B|-----------------10-8h10~-10-------------------------------|
G|---------------------------------5h7-7-7-7p5---7br(7)p5----|
D|-----------------------------7-7-------------0-------------|
A|-----------------------------------------------------------|
E|-----------------------------------------------------------|

e|--------------------------------------------------------------|
B|--------------------------------------------------------------|
G|----5-7-0-4-4-4------------------5----------------------------|
D|--7-------------5-5-7-5-5-4----0-5h7-7-7-5-7-7br(7)p5b--5h7p4-|
A|-----------------------------5-------------------------7------|
E|--------------------------------------------------------------|


e|----------------------------------------------------------|
B|----------------------------------------------------------|
G|-5-7-4-0-4----------0-------------------------------------|
D|-----------5-5h7-7---5h7-7-7p5---5h7-7-7p5---5h7-7-7p5----|
A|---------------------5h7-------7-----------7--------------|
E|----------------------------------------------------------|


e|------------------------------------------------------------|
B|------------------------------------------------------------|
G|-------------------------5----------------------------------|
D|---5h7-7-7p5---5h7---5-7---7-7-7p5---5h7-7-7p5---5-7-7------|
A|-7-----------7-------5-------------7-----------7------------|
E|-------------------7----------------------------------------|


e|------------------------------------------------------------|
B|------------------------------------------------------------|
G|------------5-7p5-------x-0---------------------------------|
D|---5h7-7-7~-------7-5-7-x-0-5h7-7-7p5---5h7-7-7p5---5h7-7---|
A|-7------------------------------------7-----------7---------|
E|------------------------------------------------------------|


e|-----------------------------------------------------------|
B|-----------------------------------------------------------|
G|------------------------5b-7br(7)p5------------------------|
D|--7p5---5h7-7-7p5---5-7-------------7-5-5h7-7-7p5---5h7----|
A|------7-----------7-------------------------------7--------|
E|-----------------------------------------------------------|

e|-----------------------------------------8------------------|
B|-------------------------5-7-7-8-8h10-10------13--12-15b----|
G|------------------5-5b-7-------------------14---14----------|
D|--7-7p5---5h7-7-7-------------------------------------------|
A|--------7---------------------------------------------------|
E|------------------------------------------------------------|


e|-15-15---------------------------15-------------------------|
B|-------13-15-15br(15)--13-15-15b---15br(15)p13-15-13--------|
G|---------------------14-----------------------------14-12---|
D|------------------------------------------------------------|
A|------------------------------------------------------------|
E|------------------------------------------------------------|


e|-----------15-15---15----------15-------15-15---------------|
B|----15-15b----15b~~15br(15)p13-15p13----13-15p13---13-15----|
G|-12----------------------------------14---------14----------|
D|------------------------------------------------------------|
A|------------------------------------------------------------|
E|------------------------------------------------------------|

e|-15-15--15----------15-15----------15-15-15---15-----------|
B|-15-15b-15br(15)p13-15-15br(15)15b----15-15b~~15br(15)p13b-|
G|-----------------------------------------------------------|
D|-----------------------------------------------------------|
A|-----------------------------------------------------------|
E|-----------------------------------------------------------|


e|----15-15----15-15---------------------15--15--15-----------|
B|----13-13h15-15-15-15p13---------------15b-15b-15br(15)p13--|
G|-14---------------------14-12-14--14p12---------------------|
D|--------------------------------14--------------------------|
A|------------------------------------------------------------|
E|------------------------------------------------------------|


e|---------15-----------15-15------15-----------15-15-15--15--|
B|---13-15-15br(15)p13--13-15b-15b-15br(15)p13--15b15-13--13--|
G|-14-----------------14----------------------14--------14----|
D|------------------------------------------------------------|
A|------------------------------------------------------------|
E|------------------------------------------------------------|

e|-15----15-15-----15----15-15-----15----15-15------15--------|
B|-13h15----15p13--13h15-15-15p13--13h15----15p13---13h15-----|
G|---------------14--------------14--------------14-----------|
D|------------------------------------------------------------|
A|------------------------------------------------------------|
E|------------------------------------------------------------|

e|-15-------15--------17--17---20p17--20p17--20p17--20p17-------|
B|-15br(15)-13-----17---17--17------17-----17-----17-----17-----|
G|--------------14----------------------------------------------|
D|--------------------------------------------------------------|
A|--------------------------------------------------------------|
E|--------------------------------------------------------------|

e|-20p17--20p17--20p17--20p17--20p17--20p17--20p17--20p17-----|
B|------17-----17-----17-----17-----17-----17-----17-----17---|
G|------------------------------------------------------------|
D|------------------------------------------------------------|
A|------------------------------------------------------------|
E|------------------------------------------------------------|

e|-20p17--20p17--20p17--20p17--20p17--20p17--20p17--20p17-----|
B|------17-----17-----17-----17-----17-----17-----17-----17---|
G|------------------------------------------------------------|
D|------------------------------------------------------------|
A|------------------------------------------------------------|
E|------------------------------------------------------------|


e|-20p17--20p17--20p17--20p17--20p17--20p17--20p17--20p17-----|
B|------17-----17-----17-----17-----17-----17-----17-----17---|
G|------------------------------------------------------------|
D|------------------------------------------------------------|
A|------------------------------------------------------------|
E|------------------------------------------------------------|

e|-20p17--20b-20-17-20--20p17--20p17--20p17--20p17---17-------|
B|------17------------17-----17-----17-----17-----17-1720b-20b|
G|------------------------------------------------------------|
D|------------------------------------------------------------|
A|------------------------------------------------------------|
E|------------------------------------------------------------|

e|------------------------------------------------------------|
B|-20-17p15-15-15p13-13-13p12-12-12p8-8-8h10-10-10-7-7p5-5----|
G|--------------------------------------------------------7b--|
D|------------------------------------------------------------|
A|------------------------------------------------------------|
E|------------------------------------------------------------|

e|------------------------------------------------------------|
B|------------------------------------------------------------|
G|--7br(7)-7br(7)p5-7br(7)~~---7br(7)h9br(9)p7-7b(7)-(7)~~----|
D|--------------------------7-7---------------7---------------|
A|------------------------------------------------------------|
E|------------------------------------------------------------|

e|----------------------------------------------------------|
B|-------------------15b(15)--13-15b-15-13-15br(15)-15b-----|
G|-5-4-2~~-5-7-5h7p5--------14------------------------------|
D|----------------------------------------------------------|
A|----------------------------------------------------------|
E|----------------------------------------------------------|

e|-----12-15-12--12~~-------------------------------------------|
B|---12--------15----15-13-15p(1315)13-12-12--------------------|
G|-14---------------------------------------12-14-14~~-12-14----|
D|--------------------------------------------------------------|
A|--------------------------------------------------------------|
E|--------------------------------------------------------------|

e|---15-----------------------------------------------12------|
B|-13--13--13-15b--13-15-15br(15)p13-15br(15)-15~~--12--------|
G|-------14------14-------------------------------14----------|
D|------------------------------------------------------------|
A|------------------------------------------------------------|
E|------------------------------------------------------------|

e|-15-13-12-13p12--12-----------------------------------------|
B|---------------15--15-13-13h13p12--12-----------------------|
G|---------------------------------14--14-12~~~~-12-12-12-----|
D|------------------------------------------------------------|
A|------------------------------------------------------------|
E|------------------------------------------------------------|

e|------------------------------------------------------------|
B|------------------------------------------------------------|
G|-12p11-11-11-11p7-7-7-7h9-9-9-5-5-/12-12-12-12p9-9-9-9p5----|
D|------------------------------------------------------------|
A|------------------------------------------------------------|
E|------------------------------------------------------------|

e|------------------------------------------------------------|
B|---------------------------------------------------5h8p5----|
G|-5-5-5h7-7-7-7h9-9-9-9h12-12-12-12h14-14-14-14/7-7------7---|
D|------------------------------------------------------------|
A|------------------------------------------------------------|
E|------------------------------------------------------------|

e|------------------------------------------------------------|
B|-5h8p5-5h8p5-5h8p5-5-5-5h8p5-5h8p5-5h8p5-5h8p5-5h8p5--------|
G|------7-----7-----7---------------7-----7-----7-----7-------|
D|------------------------------------------------------------|
A|------------------------------------------------------------|
E|------------------------------------------------------------|

e|------------------------------------------------------------|
B|-5h8p5-5h8p5-5h8p5-5h8p5-5h8p5-5h8p5-5h8p5-5h8p5-5h8p5------|
G|------7-----7-----7-----7-----7-----7-----7-----7-----------|
D|------------------------------------------------------------|
A|------------------------------------------------------------|
E|------------------------------------------------------------|

e|------------------------------------------------15--15------|
B|-*10p5h10-11p5h11~~~~~~~~~~~~~--13--15-15br(15)-15b-15b-----|
G|------------------------------14--14------------------------|
D|------------------------------------------------------------|
A|------------------------------------------------------------|
E|------------------------------------------------------------|

*tap trill with pick(similiar to tapping) sry don't know how else to tab that..

e|-15-----------15-15-15------15-15-15------15-15-15--15------|
B|-15br(15)p13--13-15-15b(15)-13-15-15b(15)-13-15-15b-15b-----|
G|------------14----------------------------------------------|
D|------------------------------------------------------------|
A|------------------------------------------------------------|
E|------------------------------------------------------------|

e|-15-----------15-15-15-----15-15-15------15-----------15-15-|
B|-15br(15)p13--13-13-15p13--13-15-15br15b-15br(15)p13--13-15-|
G|------------14-----------14-------------------------14------|
D|------------------------------------------------------------|
A|------------------------------------------------------------|
E|------------------------------------------------------------|

e|-15----------15-15-15-----------------------15-15-15-15-15--|
B|-15br(15)p13-15-15-15b-15br(15)p13-15-15-13-15-13-13-13-15--|
G|------------------------------------------------------------|
D|------------------------------------------------------------|
A|------------------------------------------------------------|
E|------------------------------------------------------------|

e|-15--------15-----------15--15--15-----------15--15---------|
B|-15br(15)b-15br(15)p13--15b-15b-15br(15)p13--15b-15br(15)p--|
G|----------------------14-------------------14---------------|
D|------------------------------------------------------------|
A|------------------------------------------------------------|
E|------------------------------------------------------------|

e|------15--15-------15---15--15-------15----------15---------|
B|-13---15b-15br(15)-13---15b-15br(15)-13---13h15b-15b--------|
G|---14----------------14----------------14-------------------|
D|------------------------------------------------------------|
A|------------------------------------------------------------|
E|------------------------------------------------------------|

e|-15-------15----15--15--15-------------15-15----------------|
B|-15br(15)-13-13-15b-15b-15br(15)p13-13-13-13-15b-15b--------|
G|-------------14---------------------14----------------------|
D|------------------------------------------------------------|
A|------------------------------------------------------------|
E|------------------------------------------------------------|


e|-15------------------------15p12-15p12--12-15p12-15p12-15p12|
B|-15br(15)p13-15p13-13-13-15-----------15--------------------|
G|------------------------------------------------------------|
D|------------------------------------------------------------|
A|------------------------------------------------------------|
E|------------------------------------------------------------|


e|-15p12-15p12-15p12-15p12p-15p12-15p12-15p12-15p12-15p12-----|
B|------------------------------------------------------------|
G|------------------------------------------------------------|
D|------------------------------------------------------------|
A|------------------------------------------------------------|
E|------------------------------------------------------------|

e|-15p12-15p12-15p12-15p12-15-15p12-15-15p12-15-15p12-15------|
B|------------------------------------------------------------|
G|------------------------------------------------------------|
D|------------------------------------------------------------|
A|------------------------------------------------------------|
E|------------------------------------------------------------|

e|-15p12-15-15p12-15-15p12-15-15p12-15-15p12-15-15p12-15p12---|
B|-------------------------------------------------12----12---|
G|------------------------------------------------------------|
D|------------------------------------------------------------|
A|------------------------------------------------------------|
E|------------------------------------------------------------|

e|-15-15-12-12-15b-15b~~15~~----------------------------------|
B|------------------------------------------------------------|
G|------------------------------------------------------------|
D|------------------------------------------------------------|
A|------------------------------------------------------------|
E|------------------------------------------------------------|

and about 10 yrs later i think thats it..I probably screwed up a lot, I mean I am trying 
tab out the great Duane Allman so comment or any questions: bthoma@fairpoint.net




          h= hammer on
          p= pull off
          /= slide up to note
          \= slide down to note
          b= bend
          r= bend release
          ~= vibrato
comments
print report bad tab
1 comment total.
0 reply
ce12872001 wrote on November 18 2009, 04:11 pm

Dude very nice...that tabs a handful, I dunno if its 100% but it doesn't need to be duane played it different everytime. Great job, this tab helped really get me going on this song.

I want to post or [tab]
guest
You may want to rate the tab now too:
select rating
Please do not post tabs as comments. Select "correction" instead!